0
SECTION
2
HEADER
9
$LTSCALE
40
20
9
$LIMMIN
10
-20
20
-140
9
$LIMMAX
10
150
20
20
9
$EXTMIN
10
-5
20
-125
9
$EXTMAX
10
175.5
20
8
9
$SNAPMODE
70
0
9
$SNAPUNIT
10
1
20
1
9
$GRIDMODE
70
0
9
$GRIDUNIT
10
0
20
0
9
$ORTHOMODE
70
0
9
$TEXTSTYLE
7
txt8
9
$CLAYER
8
1
9
$CECOLOR
62
7
9
$CELTYPE
6
CONTINUOUS
9
$PLINEWID
40
0
9
$OSMODE
70
0
9
$FILLMODE
70
1
9
$CHAMFERA
40
10
9
$CHAMFERB
40
10
9
$COORDS
70
1
9
$FILLETRAD
40
15
9
$INSBASE
10
0
20
0
9
$SPLFRAME
70
0
9
$SPLINESEGS
70
8
0
ENDSEC
0
SECTION
2
TABLES
0
TABLE
2
LTYPE
70
9
0
LTYPE
2
GESTRICHELT
70
0
3
__ __ __ __ __ __ __ __ __ __ __ __ __ __ __
72
65
73
2
40
0.75
49
0.5
49
-0.25
0
LTYPE
2
VERDECKT
70
0
3
_ _ _ _ _ _ _ _ _ _ _ _ _ _ _ _ _ _ _ _ _ _ 
72
65
73
2
40
0.25
49
0.125
49
-0.125
0
LTYPE
2
MITTE
70
0
3
____ _ ____ _ ____ _ ____ _ ____ _ ____ _ __
72
65
73
4
40
2
49
1.25
49
-0.25
49
0.25
49
-0.25
0
LTYPE
2
PHANTOM
70
0
3
_____ _ _ _____ _ _ _____ _ _ _____ _ _ ____
72
65
73
6
40
2.5
49
1.25
49
-0.25
49
0.25
49
-0.25
49
0.25
49
-0.25
0
LTYPE
2
PUNKT
70
0
3
............................................
72
65
73
2
40
0.25
49
0
49
-0.25
0
LTYPE
2
STRICHPUNKT
70
0
3
__ . __ . __ . __ . __ . __ . __ . __ . __ .
72
65
73
4
40
1
49
0.5
49
-0.25
49
0
49
-0.25
0
LTYPE
2
RAND
70
0
3
__ __ . __ __ . __ __ . __ __ . __ __ . __ _
72
65
73
6
40
1.75
49
0.5
49
-0.25
49
0.5
49
-0.25
49
0
49
-0.25
0
LTYPE
2
GETRENNT
70
0
3
__ . . __ . . __ . . __ . . __ . . __ . . __
72
65
73
6
40
1.25
49
0.5
49
-0.25
49
0
49
-0.25
49
0
49
-0.25
0
LTYPE
2
PUNKTE
70
0
3
schliess
72
65
73
2
40
0.1
49
0.05
49
-0.05
0
ENDTAB
0
TABLE
2
STYLE
70
1
0
STYLE
2
STANDARD
70
0
40
0
41
1
50
0
71
0
42
0
3
txt8
4

0
ENDTAB
0
TABLE
2
LAYER
70
10
0
LAYER
2
1
70
0
62
7
6
CONTINUOUS
0
LAYER
2
2
70
0
62
7
6
CONTINUOUS
0
LAYER
2
3
70
0
62
7
6
CONTINUOUS
0
LAYER
2
4
70
0
62
7
6
CONTINUOUS
0
LAYER
2
5
70
0
62
7
6
CONTINUOUS
0
LAYER
2
6
70
0
62
7
6
CONTINUOUS
0
LAYER
2
7
70
0
62
7
6
CONTINUOUS
0
LAYER
2
8
70
0
62
7
6
CONTINUOUS
0
LAYER
2
9
70
0
62
7
6
CONTINUOUS
0
LAYER
2
10
70
0
62
7
6
CONTINUOUS
0
ENDTAB
0
ENDSEC
0
SECTION
2
ENTITIES
0
LINE
8
2
62
7
10
34.64101
20
-125
11
113.218
21
-125
0
TEXT
8
1
62
7
40
3
1
Programmierbeispiel
7
STANDARD
72
0
10
127
20
-10
0
TEXT
8
1
62
7
40
3
1
MAHO  Ebene G18
7
STANDARD
72
0
10
127
20
-15
0
TEXT
8
1
62
7
40
3
1

7
STANDARD
72
0
10
127
20
-20
0
TEXT
8
1
62
7
40
3
1
Kontur in Layer 2
7
STANDARD
72
0
10
127
20
-25
0
TEXT
8
1
62
7
40
3
1
Text in Layer 1
7
STANDARD
72
0
10
127
20
-30
0
TEXT
8
1
62
7
40
3
1
441.SKD
7
STANDARD
72
0
10
152.743
20
-115.4746
0
ARC
8
2
62
7
10
68.36427
20
-73
40
16
50
129.4919
51
270
0
LINE
8
2
62
7
10
85.41763
20
-0.7170796
11
20.83638
21
-21.43379
0
LINE
8
2
62
7
10
99.53897
20
-26.5759
11
58.18876
21
-60.65257
0
LINE
8
2
62
7
10
0
20
-105
11
0
21
-50
0
LINE
8
2
62
7
10
0
20
-105
11
34.64101
21
-125
0
ARC
8
2
62
7
10
30
20
-50
40
30
50
107.759
51
180
0
CIRCLE
8
1
62
7
10
0
20
0
40
2
0
CIRCLE
8
1
62
7
10
0
20
0
40
3
0
LINE
8
1
62
7
10
0
20
0
11
10
21
0
0
LINE
8
1
62
7
10
-1
20
-9
11
0
21
-11
0
TEXT
8
1
62
7
40
5
1
Z
7
STANDARD
72
0
10
-5
20
-13
0
LINE
8
1
62
7
10
0
20
0
11
0
21
-11
0
LINE
8
1
62
7
10
0
20
-11
11
1
21
-9
0
LINE
8
1
62
7
10
10
20
0
11
8
21
-1
0
LINE
8
1
62
7
10
10
20
0
11
8
21
1
0
TEXT
8
1
62
7
40
5
1
X
7
STANDARD
72
0
10
8
20
3
0
LINE
8
2
62
7
10
68.36427
20
-89
11
114
21
-89
0
ARC
8
2
62
7
10
114
20
-105
40
16
50
0
51
90
0
LINE
8
2
62
7
10
130
20
-105
11
113.218
21
-125
0
ARC
8
2
62
7
10
89.99944
20
-15.00018
40
15
50
309.4919
51
107.7855
0
ENDSEC
0
EOF
