0
SECTION
2
HEADER
9
$LIMMIN
10
-116.587500
20
-251.982564
9
$LIMMAX
10
580.087500
20
164.926404
9
$EXTMIN
10
-100.000000
20
-242.056160
9
$EXTMAX
10
563.500000
20
155.000000
0
SECTION
2
ENTITIES
0
LINE
8
VDAPS_DIN
6
AUSGEZOGEN
62
1
10
0.0
20
0.0
11
0.0
21
32.5
0
LINE
8
VDAPS_DIN
6
AUSGEZOGEN
62
1
10
0.0
20
32.5
11
4.0
21
32.5
0
LINE
8
VDAPS_DIN
6
AUSGEZOGEN
62
1
10
4.0
20
32.5
11
4.0
21
50.0
0
LINE
8
VDAPS_DIN
6
AUSGEZOGEN
62
1
10
4.0
20
50.0
11
7.0
21
50.0
0
LINE
8
VDAPS_DIN
6
AUSGEZOGEN
62
1
10
7.0
20
50.0
11
7.0
21
56.690599
0
LINE
8
VDAPS_DIN
6
AUSGEZOGEN
62
1
10
9.0
20
60.154701
11
45.0
21
80.93931
0
LINE
8
VDAPS_DIN
6
AUSGEZOGEN
62
1
10
50.0
20
89.599564
11
50.0
21
121.0
0
LINE
8
VDAPS_DIN
6
AUSGEZOGEN
62
1
10
54.0
20
125.0
11
65.0
21
125.0
0
ARC
8
VDAPS_DIN
6
AUSGEZOGEN
62
1
10
11.0
20
56.690599
40
4.0
50
120.0
51
180.0
0
ARC
8
VDAPS_DIN
6
AUSGEZOGEN
62
1
10
40.0
20
89.599564
40
10.0
50
300.0
51
0.0
0
ARC
8
VDAPS_DIN
6
AUSGEZOGEN
62
1
10
54.0
20
121.0
40
4.0
50
90.0
51
180.0
0
LINE
8
VDAPS_DIN
6
AUSGEZOGEN
62
1
10
0.0
20
0.0
11
0.0
21
-32.5
0
LINE
8
VDAPS_DIN
6
AUSGEZOGEN
62
1
10
0.0
20
-32.5
11
4.0
21
-32.5
0
LINE
8
VDAPS_DIN
6
AUSGEZOGEN
62
1
10
4.0
20
-32.5
11
4.0
21
-50.0
0
LINE
8
VDAPS_DIN
6
AUSGEZOGEN
62
1
10
4.0
20
-50.0
11
7.0
21
-50.0
0
LINE
8
VDAPS_DIN
6
AUSGEZOGEN
62
1
10
7.0
20
-50.0
11
7.0
21
-56.690599
0
ARC
8
VDAPS_DIN
6
AUSGEZOGEN
62
1
10
11.0
20
-56.690599
40
4.0
50
180.0
51
240.0
0
LINE
8
VDAPS_DIN
6
AUSGEZOGEN
62
1
10
9.0
20
-60.154701
11
45.0
21
-80.93931
0
ARC
8
VDAPS_DIN
6
AUSGEZOGEN
62
1
10
40.0
20
-89.599564
40
10.0
50
0.0
51
60.0
0
LINE
8
VDAPS_DIN
6
AUSGEZOGEN
62
1
10
50.0
20
-89.599564
11
50.0
21
-97.746146
0
LINE
8
VDAPS_DIN
6
AUSGEZOGEN
62
1
10
50.0
20
-114.746146
11
50.0
21
-135.0
0
LINE
8
VDAPS_DIN
6
AUSGEZOGEN
62
1
10
4.0
20
32.5
11
4.0
21
-32.5
0
LINE
8
VDAPS_DIN
6
AUSGEZOGEN
62
1
10
7.0
20
50.0
11
7.0
21
-50.0
0
LINE
8
VDAPS_DIN
6
AUSGEZOGEN
62
1
10
50.0
20
89.599564
11
50.0
21
-89.599564
0
LINE
8
VDAPS_DIN
6
AUSGEZOGEN
62
1
10
45.5
20
-114.746146
11
45.5
21
-97.746146
0
LINE
8
VDAPS_DIN
6
AUSGEZOGEN
62
1
10
45.5
20
-97.746146
11
50.0
21
-97.746146
0
LINE
8
VDAPS_DIN
6
AUSGEZOGEN
62
1
10
50.0
20
-97.746146
11
50.0
21
-114.746146
0
LINE
8
VDAPS_DIN
6
AUSGEZOGEN
62
1
10
50.0
20
-114.746146
11
45.5
21
-114.746146
0
LINE
8
VDAPS_DIN
6
AUSGEZOGEN
62
1
10
0.0
20
25.0
11
-10.0
21
25.0
0
LINE
8
VDAPS_DIN
6
AUSGEZOGEN
62
1
10
-10.0
20
25.0
11
-10.0
21
28.5
0
LINE
8
VDAPS_DIN
6
AUSGEZOGEN
62
1
10
-10.0
20
28.5
11
-90.0
21
28.5
0
LINE
8
VDAPS_DIN
6
AUSGEZOGEN
62
1
10
-90.0
20
28.5
11
-90.0
21
25.0
0
LINE
8
VDAPS_DIN
6
AUSGEZOGEN
62
1
10
-90.0
20
25.0
11
-99.0
21
25.0
0
LINE
8
VDAPS_DIN
6
AUSGEZOGEN
62
1
10
-99.0
20
25.0
11
-100.0
21
24.0
0
LINE
8
VDAPS_DIN
6
AUSGEZOGEN
62
1
10
-100.0
20
24.0
11
-100.0
21
-24.0
0
LINE
8
VDAPS_DIN
6
AUSGEZOGEN
62
1
10
-100.0
20
-24.0
11
-99.0
21
-25.0
0
LINE
8
VDAPS_DIN
6
AUSGEZOGEN
62
1
10
-99.0
20
-25.0
11
0.0
21
-25.0
0
LINE
8
VDAPS_DIN
6
AUSGEZOGEN
62
1
10
-99.0
20
25.0
11
-99.0
21
-25.0
0
LINE
8
VDAPS_DIN
6
AUSGEZOGEN
62
1
10
-90.0
20
25.0
11
-90.0
21
24.0
0
LINE
8
VDAPS_DIN
6
AUSGEZOGEN
62
1
10
-90.0
20
24.0
11
-10.0
21
24.0
0
LINE
8
VDAPS_DIN
6
AUSGEZOGEN
62
1
10
-10.0
20
24.0
11
-10.0
21
25.0
0
LINE
8
VDAPS_DIN
6
AUSGEZOGEN
62
2
10
-2.5
20
25.0
11
-2.5
21
-25.0
0
LINE
8
VDAPS_DIN
6
AUSGEZOGEN
62
1
10
65.0
20
125.0
11
81.0
21
125.0
0
LINE
8
VDAPS_DIN
6
AUSGEZOGEN
62
1
10
65.0
20
-134.888544
11
65.0
21
125.0
0
LINE
8
VDAPS_DIN
6
AUSGEZOGEN
62
1
10
259.0
20
125.0
11
275.0
21
125.0
0
LINE
8
VDAPS_DIN
6
AUSGEZOGEN
62
1
10
275.0
20
125.0
11
275.0
21
-125.0
0
LINE
8
VDAPS_DIN
6
AUSGEZOGEN
62
1
10
275.0
20
-125.0
11
260.875485
21
-125.0
0
ARC
8
VDAPS_DIN
6
AUSGEZOGEN
62
1
10
111.244998
20
-185.0
40
8.0
50
90.0
51
141.317813
0
ARC
8
VDAPS_DIN
6
AUSGEZOGEN
62
1
10
228.755002
20
-185.0
40
8.0
50
38.682187
51
90.0
0
LINE
8
VDAPS_DIN
6
AUSGEZOGEN
62
1
10
111.244998
20
-177.0
11
228.755002
21
-177.0
0
LINE
8
VDAPS_DIN
6
AUSGEZOGEN
62
1
10
105.0
20
-180.0
11
15.0
21
-180.0
0
LINE
8
VDAPS_DIN
6
AUSGEZOGEN
62
1
10
15.0
20
-180.0
11
15.0
21
-141.0
0
LINE
8
VDAPS_DIN
6
AUSGEZOGEN
62
1
10
235.0
20
-180.0
11
325.0
21
-180.0
0
LINE
8
VDAPS_DIN
6
AUSGEZOGEN
62
1
10
325.0
20
-141.0
11
325.0
21
-180.0
0
LINE
8
VDAPS_DIN
6
AUSGEZOGEN
62
1
10
21.0
20
-135.0
11
63.0
21
-135.0
0
LINE
8
VDAPS_DIN
6
AUSGEZOGEN
62
1
10
81.0
20
-117.0
11
81.0
21
125.0
0
LINE
8
VDAPS_DIN
6
AUSGEZOGEN
62
1
10
85.0
20
129.0
11
255.0
21
129.0
0
ARC
8
VDAPS_DIN
6
AUSGEZOGEN
62
1
10
21.0
20
-141.0
40
6.0
50
90.0
51
180.0
0
ARC
8
VDAPS_DIN
6
AUSGEZOGEN
62
1
10
63.0
20
-117.0
40
18.0
50
270.0
51
0.0
0
ARC
8
VDAPS_DIN
6
AUSGEZOGEN
62
1
10
85.0
20
125.0
40
4.0
50
90.0
51
180.0
0
LINE
8
VDAPS_DIN
6
AUSGEZOGEN
62
1
10
259.0
20
125.0
11
259.0
21
-117.0
0
LINE
8
VDAPS_DIN
6
AUSGEZOGEN
62
1
10
277.0
20
-135.0
11
319.0
21
-135.0
0
ARC
8
VDAPS_DIN
6
AUSGEZOGEN
62
1
10
255.0
20
125.0
40
4.0
50
0.0
51
90.0
0
ARC
8
VDAPS_DIN
6
AUSGEZOGEN
62
1
10
277.0
20
-117.0
40
18.0
50
180.0
51
270.0
0
ARC
8
VDAPS_DIN
6
AUSGEZOGEN
62
1
10
319.0
20
-141.0
40
6.0
50
0.0
51
90.0
0
ARC
8
VDAPS_DIN
6
AUSGEZOGEN
62
1
10
63.0
20
-117.0
40
26.660254
50
270.0
51
0.0
0
ARC
8
VDAPS_DIN
6
AUSGEZOGEN
62
1
10
277.0
20
-117.0
40
26.660254
50
180.0
51
270.0
0
LINE
8
VDAPS_DIN
6
AUSGEZOGEN
62
1
10
89.660254
20
-117.0
11
89.660254
21
-50.0
0
LINE
8
VDAPS_DIN
6
AUSGEZOGEN
62
1
10
89.660254
20
-50.0
11
81.0
21
52.0
0
LINE
8
VDAPS_DIN
6
AUSGEZOGEN
62
1
10
250.339746
20
-117.0
11
250.339746
21
-50.0
0
LINE
8
VDAPS_DIN
6
AUSGEZOGEN
62
1
10
250.339746
20
-50.0
11
259.0
21
52.0
0
ARC
8
VDAPS_DIN
6
AUSGEZOGEN
62
1
10
17.660254
20
-141.0
40
2.660254
50
180.0
51
270.0
0
LINE
8
VDAPS_DIN
6
AUSGEZOGEN
62
1
10
17.660254
20
-143.660254
11
63.0
21
-143.660254
0
ARC
8
VDAPS_DIN
6
AUSGEZOGEN
62
1
10
322.339746
20
-141.0
40
2.660254
50
270.0
51
0.0
0
LINE
8
VDAPS_DIN
6
AUSGEZOGEN
62
1
10
322.339746
20
-143.660254
11
277.0
21
-143.660254
0
LINE
8
VDAPS_DIN
6
AUSGEZOGEN
62
2
10
89.9
20
52.0
11
250.1
21
52.0
0
LINE
8
VDAPS_DIN
6
AUSGEZOGEN
62
2
10
98.560254
20
-50.0
11
241.439746
21
-50.0
0
ARC
8
VDAPS_DIN
6
AUSGEZOGEN
62
1
10
192.166667
20
129.0
40
7.166667
50
130.449719
51
180.0
0
ARC
8
VDAPS_DIN
6
AUSGEZOGEN
62
1
10
147.833333
20
129.0
40
7.166667
50
0.0
51
49.550281
0
ARC
8
VDAPS_DIN
6
AUSGEZOGEN
62
1
10
170.0
20
155.0
40
27.0
50
310.449719
51
229.550281
0
LINE
8
VDAPS_DIN
6
AUSGEZOGEN
62
1
10
155.0
20
129.0
11
185.0
21
129.0
0
CIRCLE
8
VDAPS_DIN
6
AUSGEZOGEN
62
1
10
170.0
20
155.0
40
15.0
0
LINE
8
VDAPS_DIN
6
AUSGEZOGEN
62
1
10
185.0
20
129.0
11
184.5
21
139.0
0
LINE
8
VDAPS_DIN
6
AUSGEZOGEN
62
1
10
184.5
20
139.0
11
174.645757
21
140.737569
0
LINE
8
VDAPS_DIN
6
AUSGEZOGEN
62
1
10
155.0
20
129.0
11
155.5
21
139.0
0
LINE
8
VDAPS_DIN
6
AUSGEZOGEN
62
1
10
155.5
20
139.0
11
165.354243
21
140.737569
0
LINE
8
VDAPS_DIN
6
AUSGEZOGEN
62
1
10
155.5
20
139.0
11
184.5
21
139.0
0
LINE
8
VDAPS_DIN
6
AUSGEZOGEN
62
1
10
99.5
20
133.5
11
116.5
21
133.5
0
LINE
8
VDAPS_DIN
6
AUSGEZOGEN
62
1
10
116.5
20
133.5
11
116.5
21
129.0
0
LINE
8
VDAPS_DIN
6
AUSGEZOGEN
62
1
10
116.5
20
129.0
11
99.5
21
129.0
0
LINE
8
VDAPS_DIN
6
AUSGEZOGEN
62
1
10
99.5
20
129.0
11
99.5
21
133.5
0
LINE
8
VDAPS_DIN
6
AUSGEZOGEN
62
1
10
116.5
20
-1.345277
11
115.852976
21
1.872919
0
LINE
8
VDAPS_DIN
6
AUSGEZOGEN
62
1
10
115.852976
20
1.872919
11
114.010408
21
4.601175
0
LINE
8
VDAPS_DIN
6
AUSGEZOGEN
62
1
10
114.010408
20
4.601175
11
111.252809
21
6.424137
0
LINE
8
VDAPS_DIN
6
AUSGEZOGEN
62
1
10
111.252809
20
6.424137
11
108.0
21
7.064276
0
LINE
8
VDAPS_DIN
6
AUSGEZOGEN
62
1
10
108.0
20
7.064276
11
104.747191
21
6.424137
0
LINE
8
VDAPS_DIN
6
AUSGEZOGEN
62
1
10
104.747191
20
6.424137
11
101.989592
21
4.601175
0
LINE
8
VDAPS_DIN
6
AUSGEZOGEN
62
1
10
101.989592
20
4.601175
11
100.147024
21
1.872919
0
LINE
8
VDAPS_DIN
6
AUSGEZOGEN
62
1
10
100.147024
20
1.872919
11
99.5
21
-1.345277
0
LINE
8
VDAPS_DIN
6
AUSGEZOGEN
62
1
10
99.5
20
-2.0
11
100.147024
21
-5.218196
0
LINE
8
VDAPS_DIN
6
AUSGEZOGEN
62
1
10
100.147024
20
-5.218196
11
101.989592
21
-7.946452
0
LINE
8
VDAPS_DIN
6
AUSGEZOGEN
62
1
10
101.989592
20
-7.946452
11
104.747191
21
-9.769414
0
LINE
8
VDAPS_DIN
6
AUSGEZOGEN
62
1
10
104.747191
20
-9.769414
11
108.0
21
-10.409553
0
LINE
8
VDAPS_DIN
6
AUSGEZOGEN
62
1
10
108.0
20
-10.409553
11
111.252809
21
-9.769414
0
LINE
8
VDAPS_DIN
6
AUSGEZOGEN
62
1
10
111.252809
20
-9.769414
11
114.010408
21
-7.946452
0
LINE
8
VDAPS_DIN
6
AUSGEZOGEN
62
1
10
114.010408
20
-7.946452
11
115.852976
21
-5.218196
0
LINE
8
VDAPS_DIN
6
AUSGEZOGEN
62
1
10
115.852976
20
-5.218196
11
116.5
21
-2.0
0
LINE
8
VDAPS_DIN
6
AUSGEZOGEN
62
1
10
99.5
20
-1.345277
11
99.5
21
-2.0
0
LINE
8
VDAPS_DIN
6
AUSGEZOGEN
62
1
10
116.5
20
-1.345277
11
116.5
21
-2.0
0
LINE
8
VDAPS_DIN
6
AUSGEZOGEN
62
1
10
99.5
20
-1.345277
11
100.147024
21
-4.563474
0
LINE
8
VDAPS_DIN
6
AUSGEZOGEN
62
1
10
100.147024
20
-4.563474
11
101.989592
21
-7.291729
0
LINE
8
VDAPS_DIN
6
AUSGEZOGEN
62
1
10
101.989592
20
-7.291729
11
104.747191
21
-9.114691
0
LINE
8
VDAPS_DIN
6
AUSGEZOGEN
62
1
10
104.747191
20
-9.114691
11
108.0
21
-9.75483
0
LINE
8
VDAPS_DIN
6
AUSGEZOGEN
62
1
10
108.0
20
-9.75483
11
111.252809
21
-9.114691
0
LINE
8
VDAPS_DIN
6
AUSGEZOGEN
62
1
10
111.252809
20
-9.114691
11
114.010408
21
-7.291729
0
LINE
8
VDAPS_DIN
6
AUSGEZOGEN
62
1
10
114.010408
20
-7.291729
11
115.852976
21
-4.563474
0
LINE
8
VDAPS_DIN
6
AUSGEZOGEN
62
1
10
115.852976
20
-4.563474
11
116.5
21
-1.345277
0
LINE
8
VDAPS_DIN
6
AUSGEZOGEN
62
1
10
105.0
20
0.368343
11
108.0
21
2.081964
0
LINE
8
VDAPS_DIN
6
AUSGEZOGEN
62
1
10
108.0
20
2.081964
11
111.0
21
0.368343
0
LINE
8
VDAPS_DIN
6
AUSGEZOGEN
62
1
10
111.0
20
0.368343
11
111.0
21
-3.058897
0
LINE
8
VDAPS_DIN
6
AUSGEZOGEN
62
1
10
111.0
20
-3.058897
11
108.0
21
-4.772518
0
LINE
8
VDAPS_DIN
6
AUSGEZOGEN
62
1
10
108.0
20
-4.772518
11
105.0
21
-3.058897
0
LINE
8
VDAPS_DIN
6
AUSGEZOGEN
62
1
10
105.0
20
-3.058897
11
105.0
21
0.368343
0
CIRCLE
8
VDAPS_DIN
6
AUSGEZOGEN
62
1
10
240.0
20
-163.0
40
8.5
0
LINE
8
VDAPS_DIN
6
AUSGEZOGEN
62
1
10
237.0
20
-161.267949
11
240.0
21
-159.535898
0
LINE
8
VDAPS_DIN
6
AUSGEZOGEN
62
1
10
240.0
20
-159.535898
11
243.0
21
-161.267949
0
LINE
8
VDAPS_DIN
6
AUSGEZOGEN
62
1
10
243.0
20
-161.267949
11
243.0
21
-164.732051
0
LINE
8
VDAPS_DIN
6
AUSGEZOGEN
62
1
10
243.0
20
-164.732051
11
240.0
21
-166.464102
0
LINE
8
VDAPS_DIN
6
AUSGEZOGEN
62
1
10
240.0
20
-166.464102
11
237.0
21
-164.732051
0
LINE
8
VDAPS_DIN
6
AUSGEZOGEN
62
1
10
237.0
20
-164.732051
11
237.0
21
-161.267949
0
LINE
8
VDAPS_DIN
6
AUSGEZOGEN
62
1
10
290.0
20
80.75
11
290.0
21
9.0
0
LINE
8
VDAPS_DIN
6
AUSGEZOGEN
62
1
10
290.0
20
-9.0
11
290.0
21
-84.597731
0
LINE
8
VDAPS_DIN
6
AUSGEZOGEN
62
1
10
291.5
20
80.0
11
290.75
21
80.0
0
LINE
8
VDAPS_DIN
6
AUSGEZOGEN
62
1
10
290.0
20
80.75
11
290.0
21
98.5
0
LINE
8
VDAPS_DIN
6
AUSGEZOGEN
62
1
10
290.0
20
116.5
11
290.0
21
119.0
0
LINE
8
VDAPS_DIN
6
AUSGEZOGEN
62
1
10
284.0
20
125.0
11
275.0
21
125.0
0
LINE
8
VDAPS_DIN
6
AUSGEZOGEN
62
1
10
275.0
20
-125.0
11
284.0
21
-125.0
0
LINE
8
VDAPS_DIN
6
AUSGEZOGEN
62
1
10
290.0
20
-119.0
11
290.0
21
-116.5
0
ARC
8
VDAPS_DIN
6
AUSGEZOGEN
62
1
10
290.75
20
80.75
40
0.75
50
180.0
51
270.0
0
ARC
8
VDAPS_DIN
6
AUSGEZOGEN
62
1
10
284.0
20
119.0
40
6.0
50
0.0
51
90.0
0
ARC
8
VDAPS_DIN
6
AUSGEZOGEN
62
1
10
284.0
20
-119.0
40
6.0
50
270.0
51
0.0
0
LINE
8
VDAPS_DIN
6
AUSGEZOGEN
62
1
10
291.5
20
-9.0
11
290.0
21
-9.0
0
LINE
8
VDAPS_DIN
6
AUSGEZOGEN
62
1
10
291.5
20
9.0
11
290.0
21
9.0
0
LINE
8
VDAPS_DIN
6
AUSGEZOGEN
62
1
10
290.0
20
-9.0
11
290.0
21
9.0
0
ARC
8
VDAPS_DIN
6
AUSGEZOGEN
62
1
10
295.358962
20
99.5875
40
4.641038
50
325.368265
51
0.0
0
LINE
8
VDAPS_DIN
6
AUSGEZOGEN
62
1
10
290.0
20
107.5
11
290.0
21
98.5
0
LINE
8
VDAPS_DIN
6
AUSGEZOGEN
62
1
10
290.0
20
98.5
11
292.5
21
98.5
0
LINE
8
VDAPS_DIN
6
AUSGEZOGEN
62
1
10
292.5
20
98.5
11
292.5
21
96.95
0
LINE
8
VDAPS_DIN
6
AUSGEZOGEN
62
1
10
292.5
20
96.95
11
299.177709
21
96.95
0
LINE
8
VDAPS_DIN
6
AUSGEZOGEN
62
1
10
300.0
20
99.5875
11
300.0
21
107.5
0
ARC
8
VDAPS_DIN
6
AUSGEZOGEN
62
1
10
295.358962
20
115.4125
40
4.641038
50
0.0
51
34.631735
0
LINE
8
VDAPS_DIN
6
AUSGEZOGEN
62
1
10
290.0
20
107.5
11
290.0
21
116.5
0
LINE
8
VDAPS_DIN
6
AUSGEZOGEN
62
1
10
290.0
20
116.5
11
292.5
21
116.5
0
LINE
8
VDAPS_DIN
6
AUSGEZOGEN
62
1
10
292.5
20
116.5
11
292.5
21
118.05
0
LINE
8
VDAPS_DIN
6
AUSGEZOGEN
62
1
10
292.5
20
118.05
11
299.177709
21
118.05
0
LINE
8
VDAPS_DIN
6
AUSGEZOGEN
62
1
10
300.0
20
115.4125
11
300.0
21
107.5
0
ARC
8
VDAPS_DIN
6
AUSGEZOGEN
62
1
10
295.358962
20
99.5875
40
4.641038
50
0.0
51
34.631735
0
ARC
8
VDAPS_DIN
6
AUSGEZOGEN
62
1
10
282.669284
20
107.5
40
17.330716
50
342.279561
51
17.720439
0
LINE
8
VDAPS_DIN
6
AUSGEZOGEN
62
1
10
292.5
20
96.95
11
292.5
21
118.05
0
LINE
8
VDAPS_DIN
6
AUSGEZOGEN
62
1
10
292.5
20
110.0
11
290.0
21
107.5
0
LINE
8
VDAPS_DIN
6
AUSGEZOGEN
62
1
10
292.5
20
107.5
11
290.0
21
105.0
0
LINE
8
VDAPS_DIN
6
AUSGEZOGEN
62
1
10
299.177709
20
102.225
11
292.5
21
102.225
0
LINE
8
VDAPS_DIN
6
AUSGEZOGEN
62
1
10
299.177709
20
112.775
11
292.5
21
112.775
0
ARC
8
VDAPS_DIN
6
AUSGEZOGEN
62
1
10
295.358962
20
115.4125
40
4.641038
50
325.368265
51
0.0
0
ARC
8
VDAPS_DIN
6
AUSGEZOGEN
62
1
10
295.358962
20
-115.4125
40
4.641038
50
325.368265
51
0.0
0
LINE
8
VDAPS_DIN
6
AUSGEZOGEN
62
1
10
290.0
20
-107.5
11
290.0
21
-116.5
0
LINE
8
VDAPS_DIN
6
AUSGEZOGEN
62
1
10
290.0
20
-116.5
11
292.5
21
-116.5
0
LINE
8
VDAPS_DIN
6
AUSGEZOGEN
62
1
10
292.5
20
-116.5
11
292.5
21
-118.05
0
LINE
8
VDAPS_DIN
6
AUSGEZOGEN
62
1
10
292.5
20
-118.05
11
299.177709
21
-118.05
0
LINE
8
VDAPS_DIN
6
AUSGEZOGEN
62
1
10
300.0
20
-115.4125
11
300.0
21
-107.5
0
ARC
8
VDAPS_DIN
6
AUSGEZOGEN
62
1
10
295.358962
20
-99.5875
40
4.641038
50
0.0
51
34.631735
0
LINE
8
VDAPS_DIN
6
AUSGEZOGEN
62
1
10
290.0
20
-107.5
11
290.0
21
-101.597731
0
LINE
8
VDAPS_DIN
6
AUSGEZOGEN
62
1
10
294.5
20
-96.95
11
299.177709
21
-96.95
0
LINE
8
VDAPS_DIN
6
AUSGEZOGEN
62
1
10
300.0
20
-99.5875
11
300.0
21
-107.5
0
ARC
8
VDAPS_DIN
6
AUSGEZOGEN
62
1
10
295.358962
20
-115.4125
40
4.641038
50
0.0
51
34.631735
0
ARC
8
VDAPS_DIN
6
AUSGEZOGEN
62
1
10
282.669284
20
-107.5
40
17.330716
50
342.279561
51
17.720439
0
LINE
8
VDAPS_DIN
6
AUSGEZOGEN
62
1
10
292.5
20
-118.05
11
292.5
21
-101.597731
0
LINE
8
VDAPS_DIN
6
AUSGEZOGEN
62
1
10
292.5
20
-105.0
11
290.0
21
-107.5
0
LINE
8
VDAPS_DIN
6
AUSGEZOGEN
62
1
10
292.5
20
-107.5
11
290.0
21
-110.0
0
LINE
8
VDAPS_DIN
6
AUSGEZOGEN
62
1
10
299.177709
20
-112.775
11
292.5
21
-112.775
0
LINE
8
VDAPS_DIN
6
AUSGEZOGEN
62
1
10
299.177709
20
-102.225
11
292.5
21
-102.225
0
ARC
8
VDAPS_DIN
6
AUSGEZOGEN
62
1
10
295.358962
20
-99.5875
40
4.641038
50
325.368265
51
0.0
0
LINE
8
VDAPS_DIN
6
AUSGEZOGEN
62
1
10
294.5
20
-91.0
11
294.5
21
-101.597731
0
LINE
8
VDAPS_DIN
6
AUSGEZOGEN
62
1
10
294.5
20
-101.597731
11
290.0
21
-101.597731
0
LINE
8
VDAPS_DIN
6
AUSGEZOGEN
62
1
10
290.0
20
-101.597731
11
290.0
21
-84.597731
0
LINE
8
VDAPS_DIN
6
AUSGEZOGEN
62
1
10
290.0
20
-84.597731
11
291.5
21
-84.597731
0
LINE
8
VDAPS_DIN
6
AUSGEZOGEN
62
1
10
443.5
20
-80.0
11
436.5
21
-80.0
0
ARC
8
VDAPS_DIN
6
AUSGEZOGEN
62
1
10
436.5
20
-84.0
40
4.0
50
90.0
51
180.0
0
LINE
8
VDAPS_DIN
6
AUSGEZOGEN
62
1
10
431.964102
20
80.0
11
443.5
21
80.0
0
LINE
8
VDAPS_DIN
6
AUSGEZOGEN
62
1
10
443.5
20
80.0
11
443.5
21
-80.0
0
LINE
8
VDAPS_DIN
6
AUSGEZOGEN
62
1
10
291.5
20
80.0
11
306.035898
21
80.0
0
LINE
8
VDAPS_DIN
6
AUSGEZOGEN
62
1
10
306.035898
20
-91.0
11
291.5
21
-91.0
0
LINE
8
VDAPS_DIN
6
AUSGEZOGEN
62
1
10
291.5
20
-91.0
11
291.5
21
80.0
0
LINE
8
VDAPS_DIN
6
AUSGEZOGEN
62
1
10
309.5
20
-93.0
11
367.5
21
-93.0
0
ARC
8
VDAPS_DIN
6
AUSGEZOGEN
62
1
10
367.5
20
-97.0
40
4.0
50
0.0
51
90.0
0
LINE
8
VDAPS_DIN
6
AUSGEZOGEN
62
1
10
305.5
20
78.0
11
305.5
21
-89.0
0
LINE
8
VDAPS_DIN
6
AUSGEZOGEN
62
1
10
309.5
20
82.0
11
428.5
21
82.0
0
LINE
8
VDAPS_DIN
6
AUSGEZOGEN
62
1
10
432.5
20
78.0
11
432.5
21
-105.0
0
ARC
8
VDAPS_DIN
6
AUSGEZOGEN
62
1
10
309.5
20
78.0
40
4.0
50
90.0
51
180.0
0
ARC
8
VDAPS_DIN
6
AUSGEZOGEN
62
1
10
428.5
20
78.0
40
4.0
50
0.0
51
90.0
0
LINE
8
VDAPS_DIN
6
AUSGEZOGEN
62
1
10
432.5
20
-105.0
11
426.726497
21
-115.0
0
LINE
8
VDAPS_DIN
6
AUSGEZOGEN
62
1
10
426.726497
20
-115.0
11
377.273503
21
-115.0
0
LINE
8
VDAPS_DIN
6
AUSGEZOGEN
62
1
10
377.273503
20
-115.0
11
371.5
21
-105.0
0
LINE
8
VDAPS_DIN
6
AUSGEZOGEN
62
1
10
371.5
20
-105.0
11
371.5
21
-97.0
0
ARC
8
VDAPS_DIN
6
AUSGEZOGEN
62
1
10
309.5
20
-89.0
40
4.0
50
180.0
51
270.0
0
LINE
8
VDAPS_DIN
6
AUSGEZOGEN
62
1
10
371.5
20
-97.0
11
371.5
21
31.0
0
LINE
8
VDAPS_DIN
6
AUSGEZOGEN
62
1
10
371.5
20
31.0
11
377.273503
21
-40.0
0
LINE
8
VDAPS_DIN
6
AUSGEZOGEN
62
1
10
377.273503
20
-40.0
11
377.273503
21
-115.0
0
LINE
8
VDAPS_DIN
6
AUSGEZOGEN
62
1
10
432.5
20
31.0
11
426.726497
21
-40.0
0
LINE
8
VDAPS_DIN
6
AUSGEZOGEN
62
1
10
426.726497
20
-40.0
11
426.726497
21
-115.0
0
LINE
8
VDAPS_DIN
6
AUSGEZOGEN
62
2
10
308.8
20
31.0
11
368.2
21
31.0
0
LINE
8
VDAPS_DIN
6
AUSGEZOGEN
62
2
10
308.8
20
-31.0
11
368.2
21
-31.0
0
LINE
8
VDAPS_DIN
6
AUSGEZOGEN
62
2
10
374.8
20
31.0
11
429.2
21
31.0
0
LINE
8
VDAPS_DIN
6
AUSGEZOGEN
62
2
10
380.573503
20
-40.0
11
423.426497
21
-40.0
0
LINE
8
VDAPS_DIN
6
AUSGEZOGEN
62
2
10
380.573503
20
-77.0
11
423.426497
21
-77.0
0
LINE
8
VDAPS_DIN
6
AUSGEZOGEN
62
1
10
319.5
20
86.0
11
333.5
21
86.0
0
LINE
8
VDAPS_DIN
6
AUSGEZOGEN
62
1
10
333.5
20
86.0
11
333.5
21
82.0
0
LINE
8
VDAPS_DIN
6
AUSGEZOGEN
62
1
10
333.5
20
82.0
11
319.5
21
82.0
0
LINE
8
VDAPS_DIN
6
AUSGEZOGEN
62
1
10
319.5
20
82.0
11
319.5
21
86.0
0
CIRCLE
8
VDAPS_DIN
6
AUSGEZOGEN
62
1
10
326.5
20
0.0
40
7.0
0
LINE
8
VDAPS_DIN
6
AUSGEZOGEN
62
1
10
324.0
20
1.443376
11
326.5
21
2.886751
0
LINE
8
VDAPS_DIN
6
AUSGEZOGEN
62
1
10
326.5
20
2.886751
11
329.0
21
1.443376
0
LINE
8
VDAPS_DIN
6
AUSGEZOGEN
62
1
10
329.0
20
1.443376
11
329.0
21
-1.443376
0
LINE
8
VDAPS_DIN
6
AUSGEZOGEN
62
1
10
329.0
20
-1.443376
11
326.5
21
-2.886751
0
LINE
8
VDAPS_DIN
6
AUSGEZOGEN
62
1
10
326.5
20
-2.886751
11
324.0
21
-1.443376
0
LINE
8
VDAPS_DIN
6
AUSGEZOGEN
62
1
10
324.0
20
-1.443376
11
324.0
21
1.443376
0
LINE
8
VDAPS_DIN
6
AUSGEZOGEN
62
1
10
425.5
20
-119.0
11
411.5
21
-119.0
0
LINE
8
VDAPS_DIN
6
AUSGEZOGEN
62
1
10
411.5
20
-119.0
11
411.5
21
-115.0
0
LINE
8
VDAPS_DIN
6
AUSGEZOGEN
62
1
10
411.5
20
-115.0
11
425.5
21
-115.0
0
LINE
8
VDAPS_DIN
6
AUSGEZOGEN
62
1
10
425.5
20
-115.0
11
425.5
21
-119.0
0
LINE
8
VDAPS_DIN
6
AUSGEZOGEN
62
1
10
443.5
20
80.0
11
450.5
21
80.0
0
LINE
8
VDAPS_DIN
6
AUSGEZOGEN
62
1
10
454.5
20
76.0
11
454.5
21
72.19
0
LINE
8
VDAPS_DIN
6
AUSGEZOGEN
62
1
10
463.281307
20
50.569881
11
500.5
21
46.0
0
LINE
8
VDAPS_DIN
6
AUSGEZOGEN
62
1
10
500.5
20
46.0
11
514.5
21
46.0
0
LINE
8
VDAPS_DIN
6
AUSGEZOGEN
62
1
10
518.5
20
32.55
11
518.5
21
29.0
0
LINE
8
VDAPS_DIN
6
AUSGEZOGEN
62
1
10
521.5
20
26.0
11
521.5
21
12.5
0
LINE
8
VDAPS_DIN
6
AUSGEZOGEN
62
1
10
521.5
20
12.5
11
523.5
21
12.5
0
LINE
8
VDAPS_DIN
6
AUSGEZOGEN
62
1
10
523.5
20
12.5
11
523.5
21
5.525
0
LINE
8
VDAPS_DIN
6
AUSGEZOGEN
62
1
10
523.5
20
-5.525
11
523.5
21
-12.5
0
LINE
8
VDAPS_DIN
6
AUSGEZOGEN
62
1
10
523.5
20
-12.5
11
521.5
21
-12.5
0
LINE
8
VDAPS_DIN
6
AUSGEZOGEN
62
1
10
521.5
20
-12.5
11
521.5
21
-26.0
0
LINE
8
VDAPS_DIN
6
AUSGEZOGEN
62
1
10
518.5
20
-29.0
11
518.5
21
-32.55
0
LINE
8
VDAPS_DIN
6
AUSGEZOGEN
62
1
10
514.5
20
-46.0
11
500.5
21
-46.0
0
LINE
8
VDAPS_DIN
6
AUSGEZOGEN
62
1
10
500.5
20
-46.0
11
463.281307
21
-50.569881
0
LINE
8
VDAPS_DIN
6
AUSGEZOGEN
62
1
10
454.5
20
-72.19
11
454.5
21
-76.0
0
LINE
8
VDAPS_DIN
6
AUSGEZOGEN
62
1
10
450.5
20
-80.0
11
443.5
21
-80.0
0
ARC
8
VDAPS_DIN
6
AUSGEZOGEN
62
1
10
521.5
20
29.0
40
3.0
50
180.0
51
270.0
0
ARC
8
VDAPS_DIN
6
AUSGEZOGEN
62
1
10
521.5
20
-29.0
40
3.0
50
90.0
51
180.0
0
ARC
8
VDAPS_DIN
6
AUSGEZOGEN
62
1
10
450.5
20
76.0
40
4.0
50
0.0
51
90.0
0
ARC
8
VDAPS_DIN
6
AUSGEZOGEN
62
1
10
464.5
20
60.495342
40
10.0
50
195.577065
51
263.0
0
ARC
8
VDAPS_DIN
6
AUSGEZOGEN
62
1
10
514.5
20
42.0
40
4.0
50
0.0
51
90.0
0
ARC
8
VDAPS_DIN
6
AUSGEZOGEN
62
1
10
514.5
20
-42.0
40
4.0
50
270.0
51
0.0
0
ARC
8
VDAPS_DIN
6
AUSGEZOGEN
62
1
10
464.5
20
-60.495342
40
10.0
50
97.0
51
164.422936
0
ARC
8
VDAPS_DIN
6
AUSGEZOGEN
62
1
10
450.5
20
-76.0
40
4.0
50
270.0
51
0.0
0
LINE
8
VDAPS_DIN
6
AUSGEZOGEN
62
1
10
454.5
20
57.81
11
454.5
21
7.19
0
LINE
8
VDAPS_DIN
6
AUSGEZOGEN
62
1
10
454.5
20
-7.19
11
454.5
21
-57.81
0
LINE
8
VDAPS_DIN
6
AUSGEZOGEN
62
1
10
508.5
20
46.0
11
508.5
21
-46.0
0
LINE
8
VDAPS_DIN
6
AUSGEZOGEN
62
1
10
518.5
20
29.0
11
518.5
21
4.95
0
LINE
8
VDAPS_DIN
6
AUSGEZOGEN
62
1
10
518.5
20
-4.95
11
518.5
21
-29.0
0
LINE
8
VDAPS_DIN
6
AUSGEZOGEN
62
1
10
521.5
20
12.5
11
521.5
21
5.525
0
LINE
8
VDAPS_DIN
6
AUSGEZOGEN
62
1
10
521.5
20
-5.525
11
521.5
21
-12.5
0
LINE
8
VDAPS_DIN
6
AUSGEZOGEN
62
2
10
500.5
20
43.7
11
500.5
21
-43.7
0
LINE
8
VDAPS_DIN
6
AUSGEZOGEN
62
1
10
458.1529
20
-72.19
11
454.5
21
-72.19
0
LINE
8
VDAPS_DIN
6
AUSGEZOGEN
62
1
10
454.5
20
-72.19
11
454.5
21
-57.81
0
LINE
8
VDAPS_DIN
6
AUSGEZOGEN
62
1
10
454.5
20
-57.81
11
458.1529
21
-57.81
0
LINE
8
VDAPS_DIN
6
AUSGEZOGEN
62
1
10
458.8
20
-59.6075
11
458.8
21
-70.3925
0
ARC
8
VDAPS_DIN
6
AUSGEZOGEN
62
1
10
455.979922
20
-59.6075
40
2.820078
50
0.0
51
39.597753
0
ARC
8
VDAPS_DIN
6
AUSGEZOGEN
62
1
10
455.979922
20
-70.3925
40
2.820078
50
320.402247
51
360.0
0
LINE
8
VDAPS_DIN
6
AUSGEZOGEN
62
1
10
454.5
20
-61.405
11
458.1529
21
-61.405
0
LINE
8
VDAPS_DIN
6
AUSGEZOGEN
62
1
10
454.5
20
-68.595
11
458.1529
21
-68.595
0
ARC
8
VDAPS_DIN
6
AUSGEZOGEN
62
1
10
455.979922
20
-59.6075
40
2.820078
50
320.402247
51
360.0
0
ARC
8
VDAPS_DIN
6
AUSGEZOGEN
62
1
10
448.490339
20
-65.0
40
10.309661
50
339.592053
51
20.407947
0
ARC
8
VDAPS_DIN
6
AUSGEZOGEN
62
1
10
455.979922
20
-70.3925
40
2.820078
50
0.0
51
39.597753
0
LINE
8
VDAPS_DIN
6
AUSGEZOGEN
62
1
10
458.1529
20
-7.19
11
454.5
21
-7.19
0
LINE
8
VDAPS_DIN
6
AUSGEZOGEN
62
1
10
454.5
20
-7.19
11
454.5
21
7.19
0
LINE
8
VDAPS_DIN
6
AUSGEZOGEN
62
1
10
454.5
20
7.19
11
458.1529
21
7.19
0
LINE
8
VDAPS_DIN
6
AUSGEZOGEN
62
1
10
458.8
20
5.3925
11
458.8
21
-5.3925
0
ARC
8
VDAPS_DIN
6
AUSGEZOGEN
62
1
10
455.979922
20
5.3925
40
2.820078
50
0.0
51
39.597753
0
ARC
8
VDAPS_DIN
6
AUSGEZOGEN
62
1
10
455.979922
20
-5.3925
40
2.820078
50
320.402247
51
360.0
0
LINE
8
VDAPS_DIN
6
AUSGEZOGEN
62
1
10
454.5
20
3.595
11
458.1529
21
3.595
0
LINE
8
VDAPS_DIN
6
AUSGEZOGEN
62
1
10
454.5
20
-3.595
11
458.1529
21
-3.595
0
ARC
8
VDAPS_DIN
6
AUSGEZOGEN
62
1
10
455.979922
20
5.3925
40
2.820078
50
320.402247
51
360.0
0
ARC
8
VDAPS_DIN
6
AUSGEZOGEN
62
1
10
448.490339
20
0.0
40
10.309661
50
339.592053
51
20.407947
0
ARC
8
VDAPS_DIN
6
AUSGEZOGEN
62
1
10
455.979922
20
-5.3925
40
2.820078
50
0.0
51
39.597753
0
LINE
8
VDAPS_DIN
6
AUSGEZOGEN
62
1
10
458.1529
20
57.81
11
454.5
21
57.81
0
LINE
8
VDAPS_DIN
6
AUSGEZOGEN
62
1
10
454.5
20
57.81
11
454.5
21
72.19
0
LINE
8
VDAPS_DIN
6
AUSGEZOGEN
62
1
10
454.5
20
72.19
11
458.1529
21
72.19
0
LINE
8
VDAPS_DIN
6
AUSGEZOGEN
62
1
10
458.8
20
70.3925
11
458.8
21
59.6075
0
ARC
8
VDAPS_DIN
6
AUSGEZOGEN
62
1
10
455.979922
20
70.3925
40
2.820078
50
0.0
51
39.597753
0
ARC
8
VDAPS_DIN
6
AUSGEZOGEN
62
1
10
455.979922
20
59.6075
40
2.820078
50
320.402247
51
360.0
0
LINE
8
VDAPS_DIN
6
AUSGEZOGEN
62
1
10
454.5
20
68.595
11
458.1529
21
68.595
0
LINE
8
VDAPS_DIN
6
AUSGEZOGEN
62
1
10
454.5
20
61.405
11
458.1529
21
61.405
0
ARC
8
VDAPS_DIN
6
AUSGEZOGEN
62
1
10
455.979922
20
70.3925
40
2.820078
50
320.402247
51
360.0
0
ARC
8
VDAPS_DIN
6
AUSGEZOGEN
62
1
10
448.490339
20
65.0
40
10.309661
50
339.592053
51
20.407947
0
ARC
8
VDAPS_DIN
6
AUSGEZOGEN
62
1
10
455.979922
20
59.6075
40
2.820078
50
0.0
51
39.597753
0
ARC
8
VDAPS_DIN
6
AUSGEZOGEN
62
1
10
521.669504
20
-4.14375
40
2.430496
50
325.368265
51
0.0
0
LINE
8
VDAPS_DIN
6
AUSGEZOGEN
62
1
10
518.5
20
0.0
11
518.5
21
-4.95
0
LINE
8
VDAPS_DIN
6
AUSGEZOGEN
62
1
10
518.5
20
-4.95
11
520.1
21
-4.95
0
LINE
8
VDAPS_DIN
6
AUSGEZOGEN
62
1
10
520.1
20
-4.95
11
520.1
21
-5.525
0
LINE
8
VDAPS_DIN
6
AUSGEZOGEN
62
1
10
520.1
20
-5.525
11
523.669369
21
-5.525
0
LINE
8
VDAPS_DIN
6
AUSGEZOGEN
62
1
10
524.1
20
-4.14375
11
524.1
21
0.0
0
ARC
8
VDAPS_DIN
6
AUSGEZOGEN
62
1
10
521.669504
20
4.14375
40
2.430496
50
360.0
51
34.631735
0
LINE
8
VDAPS_DIN
6
AUSGEZOGEN
62
1
10
518.5
20
0.0
11
518.5
21
4.95
0
LINE
8
VDAPS_DIN
6
AUSGEZOGEN
62
1
10
518.5
20
4.95
11
520.1
21
4.95
0
LINE
8
VDAPS_DIN
6
AUSGEZOGEN
62
1
10
520.1
20
4.95
11
520.1
21
5.525
0
LINE
8
VDAPS_DIN
6
AUSGEZOGEN
62
1
10
520.1
20
5.525
11
523.669369
21
5.525
0
LINE
8
VDAPS_DIN
6
AUSGEZOGEN
62
1
10
524.1
20
4.14375
11
524.1
21
0.0
0
ARC
8
VDAPS_DIN
6
AUSGEZOGEN
62
1
10
521.669504
20
-4.14375
40
2.430496
50
360.0
51
34.631735
0
ARC
8
VDAPS_DIN
6
AUSGEZOGEN
62
1
10
515.023962
20
0.0
40
9.076038
50
342.279561
51
17.720439
0
LINE
8
VDAPS_DIN
6
AUSGEZOGEN
62
1
10
520.1
20
-5.525
11
520.1
21
5.525
0
LINE
8
VDAPS_DIN
6
AUSGEZOGEN
62
1
10
520.1
20
1.6
11
518.5
21
0.0
0
LINE
8
VDAPS_DIN
6
AUSGEZOGEN
62
1
10
520.1
20
0.0
11
518.5
21
-1.6
0
LINE
8
VDAPS_DIN
6
AUSGEZOGEN
62
1
10
523.669369
20
-2.7625
11
520.1
21
-2.7625
0
LINE
8
VDAPS_DIN
6
AUSGEZOGEN
62
1
10
523.669369
20
2.7625
11
520.1
21
2.7625
0
ARC
8
VDAPS_DIN
6
AUSGEZOGEN
62
1
10
521.669504
20
4.14375
40
2.430496
50
325.368265
51
0.0
0
ARC
8
VDAPS_DIN
6
AUSGEZOGEN
62
1
10
521.669504
20
-41.64375
40
2.430496
50
325.368265
51
0.0
0
LINE
8
VDAPS_DIN
6
AUSGEZOGEN
62
1
10
518.5
20
-37.5
11
518.5
21
-42.45
0
LINE
8
VDAPS_DIN
6
AUSGEZOGEN
62
1
10
518.5
20
-42.45
11
520.1
21
-42.45
0
LINE
8
VDAPS_DIN
6
AUSGEZOGEN
62
1
10
520.1
20
-42.45
11
520.1
21
-43.025
0
LINE
8
VDAPS_DIN
6
AUSGEZOGEN
62
1
10
520.1
20
-43.025
11
523.669369
21
-43.025
0
LINE
8
VDAPS_DIN
6
AUSGEZOGEN
62
1
10
524.1
20
-41.64375
11
524.1
21
-37.5
0
ARC
8
VDAPS_DIN
6
AUSGEZOGEN
62
1
10
521.669504
20
-33.35625
40
2.430496
50
360.0
51
34.631735
0
LINE
8
VDAPS_DIN
6
AUSGEZOGEN
62
1
10
518.5
20
-37.5
11
518.5
21
-32.55
0
LINE
8
VDAPS_DIN
6
AUSGEZOGEN
62
1
10
518.5
20
-32.55
11
520.1
21
-32.55
0
LINE
8
VDAPS_DIN
6
AUSGEZOGEN
62
1
10
520.1
20
-32.55
11
520.1
21
-31.975
0
LINE
8
VDAPS_DIN
6
AUSGEZOGEN
62
1
10
520.1
20
-31.975
11
523.669369
21
-31.975
0
LINE
8
VDAPS_DIN
6
AUSGEZOGEN
62
1
10
524.1
20
-33.35625
11
524.1
21
-37.5
0
ARC
8
VDAPS_DIN
6
AUSGEZOGEN
62
1
10
521.669504
20
-41.64375
40
2.430496
50
360.0
51
34.631735
0
ARC
8
VDAPS_DIN
6
AUSGEZOGEN
62
1
10
515.023962
20
-37.5
40
9.076038
50
342.279561
51
17.720439
0
LINE
8
VDAPS_DIN
6
AUSGEZOGEN
62
1
10
520.1
20
-43.025
11
520.1
21
-31.975
0
LINE
8
VDAPS_DIN
6
AUSGEZOGEN
62
1
10
520.1
20
-35.9
11
518.5
21
-37.5
0
LINE
8
VDAPS_DIN
6
AUSGEZOGEN
62
1
10
520.1
20
-37.5
11
518.5
21
-39.1
0
LINE
8
VDAPS_DIN
6
AUSGEZOGEN
62
1
10
523.669369
20
-40.2625
11
520.1
21
-40.2625
0
LINE
8
VDAPS_DIN
6
AUSGEZOGEN
62
1
10
523.669369
20
-34.7375
11
520.1
21
-34.7375
0
ARC
8
VDAPS_DIN
6
AUSGEZOGEN
62
1
10
521.669504
20
-33.35625
40
2.430496
50
325.368265
51
0.0
0
ARC
8
VDAPS_DIN
6
AUSGEZOGEN
62
1
10
521.669504
20
33.35625
40
2.430496
50
325.368265
51
0.0
0
LINE
8
VDAPS_DIN
6
AUSGEZOGEN
62
1
10
518.5
20
37.5
11
518.5
21
32.55
0
LINE
8
VDAPS_DIN
6
AUSGEZOGEN
62
1
10
518.5
20
32.55
11
520.1
21
32.55
0
LINE
8
VDAPS_DIN
6
AUSGEZOGEN
62
1
10
520.1
20
32.55
11
520.1
21
31.975
0
LINE
8
VDAPS_DIN
6
AUSGEZOGEN
62
1
10
520.1
20
31.975
11
523.669369
21
31.975
0
LINE
8
VDAPS_DIN
6
AUSGEZOGEN
62
1
10
524.1
20
33.35625
11
524.1
21
37.5
0
ARC
8
VDAPS_DIN
6
AUSGEZOGEN
62
1
10
521.669504
20
41.64375
40
2.430496
50
360.0
51
34.631735
0
LINE
8
VDAPS_DIN
6
AUSGEZOGEN
62
1
10
518.5
20
37.5
11
518.5
21
42.45
0
LINE
8
VDAPS_DIN
6
AUSGEZOGEN
62
1
10
518.5
20
42.45
11
520.1
21
42.45
0
LINE
8
VDAPS_DIN
6
AUSGEZOGEN
62
1
10
520.1
20
42.45
11
520.1
21
43.025
0
LINE
8
VDAPS_DIN
6
AUSGEZOGEN
62
1
10
520.1
20
43.025
11
523.669369
21
43.025
0
LINE
8
VDAPS_DIN
6
AUSGEZOGEN
62
1
10
524.1
20
41.64375
11
524.1
21
37.5
0
ARC
8
VDAPS_DIN
6
AUSGEZOGEN
62
1
10
521.669504
20
33.35625
40
2.430496
50
360.0
51
34.631735
0
ARC
8
VDAPS_DIN
6
AUSGEZOGEN
62
1
10
515.023962
20
37.5
40
9.076038
50
342.279561
51
17.720439
0
LINE
8
VDAPS_DIN
6
AUSGEZOGEN
62
1
10
520.1
20
31.975
11
520.1
21
43.025
0
LINE
8
VDAPS_DIN
6
AUSGEZOGEN
62
1
10
520.1
20
39.1
11
518.5
21
37.5
0
LINE
8
VDAPS_DIN
6
AUSGEZOGEN
62
1
10
520.1
20
37.5
11
518.5
21
35.9
0
LINE
8
VDAPS_DIN
6
AUSGEZOGEN
62
1
10
523.669369
20
34.7375
11
520.1
21
34.7375
0
LINE
8
VDAPS_DIN
6
AUSGEZOGEN
62
1
10
523.669369
20
40.2625
11
520.1
21
40.2625
0
ARC
8
VDAPS_DIN
6
AUSGEZOGEN
62
1
10
521.669504
20
41.64375
40
2.430496
50
325.368265
51
0.0
0
LINE
8
VDAPS_DIN
6
AUSGEZOGEN
62
1
10
460.5
20
-51.330191
11
460.5
21
-63.291651
0
LINE
8
VDAPS_DIN
6
AUSGEZOGEN
62
1
10
460.5
20
-63.291651
11
458.8
21
-63.291651
0
LINE
8
VDAPS_DIN
6
AUSGEZOGEN
62
1
10
456.5
20
-57.81
11
456.5
21
-54.495342
0
LINE
8
VDAPS_DIN
6
AUSGEZOGEN
62
1
10
523.5
20
9.5
11
527.5
21
9.5
0
LINE
8
VDAPS_DIN
6
AUSGEZOGEN
62
1
10
527.5
20
9.5
11
527.5
21
12.0
0
LINE
8
VDAPS_DIN
6
AUSGEZOGEN
62
1
10
527.5
20
12.0
11
559.5
21
12.0
0
LINE
8
VDAPS_DIN
6
AUSGEZOGEN
62
1
10
559.5
20
12.0
11
559.5
21
9.5
0
LINE
8
VDAPS_DIN
6
AUSGEZOGEN
62
1
10
559.5
20
9.5
11
563.0
21
9.5
0
LINE
8
VDAPS_DIN
6
AUSGEZOGEN
62
1
10
563.0
20
9.5
11
563.5
21
9.0
0
LINE
8
VDAPS_DIN
6
AUSGEZOGEN
62
1
10
563.5
20
9.0
11
563.5
21
-9.0
0
LINE
8
VDAPS_DIN
6
AUSGEZOGEN
62
1
10
563.5
20
-9.0
11
563.0
21
-9.5
0
LINE
8
VDAPS_DIN
6
AUSGEZOGEN
62
1
10
563.0
20
-9.5
11
523.5
21
-9.5
0
LINE
8
VDAPS_DIN
6
AUSGEZOGEN
62
1
10
563.0
20
9.5
11
563.0
21
-9.5
0
LINE
8
VDAPS_DIN
6
AUSGEZOGEN
62
1
10
559.5
20
9.5
11
559.5
21
9.013878
0
LINE
8
VDAPS_DIN
6
AUSGEZOGEN
62
1
10
559.5
20
9.013878
11
527.5
21
9.013878
0
LINE
8
VDAPS_DIN
6
AUSGEZOGEN
62
1
10
527.5
20
9.013878
11
527.5
21
9.5
0
LINE
8
VDAPS_DIN
6
AUSGEZOGEN
62
2
10
526.0
20
9.5
11
526.0
21
-9.5
0
TEXT
8
0
10
-40.615887
20
-217.05616
40
15.0
1
Mit freundlicher Genehmigung der Firma
7
LITT
72
1
11
228.134113
21
-217.05616
0
TEXT
8
0
10
26.884113
20
-242.05616
40
15.0
1
SEW Eurodrive, 7520 Bruchsal
7
LITT
72
1
11
228.134113
21
-242.05616
0
ENDSEC
0
EOF
