  0
SECTION
  2
HEADER
  9
$ACADVER
  1
AC1006
  9
$INSBASE
 10
0.0
 20
0.0
 30
0.0
  9
$EXTMIN
 10
-144.0
 20
-144.0
  9
$EXTMAX
 10
144.0
 20
144.0
  9
$LIMMIN
 10
0.0
 20
0.0
  9
$LIMMAX
 10
20.0
 20
20.0
  9
$ORTHOMODE
 70
     0
  9
$REGENMODE
 70
     1
  9
$FILLMODE
 70
     1
  9
$QTEXTMODE
 70
     0
  9
$MIRRTEXT
 70
     1
  9
$DRAGMODE
 70
     2
  9
$LTSCALE
 40
1.0
  9
$OSMODE
 70
     0
  9
$ATTMODE
 70
     1
  9
$TEXTSIZE
 40
0.2
  9
$TRACEWID
 40
0.05
  9
$TEXTSTYLE
  7
STANDARD
  9
$CLAYER
  8
BASE
  9
$CELTYPE
  6
BYLAYER
  9
$CECOLOR
 62
   256
  9
$DIMSCALE
 40
1.0
  9
$DIMASZ
 40
0.18
  9
$DIMEXO
 40
0.0625
  9
$DIMDLI
 40
0.38
  9
$DIMRND
 40
0.0
  9
$DIMDLE
 40
0.0
  9
$DIMEXE
 40
0.18
  9
$DIMTP
 40
0.0
  9
$DIMTM
 40
0.0
  9
$DIMTXT
 40
0.18
  9
$DIMCEN
 40
0.09
  9
$DIMTSZ
 40
0.0
  9
$DIMTOL
 70
     0
  9
$DIMLIM
 70
     0
  9
$DIMTIH
 70
     1
  9
$DIMTOH
 70
     1
  9
$DIMSE1
 70
     0
  9
$DIMSE2
 70
     0
  9
$DIMTAD
 70
     0
  9
$DIMZIN
 70
     0
  9
$DIMBLK
  1

  9
$DIMASO
 70
     1
  9
$DIMSHO
 70
     0
  9
$DIMPOST
  1

  9
$DIMAPOST
  1

  9
$DIMALT
 70
     0
  9
$DIMALTD
 70
     2
  9
$DIMALTF
 40
25.4
  9
$DIMLFAC
 40
1.0
  9
$DIMTOFL
 70
     0
  9
$DIMTVP
 40
0.0
  9
$DIMTIX
 70
     0
  9
$DIMSOXD
 70
     0
  9
$DIMSAH
 70
     0
  9
$DIMBLK1
  1

  9
$DIMBLK2
  1

  9
$LUNITS
 70
     2
  9
$LUPREC
 70
     4
  9
$AXISMODE
 70
     0
  9
$AXISUNIT
 10
0.0
 20
0.0
  9
$SKETCHINC
 40
0.1
  9
$FILLETRAD
 40
0.0
  9
$AUNITS
 70
     0
  9
$AUPREC
 70
     0
  9
$MENU
  1
acad
  9
$ELEVATION
 40
0.0
  9
$THICKNESS
 40
0.0
  9
$LIMCHECK
 70
     0
  9
$BLIPMODE
 70
     1
  9
$CHAMFERA
 40
0.0
  9
$CHAMFERB
 40
0.0
  9
$SKPOLY
 70
     0
  9
$TDCREATE
 40
2448300.7977005788
  9
$TDUPDATE
 40
2448551.9286457174
  9
$TDINDWG
 40
0.2342217593
  9
$TDUSRTIMER
 40
0.2342217593
  9
$USRTIMER
 70
     1
  9
$ANGBASE
 50
0.0
  9
$ANGDIR
 70
     0
  9
$PDMODE
 70
     0
  9
$PDSIZE
 40
0.0
  9
$PLINEWID
 40
0.0
  9
$COORDS
 70
     2
  9
$SPLFRAME
 70
     0
  9
$SPLINETYPE
 70
     6
  9
$SPLINESEGS
 70
     8
  9
$ATTDIA
 70
     0
  9
$ATTREQ
 70
     1
  9
$HANDLING
 70
     0
  9
$HANDSEED
  5
0
  9
$SURFTAB1
 70
     6
  9
$SURFTAB2
 70
     6
  9
$SURFTYPE
 70
     6
  9
$SURFU
 70
     6
  9
$SURFV
 70
     6
  9
$FLATLAND
 70
     0
  9
$UCSNAME
  2

  9
$UCSORG
 10
0.0
 20
0.0
 30
0.0
  9
$UCSXDIR
 10
1.0
 20
0.0
 30
0.0
  9
$UCSYDIR
 10
0.0
 20
1.0
 30
0.0
  9
$USERI1
 70
     0
  9
$USERI2
 70
     0
  9
$USERI3
 70
     0
  9
$USERI4
 70
     0
  9
$USERI5
 70
     0
  9
$USERR1
 40
0.0
  9
$USERR2
 40
0.0
  9
$USERR3
 40
0.0
  9
$USERR4
 40
0.0
  9
$USERR5
 40
0.0
  9
$WORLDVIEW
 70
     1
  0
ENDSEC
  0
SECTION
  2
TABLES
  0
TABLE
  2
VPORT
 70
     2
  0
VPORT
  2
*ACTIVE
 70
     0
 10
0.0
 20
0.0
 11
1.0
 21
1.0
 12
54.824096
 22
0.0
 13
0.0
 23
0.0
 14
0.5
 24
0.5
 15
0.0
 25
0.0
 16
0.0
 26
0.0
 36
1.0
 17
0.0
 27
0.0
 37
0.0
 40
288.0
 41
1.380723
 42
50.0
 43
0.0
 44
0.0
 50
0.0
 51
0.0
 71
     0
 72
   100
 73
     1
 74
     1
 75
     1
 76
     0
 77
     0
 78
     0
  0
ENDTAB
  0
TABLE
  2
LTYPE
 70
     1
  0
LTYPE
  2
CONTINUOUS
 70
    64
  3
Solid line
 72
    65
 73
     0
 40
0.0
  0
ENDTAB
  0
TABLE
  2
LAYER
 70
     3
  0
LAYER
  2
0
 70
     0
 62
     7
  6
CONTINUOUS
  0
LAYER
  2
BASE
 70
    64
 62
     5
  6
CONTINUOUS
  0
LAYER
  2
LETTERS
 70
    64
 62
     6
  6
CONTINUOUS
  0
ENDTAB
  0
TABLE
  2
STYLE
 70
     1
  0
STYLE
  2
STANDARD
 70
     0
 40
0.0
 41
1.0
 50
0.0
 71
     0
 42
0.2
  3
txt
  4

  0
ENDTAB
  0
TABLE
  2
VIEW
 70
     0
  0
ENDTAB
  0
TABLE
  2
UCS
 70
     1
  0
UCS
  2
FRONT
 70
     0
 10
0.0
 20
0.0
 30
0.0
 11
0.0
 21
1.0
 31
0.0
 12
0.0
 22
0.0
 32
1.0
  0
ENDTAB
  0
TABLE
  2
DWGMGR
 70
     0
  0
ENDTAB
  0
ENDSEC
  0
SECTION
  2
BLOCKS
  0
ENDSEC
  0
SECTION
  2
ENTITIES
  0
LINE
  8
LETTERS
 39
-18.0
 10
-6.0
 20
-9.0
 30
12.0
 11
-6.0
 21
-9.0
 31
17.25
210
0.0
220
-1.0
230
0.0
  0
LINE
  8
LETTERS
 39
-18.0
 10
-6.0
 20
-9.0
 30
17.25
 11
-15.0
 21
-9.0
 31
17.25
210
0.0
220
-1.0
230
0.0
  0
LINE
  8
LETTERS
 39
-18.0
 10
-15.0
 20
-9.0
 30
17.25
 11
-15.0
 21
-9.0
 31
6.0
210
0.0
220
-1.0
230
0.0
  0
LINE
  8
LETTERS
 39
-18.0
 10
-15.0
 20
-9.0
 30
6.0
 11
6.0
 21
-9.0
 31
6.0
210
0.0
220
-1.0
230
0.0
  0
ARC
  8
LETTERS
 39
-18.0
 10
6.0
 20
15.0
 30
9.0
 40
9.0
 50
270.0
 51
90.0
210
0.0
220
-1.0
230
0.0
  0
LINE
  8
LETTERS
 39
-18.0
 10
6.0
 20
-9.0
 30
24.0
 11
-5.25
 21
-9.0
 31
24.0
210
0.0
220
-1.0
230
0.0
  0
LINE
  8
LETTERS
 39
-18.0
 10
-5.25
 20
-9.0
 30
24.0
 11
-5.25
 21
-9.0
 31
18.0
210
0.0
220
-1.0
230
0.0
  0
LINE
  8
LETTERS
 39
-18.0
 10
-5.25
 20
-9.0
 30
18.0
 11
3.0
 21
-9.0
 31
18.0
210
0.0
220
-1.0
230
0.0
  0
ARC
  8
LETTERS
 39
-18.0
 10
3.0
 20
15.0
 30
9.0
 40
3.0
 50
270.0
 51
90.0
210
0.0
220
-1.0
230
0.0
  0
LINE
  8
LETTERS
 39
-18.0
 10
3.0
 20
-9.0
 30
12.0
 11
-6.0
 21
-9.0
 31
12.0
210
0.0
220
-1.0
230
0.0
  0
LINE
  8
LETTERS
 39
-18.375
 10
-6.1875
 20
-9.1875
 30
11.8125
 11
-6.1875
 21
-9.1875
 31
17.0625
210
0.0
220
-1.0
230
0.0
  0
LINE
  8
LETTERS
 39
-18.375
 10
-6.1875
 20
-9.1875
 30
17.0625
 11
-14.8125
 21
-9.1875
 31
17.0625
210
0.0
220
-1.0
230
0.0
  0
LINE
  8
LETTERS
 39
-18.375
 10
-14.8125
 20
-9.1875
 30
17.0625
 11
-14.8125
 21
-9.1875
 31
6.1875
210
0.0
220
-1.0
230
0.0
  0
LINE
  8
LETTERS
 39
-18.375
 10
-14.8125
 20
-9.1875
 30
6.1875
 11
6.0
 21
-9.1875
 31
6.1875
210
0.0
220
-1.0
230
0.0
  0
ARC
  8
LETTERS
 39
-18.375
 10
6.0
 20
15.0
 30
9.1875
 40
8.8125
 50
270.0
 51
90.0
210
0.0
220
-1.0
230
0.0
  0
LINE
  8
LETTERS
 39
-18.375
 10
6.0
 20
-9.1875
 30
23.8125
 11
-5.0625
 21
-9.1875
 31
23.8125
210
0.0
220
-1.0
230
0.0
  0
LINE
  8
LETTERS
 39
-18.375
 10
-5.0625
 20
-9.1875
 30
23.8125
 11
-5.0625
 21
-9.1875
 31
18.1875
210
0.0
220
-1.0
230
0.0
  0
LINE
  8
LETTERS
 39
-18.375
 10
-5.0625
 20
-9.1875
 30
18.1875
 11
3.0
 21
-9.1875
 31
18.1875
210
0.0
220
-1.0
230
0.0
  0
ARC
  8
LETTERS
 39
-18.375
 10
3.0
 20
15.0
 30
9.1875
 40
3.1875
 50
270.0
 51
90.0
210
0.0
220
-1.0
230
0.0
  0
LINE
  8
LETTERS
 39
-18.375
 10
3.0
 20
-9.1875
 30
11.8125
 11
-6.1875
 21
-9.1875
 31
11.8125
210
0.0
220
-1.0
230
0.0
  0
POLYLINE
  8
LETTERS
 66
     1
 10
0.0
 20
0.0
 30
0.0
 70
    16
 71
     2
 72
     5
  0
VERTEX
  8
LETTERS
 10
-14.8125
 20
-9.1875
 30
6.1875
 70
    64
  0
VERTEX
  8
LETTERS
 10
-14.8125
 20
-9.1875
 30
8.90625
 70
    64
  0
VERTEX
  8
LETTERS
 10
-14.8125
 20
-9.1875
 30
11.625
 70
    64
  0
VERTEX
  8
LETTERS
 10
-14.8125
 20
-9.1875
 30
14.34375
 70
    64
  0
VERTEX
  8
LETTERS
 10
-14.8125
 20
-9.1875
 30
17.0625
 70
    64
  0
VERTEX
  8
LETTERS
 10
-15.0
 20
-9.0
 30
6.0
 70
    64
  0
VERTEX
  8
LETTERS
 10
-15.0
 20
-9.0
 30
8.8125
 70
    64
  0
VERTEX
  8
LETTERS
 10
-15.0
 20
-9.0
 30
11.625
 70
    64
  0
VERTEX
  8
LETTERS
 10
-15.0
 20
-9.0
 30
14.4375
 70
    64
  0
VERTEX
  8
LETTERS
 10
-15.0
 20
-9.0
 30
17.25
 70
    64
  0
SEQEND
  8
LETTERS
  0
POLYLINE
  8
LETTERS
 66
     1
 10
0.0
 20
0.0
 30
0.0
 70
    16
 71
     2
 72
     5
  0
VERTEX
  8
LETTERS
 10
-14.8125
 20
-9.1875
 30
17.0625
 70
    64
  0
VERTEX
  8
LETTERS
 10
-12.65625
 20
-9.1875
 30
17.0625
 70
    64
  0
VERTEX
  8
LETTERS
 10
-10.5
 20
-9.1875
 30
17.0625
 70
    64
  0
VERTEX
  8
LETTERS
 10
-8.34375
 20
-9.1875
 30
17.0625
 70
    64
  0
VERTEX
  8
LETTERS
 10
-6.1875
 20
-9.1875
 30
17.0625
 70
    64
  0
VERTEX
  8
LETTERS
 10
-15.0
 20
-9.0
 30
17.25
 70
    64
  0
VERTEX
  8
LETTERS
 10
-12.75
 20
-9.0
 30
17.25
 70
    64
  0
VERTEX
  8
LETTERS
 10
-10.5
 20
-9.0
 30
17.25
 70
    64
  0
VERTEX
  8
LETTERS
 10
-8.25
 20
-9.0
 30
17.25
 70
    64
  0
VERTEX
  8
LETTERS
 10
-6.0
 20
-9.0
 30
17.25
 70
    64
  0
SEQEND
  8
LETTERS
  0
POLYLINE
  8
LETTERS
 66
     1
 10
0.0
 20
0.0
 30
0.0
 70
    16
 71
     2
 72
     5
  0
VERTEX
  8
LETTERS
 10
-6.1875
 20
-9.1875
 30
17.0625
 70
    64
  0
VERTEX
  8
LETTERS
 10
-6.1875
 20
-9.1875
 30
15.75
 70
    64
  0
VERTEX
  8
LETTERS
 10
-6.1875
 20
-9.1875
 30
14.4375
 70
    64
  0
VERTEX
  8
LETTERS
 10
-6.1875
 20
-9.1875
 30
13.125
 70
    64
  0
VERTEX
  8
LETTERS
 10
-6.1875
 20
-9.1875
 30
11.8125
 70
    64
  0
VERTEX
  8
LETTERS
 10
-6.0
 20
-9.0
 30
17.25
 70
    64
  0
VERTEX
  8
LETTERS
 10
-6.0
 20
-9.0
 30
15.9375
 70
    64
  0
VERTEX
  8
LETTERS
 10
-6.0
 20
-9.0
 30
14.625
 70
    64
  0
VERTEX
  8
LETTERS
 10
-6.0
 20
-9.0
 30
13.3125
 70
    64
  0
VERTEX
  8
LETTERS
 10
-6.0
 20
-9.0
 30
12.0
 70
    64
  0
SEQEND
  8
LETTERS
  0
POLYLINE
  8
LETTERS
 66
     1
 10
0.0
 20
0.0
 30
0.0
 70
    16
 71
     2
 72
     5
  0
VERTEX
  8
LETTERS
 10
-6.0
 20
-9.0
 30
12.0
 70
    64
  0
VERTEX
  8
LETTERS
 10
-3.75
 20
-9.0
 30
12.0
 70
    64
  0
VERTEX
  8
LETTERS
 10
-1.5
 20
-9.0
 30
12.0
 70
    64
  0
VERTEX
  8
LETTERS
 10
0.75
 20
-9.0
 30
12.0
 70
    64
  0
VERTEX
  8
LETTERS
 10
3.0
 20
-9.0
 30
12.0
 70
    64
  0
VERTEX
  8
LETTERS
 10
-6.1875
 20
-9.1875
 30
11.8125
 70
    64
  0
VERTEX
  8
LETTERS
 10
-3.890625
 20
-9.1875
 30
11.8125
 70
    64
  0
VERTEX
  8
LETTERS
 10
-1.59375
 20
-9.1875
 30
11.8125
 70
    64
  0
VERTEX
  8
LETTERS
 10
0.703125
 20
-9.1875
 30
11.8125
 70
    64
  0
VERTEX
  8
LETTERS
 10
3.0
 20
-9.1875
 30
11.8125
 70
    64
  0
SEQEND
  8
LETTERS
  0
POLYLINE
  8
LETTERS
 66
     1
 10
0.0
 20
0.0
 30
0.0
 70
    16
 71
     2
 72
     5
  0
VERTEX
  8
LETTERS
 10
-14.8125
 20
-9.1875
 30
6.1875
 70
    64
  0
VERTEX
  8
LETTERS
 10
-9.609375
 20
-9.1875
 30
6.1875
 70
    64
  0
VERTEX
  8
LETTERS
 10
-4.40625
 20
-9.1875
 30
6.1875
 70
    64
  0
VERTEX
  8
LETTERS
 10
0.796875
 20
-9.1875
 30
6.1875
 70
    64
  0
VERTEX
  8
LETTERS
 10
6.0
 20
-9.1875
 30
6.1875
 70
    64
  0
VERTEX
  8
LETTERS
 10
-15.0
 20
-9.0
 30
6.0
 70
    64
  0
VERTEX
  8
LETTERS
 10
-9.75
 20
-9.0
 30
6.0
 70
    64
  0
VERTEX
  8
LETTERS
 10
-4.5
 20
-9.0
 30
6.0
 70
    64
  0
VERTEX
  8
LETTERS
 10
0.75
 20
-9.0
 30
6.0
 70
    64
  0
VERTEX
  8
LETTERS
 10
6.0
 20
-9.0
 30
6.0
 70
    64
  0
SEQEND
  8
LETTERS
  0
POLYLINE
  8
LETTERS
 66
     1
 10
0.0
 20
0.0
 30
0.0
 70
    16
 71
     2
 72
     5
  0
VERTEX
  8
LETTERS
 10
3.0
 20
-9.0
 30
18.0
 70
    64
  0
VERTEX
  8
LETTERS
 10
0.9375
 20
-9.0
 30
18.0
 70
    64
  0
VERTEX
  8
LETTERS
 10
-1.125
 20
-9.0
 30
18.0
 70
    64
  0
VERTEX
  8
LETTERS
 10
-3.1875
 20
-9.0
 30
18.0
 70
    64
  0
VERTEX
  8
LETTERS
 10
-5.25
 20
-9.0
 30
18.0
 70
    64
  0
VERTEX
  8
LETTERS
 10
3.0
 20
-9.1875
 30
18.1875
 70
    64
  0
VERTEX
  8
LETTERS
 10
0.984375
 20
-9.1875
 30
18.1875
 70
    64
  0
VERTEX
  8
LETTERS
 10
-1.03125
 20
-9.1875
 30
18.1875
 70
    64
  0
VERTEX
  8
LETTERS
 10
-3.046875
 20
-9.1875
 30
18.1875
 70
    64
  0
VERTEX
  8
LETTERS
 10
-5.0625
 20
-9.1875
 30
18.1875
 70
    64
  0
SEQEND
  8
LETTERS
  0
POLYLINE
  8
LETTERS
 66
     1
 10
0.0
 20
0.0
 30
0.0
 70
    16
 71
     2
 72
     5
  0
VERTEX
  8
LETTERS
 10
-5.0625
 20
-9.1875
 30
18.1875
 70
    64
  0
VERTEX
  8
LETTERS
 10
-5.0625
 20
-9.1875
 30
19.59375
 70
    64
  0
VERTEX
  8
LETTERS
 10
-5.0625
 20
-9.1875
 30
21.0
 70
    64
  0
VERTEX
  8
LETTERS
 10
-5.0625
 20
-9.1875
 30
22.40625
 70
    64
  0
VERTEX
  8
LETTERS
 10
-5.0625
 20
-9.1875
 30
23.8125
 70
    64
  0
VERTEX
  8
LETTERS
 10
-5.25
 20
-9.0
 30
18.0
 70
    64
  0
VERTEX
  8
LETTERS
 10
-5.25
 20
-9.0
 30
19.5
 70
    64
  0
VERTEX
  8
LETTERS
 10
-5.25
 20
-9.0
 30
21.0
 70
    64
  0
VERTEX
  8
LETTERS
 10
-5.25
 20
-9.0
 30
22.5
 70
    64
  0
VERTEX
  8
LETTERS
 10
-5.25
 20
-9.0
 30
24.0
 70
    64
  0
SEQEND
  8
LETTERS
  0
POLYLINE
  8
LETTERS
 66
     1
 10
0.0
 20
0.0
 30
0.0
 70
    16
 71
     2
 72
     5
  0
VERTEX
  8
LETTERS
 10
-5.0625
 20
-9.1875
 30
23.8125
 70
    64
  0
VERTEX
  8
LETTERS
 10
-2.296875
 20
-9.1875
 30
23.8125
 70
    64
  0
VERTEX
  8
LETTERS
 10
0.46875
 20
-9.1875
 30
23.8125
 70
    64
  0
VERTEX
  8
LETTERS
 10
3.234375
 20
-9.1875
 30
23.8125
 70
    64
  0
VERTEX
  8
LETTERS
 10
6.0
 20
-9.1875
 30
23.8125
 70
    64
  0
VERTEX
  8
LETTERS
 10
-5.25
 20
-9.0
 30
24.0
 70
    64
  0
VERTEX
  8
LETTERS
 10
-2.4375
 20
-9.0
 30
24.0
 70
    64
  0
VERTEX
  8
LETTERS
 10
0.375
 20
-9.0
 30
24.0
 70
    64
  0
VERTEX
  8
LETTERS
 10
3.1875
 20
-9.0
 30
24.0
 70
    64
  0
VERTEX
  8
LETTERS
 10
6.0
 20
-9.0
 30
24.0
 70
    64
  0
SEQEND
  8
LETTERS
  0
POLYLINE
  8
LETTERS
 66
     1
 10
0.0
 20
0.0
 30
0.0
 70
    16
 71
     2
 72
    33
  0
VERTEX
  8
LETTERS
 10
3.0
 20
-9.0
 30
12.0
 70
    64
  0
VERTEX
  8
LETTERS
 10
3.294051
 20
-9.0
 30
12.014446
 70
    64
  0
VERTEX
  8
LETTERS
 10
3.585271
 20
-9.0
 30
12.057644
 70
    64
  0
VERTEX
  8
LETTERS
 10
3.870854
 20
-9.0
 30
12.129179
 70
    64
  0
VERTEX
  8
LETTERS
 10
4.14805
 20
-9.0
 30
12.228361
 70
    64
  0
VERTEX
  8
LETTERS
 10
4.41419
 20
-9.0
 30
12.354236
 70
    64
  0
VERTEX
  8
LETTERS
 10
4.666711
 20
-9.0
 30
12.505591
 70
    64
  0
VERTEX
  8
LETTERS
 10
4.90318
 20
-9.0
 30
12.680969
 70
    64
  0
VERTEX
  8
LETTERS
 10
5.12132
 20
-9.0
 30
12.87868
 70
    64
  0
VERTEX
  8
LETTERS
 10
5.319031
 20
-9.0
 30
13.09682
 70
    64
  0
VERTEX
  8
LETTERS
 10
5.494409
 20
-9.0
 30
13.333289
 70
    64
  0
VERTEX
  8
LETTERS
 10
5.645764
 20
-9.0
 30
13.58581
 70
    64
  0
VERTEX
  8
LETTERS
 10
5.771639
 20
-9.0
 30
13.85195
 70
    64
  0
VERTEX
  8
LETTERS
 10
5.870821
 20
-9.0
 30
14.129146
 70
    64
  0
VERTEX
  8
LETTERS
 10
5.942356
 20
-9.0
 30
14.414729
 70
    64
  0
VERTEX
  8
LETTERS
 10
5.985554
 20
-9.0
 30
14.705949
 70
    64
  0
VERTEX
  8
LETTERS
 10
6.0
 20
-9.0
 30
15.0
 70
    64
  0
VERTEX
  8
LETTERS
 10
5.985554
 20
-9.0
 30
15.294051
 70
    64
  0
VERTEX
  8
LETTERS
 10
5.942356
 20
-9.0
 30
15.585271
 70
    64
  0
VERTEX
  8
LETTERS
 10
5.870821
 20
-9.0
 30
15.870854
 70
    64
  0
VERTEX
  8
LETTERS
 10
5.771639
 20
-9.0
 30
16.14805
 70
    64
  0
VERTEX
  8
LETTERS
 10
5.645764
 20
-9.0
 30
16.41419
 70
    64
  0
VERTEX
  8
LETTERS
 10
5.494409
 20
-9.0
 30
16.666711
 70
    64
  0
VERTEX
  8
LETTERS
 10
5.319031
 20
-9.0
 30
16.90318
 70
    64
  0
VERTEX
  8
LETTERS
 10
5.12132
 20
-9.0
 30
17.12132
 70
    64
  0
VERTEX
  8
LETTERS
 10
4.90318
 20
-9.0
 30
17.319031
 70
    64
  0
VERTEX
  8
LETTERS
 10
4.666711
 20
-9.0
 30
17.494409
 70
    64
  0
VERTEX
  8
LETTERS
 10
4.41419
 20
-9.0
 30
17.645764
 70
    64
  0
VERTEX
  8
LETTERS
 10
4.14805
 20
-9.0
 30
17.771639
 70
    64
  0
VERTEX
  8
LETTERS
 10
3.870854
 20
-9.0
 30
17.870821
 70
    64
  0
VERTEX
  8
LETTERS
 10
3.585271
 20
-9.0
 30
17.942356
 70
    64
  0
VERTEX
  8
LETTERS
 10
3.294051
 20
-9.0
 30
17.985554
 70
    64
  0
VERTEX
  8
LETTERS
 10
3.0
 20
-9.0
 30
18.0
 70
    64
  0
VERTEX
  8
LETTERS
 10
3.0
 20
-9.1875
 30
11.8125
 70
    64
  0
VERTEX
  8
LETTERS
 10
3.31243
 20
-9.1875
 30
11.827849
 70
    64
  0
VERTEX
  8
LETTERS
 10
3.62185
 20
-9.1875
 30
11.873747
 70
    64
  0
VERTEX
  8
LETTERS
 10
3.925282
 20
-9.1875
 30
11.949753
 70
    64
  0
VERTEX
  8
LETTERS
 10
4.219803
 20
-9.1875
 30
12.055134
 70
    64
  0
VERTEX
  8
LETTERS
 10
4.502577
 20
-9.1875
 30
12.188876
 70
    64
  0
VERTEX
  8
LETTERS
 10
4.77088
 20
-9.1875
 30
12.349691
 70
    64
  0
VERTEX
  8
LETTERS
 10
5.022129
 20
-9.1875
 30
12.536029
 70
    64
  0
VERTEX
  8
LETTERS
 10
5.253903
 20
-9.1875
 30
12.746097
 70
    64
  0
VERTEX
  8
LETTERS
 10
5.463971
 20
-9.1875
 30
12.977871
 70
    64
  0
VERTEX
  8
LETTERS
 10
5.650309
 20
-9.1875
 30
13.22912
 70
    64
  0
VERTEX
  8
LETTERS
 10
5.811124
 20
-9.1875
 30
13.497423
 70
    64
  0
VERTEX
  8
LETTERS
 10
5.944866
 20
-9.1875
 30
13.780197
 70
    64
  0
VERTEX
  8
LETTERS
 10
6.050247
 20
-9.1875
 30
14.074718
 70
    64
  0
VERTEX
  8
LETTERS
 10
6.126253
 20
-9.1875
 30
14.37815
 70
    64
  0
VERTEX
  8
LETTERS
 10
6.172151
 20
-9.1875
 30
14.68757
 70
    64
  0
VERTEX
  8
LETTERS
 10
6.1875
 20
-9.1875
 30
15.0
 70
    64
  0
VERTEX
  8
LETTERS
 10
6.172151
 20
-9.1875
 30
15.31243
 70
    64
  0
VERTEX
  8
LETTERS
 10
6.126253
 20
-9.1875
 30
15.62185
 70
    64
  0
VERTEX
  8
LETTERS
 10
6.050247
 20
-9.1875
 30
15.925282
 70
    64
  0
VERTEX
  8
LETTERS
 10
5.944866
 20
-9.1875
 30
16.219803
 70
    64
  0
VERTEX
  8
LETTERS
 10
5.811124
 20
-9.1875
 30
16.502577
 70
    64
  0
VERTEX
  8
LETTERS
 10
5.650309
 20
-9.1875
 30
16.77088
 70
    64
  0
VERTEX
  8
LETTERS
 10
5.463971
 20
-9.1875
 30
17.022129
 70
    64
  0
VERTEX
  8
LETTERS
 10
5.253903
 20
-9.1875
 30
17.253903
 70
    64
  0
VERTEX
  8
LETTERS
 10
5.022129
 20
-9.1875
 30
17.463971
 70
    64
  0
VERTEX
  8
LETTERS
 10
4.77088
 20
-9.1875
 30
17.650309
 70
    64
  0
VERTEX
  8
LETTERS
 10
4.502577
 20
-9.1875
 30
17.811124
 70
    64
  0
VERTEX
  8
LETTERS
 10
4.219803
 20
-9.1875
 30
17.944866
 70
    64
  0
VERTEX
  8
LETTERS
 10
3.925282
 20
-9.1875
 30
18.050247
 70
    64
  0
VERTEX
  8
LETTERS
 10
3.62185
 20
-9.1875
 30
18.126253
 70
    64
  0
VERTEX
  8
LETTERS
 10
3.31243
 20
-9.1875
 30
18.172151
 70
    64
  0
VERTEX
  8
LETTERS
 10
3.0
 20
-9.1875
 30
18.1875
 70
    64
  0
SEQEND
  8
LETTERS
  0
POLYLINE
  8
LETTERS
 66
     1
 10
0.0
 20
0.0
 30
0.0
 70
    16
 71
     2
 72
    33
  0
VERTEX
  8
LETTERS
 10
6.0
 20
-9.1875
 30
6.1875
 70
    64
  0
VERTEX
  8
LETTERS
 10
6.863776
 20
-9.1875
 30
6.229935
 70
    64
  0
VERTEX
  8
LETTERS
 10
7.719233
 20
-9.1875
 30
6.35683
 70
    64
  0
VERTEX
  8
LETTERS
 10
8.558134
 20
-9.1875
 30
6.566963
 70
    64
  0
VERTEX
  8
LETTERS
 10
9.372398
 20
-9.1875
 30
6.858312
 70
    64
  0
VERTEX
  8
LETTERS
 10
10.154184
 20
-9.1875
 30
7.228069
 70
    64
  0
VERTEX
  8
LETTERS
 10
10.895963
 20
-9.1875
 30
7.672674
 70
    64
  0
VERTEX
  8
LETTERS
 10
11.590591
 20
-9.1875
 30
8.187845
 70
    64
  0
VERTEX
  8
LETTERS
 10
12.231379
 20
-9.1875
 30
8.768621
 70
    64
  0
VERTEX
  8
LETTERS
 10
12.812155
 20
-9.1875
 30
9.409409
 70
    64
  0
VERTEX
  8
LETTERS
 10
13.327326
 20
-9.1875
 30
10.104037
 70
    64
  0
VERTEX
  8
LETTERS
 10
13.771931
 20
-9.1875
 30
10.845816
 70
    64
  0
VERTEX
  8
LETTERS
 10
14.141688
 20
-9.1875
 30
11.627602
 70
    64
  0
VERTEX
  8
LETTERS
 10
14.433037
 20
-9.1875
 30
12.441866
 70
    64
  0
VERTEX
  8
LETTERS
 10
14.64317
 20
-9.1875
 30
13.280767
 70
    64
  0
VERTEX
  8
LETTERS
 10
14.770065
 20
-9.1875
 30
14.136224
 70
    64
  0
VERTEX
  8
LETTERS
 10
14.8125
 20
-9.1875
 30
15.0
 70
    64
  0
VERTEX
  8
LETTERS
 10
14.770065
 20
-9.1875
 30
15.863776
 70
    64
  0
VERTEX
  8
LETTERS
 10
14.64317
 20
-9.1875
 30
16.719233
 70
    64
  0
VERTEX
  8
LETTERS
 10
14.433037
 20
-9.1875
 30
17.558134
 70
    64
  0
VERTEX
  8
LETTERS
 10
14.141688
 20
-9.1875
 30
18.372398
 70
    64
  0
VERTEX
  8
LETTERS
 10
13.771931
 20
-9.1875
 30
19.154184
 70
    64
  0
VERTEX
  8
LETTERS
 10
13.327326
 20
-9.1875
 30
19.895963
 70
    64
  0
VERTEX
  8
LETTERS
 10
12.812155
 20
-9.1875
 30
20.590591
 70
    64
  0
VERTEX
  8
LETTERS
 10
12.231379
 20
-9.1875
 30
21.231379
 70
    64
  0
VERTEX
  8
LETTERS
 10
11.590591
 20
-9.1875
 30
21.812155
 70
    64
  0
VERTEX
  8
LETTERS
 10
10.895963
 20
-9.1875
 30
22.327326
 70
    64
  0
VERTEX
  8
LETTERS
 10
10.154184
 20
-9.1875
 30
22.771931
 70
    64
  0
VERTEX
  8
LETTERS
 10
9.372398
 20
-9.1875
 30
23.141688
 70
    64
  0
VERTEX
  8
LETTERS
 10
8.558134
 20
-9.1875
 30
23.433037
 70
    64
  0
VERTEX
  8
LETTERS
 10
7.719233
 20
-9.1875
 30
23.64317
 70
    64
  0
VERTEX
  8
LETTERS
 10
6.863776
 20
-9.1875
 30
23.770065
 70
    64
  0
VERTEX
  8
LETTERS
 10
6.0
 20
-9.1875
 30
23.8125
 70
    64
  0
VERTEX
  8
LETTERS
 10
6.0
 20
-9.0
 30
6.0
 70
    64
  0
VERTEX
  8
LETTERS
 10
6.882154
 20
-9.0
 30
6.043337
 70
    64
  0
VERTEX
  8
LETTERS
 10
7.755813
 20
-9.0
 30
6.172932
 70
    64
  0
VERTEX
  8
LETTERS
 10
8.612562
 20
-9.0
 30
6.387537
 70
    64
  0
VERTEX
  8
LETTERS
 10
9.444151
 20
-9.0
 30
6.685084
 70
    64
  0
VERTEX
  8
LETTERS
 10
10.242571
 20
-9.0
 30
7.062709
 70
    64
  0
VERTEX
  8
LETTERS
 10
11.000132
 20
-9.0
 30
7.516773
 70
    64
  0
VERTEX
  8
LETTERS
 10
11.70954
 20
-9.0
 30
8.042906
 70
    64
  0
VERTEX
  8
LETTERS
 10
12.363961
 20
-9.0
 30
8.636039
 70
    64
  0
VERTEX
  8
LETTERS
 10
12.957094
 20
-9.0
 30
9.29046
 70
    64
  0
VERTEX
  8
LETTERS
 10
13.483227
 20
-9.0
 30
9.999868
 70
    64
  0
VERTEX
  8
LETTERS
 10
13.937291
 20
-9.0
 30
10.757429
 70
    64
  0
VERTEX
  8
LETTERS
 10
14.314916
 20
-9.0
 30
11.555849
 70
    64
  0
VERTEX
  8
LETTERS
 10
14.612463
 20
-9.0
 30
12.387438
 70
    64
  0
VERTEX
  8
LETTERS
 10
14.827068
 20
-9.0
 30
13.244187
 70
    64
  0
VERTEX
  8
LETTERS
 10
14.956663
 20
-9.0
 30
14.117846
 70
    64
  0
VERTEX
  8
LETTERS
 10
15.0
 20
-9.0
 30
15.0
 70
    64
  0
VERTEX
  8
LETTERS
 10
14.956663
 20
-9.0
 30
15.882154
 70
    64
  0
VERTEX
  8
LETTERS
 10
14.827068
 20
-9.0
 30
16.755813
 70
    64
  0
VERTEX
  8
LETTERS
 10
14.612463
 20
-9.0
 30
17.612562
 70
    64
  0
VERTEX
  8
LETTERS
 10
14.314916
 20
-9.0
 30
18.444151
 70
    64
  0
VERTEX
  8
LETTERS
 10
13.937291
 20
-9.0
 30
19.242571
 70
    64
  0
VERTEX
  8
LETTERS
 10
13.483227
 20
-9.0
 30
20.000132
 70
    64
  0
VERTEX
  8
LETTERS
 10
12.957094
 20
-9.0
 30
20.70954
 70
    64
  0
VERTEX
  8
LETTERS
 10
12.363961
 20
-9.0
 30
21.363961
 70
    64
  0
VERTEX
  8
LETTERS
 10
11.70954
 20
-9.0
 30
21.957094
 70
    64
  0
VERTEX
  8
LETTERS
 10
11.000132
 20
-9.0
 30
22.483227
 70
    64
  0
VERTEX
  8
LETTERS
 10
10.242571
 20
-9.0
 30
22.937291
 70
    64
  0
VERTEX
  8
LETTERS
 10
9.444151
 20
-9.0
 30
23.314916
 70
    64
  0
VERTEX
  8
LETTERS
 10
8.612562
 20
-9.0
 30
23.612463
 70
    64
  0
VERTEX
  8
LETTERS
 10
7.755813
 20
-9.0
 30
23.827068
 70
    64
  0
VERTEX
  8
LETTERS
 10
6.882154
 20
-9.0
 30
23.956663
 70
    64
  0
VERTEX
  8
LETTERS
 10
6.0
 20
-9.0
 30
24.0
 70
    64
  0
SEQEND
  8
LETTERS
  0
POLYLINE
  8
LETTERS
 66
     1
 10
0.0
 20
0.0
 30
0.0
 70
    16
 71
     2
 72
     3
  0
VERTEX
  8
LETTERS
 10
-14.25
 20
-9.0
 30
21.0
 70
    64
  0
VERTEX
  8
LETTERS
 10
-13.6875
 20
-9.0
 30
21.0
 70
    64
  0
VERTEX
  8
LETTERS
 10
-13.125
 20
-9.0
 30
21.0
 70
    64
  0
VERTEX
  8
LETTERS
 10
-14.34375
 20
-9.09375
 30
21.09375
 70
    64
  0
VERTEX
  8
LETTERS
 10
-13.734375
 20
-9.09375
 30
21.09375
 70
    64
  0
VERTEX
  8
LETTERS
 10
-13.125
 20
-9.09375
 30
21.09375
 70
    64
  0
SEQEND
  8
LETTERS
  0
POLYLINE
  8
LETTERS
 66
     1
 10
0.0
 20
0.0
 30
0.0
 70
    16
 71
     2
 72
     3
  0
VERTEX
  8
LETTERS
 10
-14.25
 20
-9.0
 30
23.25
 70
    64
  0
VERTEX
  8
LETTERS
 10
-13.6875
 20
-9.0
 30
23.25
 70
    64
  0
VERTEX
  8
LETTERS
 10
-13.125
 20
-9.0
 30
23.25
 70
    64
  0
VERTEX
  8
LETTERS
 10
-14.34375
 20
-9.09375
 30
23.34375
 70
    64
  0
VERTEX
  8
LETTERS
 10
-13.734375
 20
-9.09375
 30
23.34375
 70
    64
  0
VERTEX
  8
LETTERS
 10
-13.125
 20
-9.09375
 30
23.34375
 70
    64
  0
SEQEND
  8
LETTERS
  0
POLYLINE
  8
LETTERS
 66
     1
 10
0.0
 20
0.0
 30
0.0
 70
    16
 71
     2
 72
     3
  0
VERTEX
  8
LETTERS
 10
-14.34375
 20
-9.09375
 30
21.65625
 70
    64
  0
VERTEX
  8
LETTERS
 10
-14.34375
 20
-9.09375
 30
22.5
 70
    64
  0
VERTEX
  8
LETTERS
 10
-14.34375
 20
-9.09375
 30
23.34375
 70
    64
  0
VERTEX
  8
LETTERS
 10
-14.25
 20
-9.0
 30
21.75
 70
    64
  0
VERTEX
  8
LETTERS
 10
-14.25
 20
-9.0
 30
22.5
 70
    64
  0
VERTEX
  8
LETTERS
 10
-14.25
 20
-9.0
 30
23.25
 70
    64
  0
SEQEND
  8
LETTERS
  0
POLYLINE
  8
LETTERS
 66
     1
 10
0.0
 20
0.0
 30
0.0
 70
    16
 71
     2
 72
     3
  0
VERTEX
  8
LETTERS
 10
-14.34375
 20
-9.09375
 30
21.65625
 70
    64
  0
VERTEX
  8
LETTERS
 10
-13.734375
 20
-9.09375
 30
21.65625
 70
    64
  0
VERTEX
  8
LETTERS
 10
-13.125
 20
-9.09375
 30
21.65625
 70
    64
  0
VERTEX
  8
LETTERS
 10
-14.25
 20
-9.0
 30
21.75
 70
    64
  0
VERTEX
  8
LETTERS
 10
-13.6875
 20
-9.0
 30
21.75
 70
    64
  0
VERTEX
  8
LETTERS
 10
-13.125
 20
-9.0
 30
21.75
 70
    64
  0
SEQEND
  8
LETTERS
  0
POLYLINE
  8
LETTERS
 66
     1
 10
0.0
 20
0.0
 30
0.0
 70
    16
 71
     2
 72
     3
  0
VERTEX
  8
LETTERS
 10
-14.25
 20
-9.0
 30
18.75
 70
    64
  0
VERTEX
  8
LETTERS
 10
-14.25
 20
-9.0
 30
19.875
 70
    64
  0
VERTEX
  8
LETTERS
 10
-14.25
 20
-9.0
 30
21.0
 70
    64
  0
VERTEX
  8
LETTERS
 10
-14.34375
 20
-9.09375
 30
18.65625
 70
    64
  0
VERTEX
  8
LETTERS
 10
-14.34375
 20
-9.09375
 30
19.875
 70
    64
  0
VERTEX
  8
LETTERS
 10
-14.34375
 20
-9.09375
 30
21.09375
 70
    64
  0
SEQEND
  8
LETTERS
  0
POLYLINE
  8
LETTERS
 66
     1
 10
0.0
 20
0.0
 30
0.0
 70
    16
 71
     2
 72
     3
  0
VERTEX
  8
LETTERS
 10
-14.25
 20
-9.0
 30
18.75
 70
    64
  0
VERTEX
  8
LETTERS
 10
-13.6875
 20
-9.0
 30
18.75
 70
    64
  0
VERTEX
  8
LETTERS
 10
-13.125
 20
-9.0
 30
18.75
 70
    64
  0
VERTEX
  8
LETTERS
 10
-14.34375
 20
-9.09375
 30
18.65625
 70
    64
  0
VERTEX
  8
LETTERS
 10
-13.734375
 20
-9.09375
 30
18.65625
 70
    64
  0
VERTEX
  8
LETTERS
 10
-13.125
 20
-9.09375
 30
18.65625
 70
    64
  0
SEQEND
  8
LETTERS
  0
POLYLINE
  8
LETTERS
 66
     1
 10
0.0
 20
0.0
 30
0.0
 70
    16
 71
     2
 72
     3
  0
VERTEX
  8
LETTERS
 10
-13.125
 20
-9.09375
 30
18.09375
 70
    64
  0
VERTEX
  8
LETTERS
 10
-14.015625
 20
-9.09375
 30
18.09375
 70
    64
  0
VERTEX
  8
LETTERS
 10
-14.90625
 20
-9.09375
 30
18.09375
 70
    64
  0
VERTEX
  8
LETTERS
 10
-13.125
 20
-9.0
 30
18.0
 70
    64
  0
VERTEX
  8
LETTERS
 10
-14.0625
 20
-9.0
 30
18.0
 70
    64
  0
VERTEX
  8
LETTERS
 10
-15.0
 20
-9.0
 30
18.0
 70
    64
  0
SEQEND
  8
LETTERS
  0
POLYLINE
  8
LETTERS
 66
     1
 10
0.0
 20
0.0
 30
0.0
 70
    16
 71
     2
 72
     3
  0
VERTEX
  8
LETTERS
 10
-14.90625
 20
-9.09375
 30
23.90625
 70
    64
  0
VERTEX
  8
LETTERS
 10
-14.90625
 20
-9.09375
 30
21.0
 70
    64
  0
VERTEX
  8
LETTERS
 10
-14.90625
 20
-9.09375
 30
18.09375
 70
    64
  0
VERTEX
  8
LETTERS
 10
-15.0
 20
-9.0
 30
24.0
 70
    64
  0
VERTEX
  8
LETTERS
 10
-15.0
 20
-9.0
 30
21.0
 70
    64
  0
VERTEX
  8
LETTERS
 10
-15.0
 20
-9.0
 30
18.0
 70
    64
  0
SEQEND
  8
LETTERS
  0
POLYLINE
  8
LETTERS
 66
     1
 10
0.0
 20
0.0
 30
0.0
 70
    16
 71
     2
 72
     3
  0
VERTEX
  8
LETTERS
 10
-15.0
 20
-9.0
 30
24.0
 70
    64
  0
VERTEX
  8
LETTERS
 10
-14.0625
 20
-9.0
 30
24.0
 70
    64
  0
VERTEX
  8
LETTERS
 10
-13.125
 20
-9.0
 30
24.0
 70
    64
  0
VERTEX
  8
LETTERS
 10
-14.90625
 20
-9.09375
 30
23.90625
 70
    64
  0
VERTEX
  8
LETTERS
 10
-14.015625
 20
-9.09375
 30
23.90625
 70
    64
  0
VERTEX
  8
LETTERS
 10
-13.125
 20
-9.09375
 30
23.90625
 70
    64
  0
SEQEND
  8
LETTERS
  0
POLYLINE
  8
LETTERS
 66
     1
 10
0.0
 20
0.0
 30
0.0
 70
    16
 71
     2
 72
    17
  0
VERTEX
  8
LETTERS
 10
-13.125
 20
-9.0
 30
21.75
 70
    64
  0
VERTEX
  8
LETTERS
 10
-12.978682
 20
-9.0
 30
21.764411
 70
    64
  0
VERTEX
  8
LETTERS
 10
-12.837987
 20
-9.0
 30
21.80709
 70
    64
  0
VERTEX
  8
LETTERS
 10
-12.708322
 20
-9.0
 30
21.876398
 70
    64
  0
VERTEX
  8
LETTERS
 10
-12.59467
 20
-9.0
 30
21.96967
 70
    64
  0
VERTEX
  8
LETTERS
 10
-12.501398
 20
-9.0
 30
22.083322
 70
    64
  0
VERTEX
  8
LETTERS
 10
-12.43209
 20
-9.0
 30
22.212987
 70
    64
  0
VERTEX
  8
LETTERS
 10
-12.389411
 20
-9.0
 30
22.353682
 70
    64
  0
VERTEX
  8
LETTERS
 10
-12.375
 20
-9.0
 30
22.5
 70
    64
  0
VERTEX
  8
LETTERS
 10
-12.389411
 20
-9.0
 30
22.646318
 70
    64
  0
VERTEX
  8
LETTERS
 10
-12.43209
 20
-9.0
 30
22.787013
 70
    64
  0
VERTEX
  8
LETTERS
 10
-12.501398
 20
-9.0
 30
22.916678
 70
    64
  0
VERTEX
  8
LETTERS
 10
-12.59467
 20
-9.0
 30
23.03033
 70
    64
  0
VERTEX
  8
LETTERS
 10
-12.708322
 20
-9.0
 30
23.123602
 70
    64
  0
VERTEX
  8
LETTERS
 10
-12.837987
 20
-9.0
 30
23.19291
 70
    64
  0
VERTEX
  8
LETTERS
 10
-12.978682
 20
-9.0
 30
23.235589
 70
    64
  0
VERTEX
  8
LETTERS
 10
-13.125
 20
-9.0
 30
23.25
 70
    64
  0
VERTEX
  8
LETTERS
 10
-13.125
 20
-9.09375
 30
21.65625
 70
    64
  0
VERTEX
  8
LETTERS
 10
-12.960393
 20
-9.09375
 30
21.672462
 70
    64
  0
VERTEX
  8
LETTERS
 10
-12.802111
 20
-9.09375
 30
21.720477
 70
    64
  0
VERTEX
  8
LETTERS
 10
-12.656238
 20
-9.09375
 30
21.798448
 70
    64
  0
VERTEX
  8
LETTERS
 10
-12.528379
 20
-9.09375
 30
21.903379
 70
    64
  0
VERTEX
  8
LETTERS
 10
-12.423448
 20
-9.09375
 30
22.031238
 70
    64
  0
VERTEX
  8
LETTERS
 10
-12.345477
 20
-9.09375
 30
22.177111
 70
    64
  0
VERTEX
  8
LETTERS
 10
-12.297462
 20
-9.09375
 30
22.335393
 70
    64
  0
VERTEX
  8
LETTERS
 10
-12.28125
 20
-9.09375
 30
22.5
 70
    64
  0
VERTEX
  8
LETTERS
 10
-12.297462
 20
-9.09375
 30
22.664607
 70
    64
  0
VERTEX
  8
LETTERS
 10
-12.345477
 20
-9.09375
 30
22.822889
 70
    64
  0
VERTEX
  8
LETTERS
 10
-12.423448
 20
-9.09375
 30
22.968762
 70
    64
  0
VERTEX
  8
LETTERS
 10
-12.528379
 20
-9.09375
 30
23.096621
 70
    64
  0
VERTEX
  8
LETTERS
 10
-12.656238
 20
-9.09375
 30
23.201553
 70
    64
  0
VERTEX
  8
LETTERS
 10
-12.802111
 20
-9.09375
 30
23.279523
 70
    64
  0
VERTEX
  8
LETTERS
 10
-12.960393
 20
-9.09375
 30
23.327538
 70
    64
  0
VERTEX
  8
LETTERS
 10
-13.125
 20
-9.09375
 30
23.34375
 70
    64
  0
SEQEND
  8
LETTERS
  0
POLYLINE
  8
LETTERS
 66
     1
 10
0.0
 20
0.0
 30
0.0
 70
    16
 71
     2
 72
    17
  0
VERTEX
  8
LETTERS
 10
-12.230181
 20
-9.09375
 30
21.415179
 70
    64
  0
VERTEX
  8
LETTERS
 10
-12.075076
 20
-9.09375
 30
21.56448
 70
    64
  0
VERTEX
  8
LETTERS
 10
-11.944579
 20
-9.09375
 30
21.735707
 70
    64
  0
VERTEX
  8
LETTERS
 10
-11.841747
 20
-9.09375
 30
21.924847
 70
    64
  0
VERTEX
  8
LETTERS
 10
-11.768992
 20
-9.09375
 30
22.127467
 70
    64
  0
VERTEX
  8
LETTERS
 10
-11.728018
 20
-9.09375
 30
22.338818
 70
    64
  0
VERTEX
  8
LETTERS
 10
-11.719785
 20
-9.09375
 30
22.553947
 70
    64
  0
VERTEX
  8
LETTERS
 10
-11.744487
 20
-9.09375
 30
22.767811
 70
    64
  0
VERTEX
  8
LETTERS
 10
-11.801544
 20
-9.09375
 30
22.975399
 70
    64
  0
VERTEX
  8
LETTERS
 10
-11.88962
 20
-9.09375
 30
23.171845
 70
    64
  0
VERTEX
  8
LETTERS
 10
-12.00665
 20
-9.09375
 30
23.352544
 70
    64
  0
VERTEX
  8
LETTERS
 10
-12.149891
 20
-9.09375
 30
23.513263
 70
    64
  0
VERTEX
  8
LETTERS
 10
-12.315986
 20
-9.09375
 30
23.650232
 70
    64
  0
VERTEX
  8
LETTERS
 10
-12.501041
 20
-9.09375
 30
23.760244
 70
    64
  0
VERTEX
  8
LETTERS
 10
-12.700721
 20
-9.09375
 30
23.840719
 70
    64
  0
VERTEX
  8
LETTERS
 10
-12.910345
 20
-9.09375
 30
23.889771
 70
    64
  0
VERTEX
  8
LETTERS
 10
-13.125
 20
-9.09375
 30
23.90625
 70
    64
  0
VERTEX
  8
LETTERS
 10
-12.075219
 20
-9.0
 30
21.428571
 70
    64
  0
VERTEX
  8
LETTERS
 10
-11.928792
 20
-9.0
 30
21.594966
 70
    64
  0
VERTEX
  8
LETTERS
 10
-11.808485
 20
-9.0
 30
21.781121
 70
    64
  0
VERTEX
  8
LETTERS
 10
-11.716922
 20
-9.0
 30
21.982973
 70
    64
  0
VERTEX
  8
LETTERS
 10
-11.656105
 20
-9.0
 30
22.196113
 70
    64
  0
VERTEX
  8
LETTERS
 10
-11.62736
 20
-9.0
 30
22.415889
 70
    64
  0
VERTEX
  8
LETTERS
 10
-11.631316
 20
-9.0
 30
22.637502
 70
    64
  0
VERTEX
  8
LETTERS
 10
-11.667885
 20
-9.0
 30
22.856112
 70
    64
  0
VERTEX
  8
LETTERS
 10
-11.73627
 20
-9.0
 30
23.066947
 70
    64
  0
VERTEX
  8
LETTERS
 10
-11.834977
 20
-9.0
 30
23.265402
 70
    64
  0
VERTEX
  8
LETTERS
 10
-11.961851
 20
-9.0
 30
23.447146
 70
    64
  0
VERTEX
  8
LETTERS
 10
-12.114122
 20
-9.0
 30
23.608209
 70
    64
  0
VERTEX
  8
LETTERS
 10
-12.288465
 20
-9.0
 30
23.745074
 70
    64
  0
VERTEX
  8
LETTERS
 10
-12.481074
 20
-9.0
 30
23.854754
 70
    64
  0
VERTEX
  8
LETTERS
 10
-12.687742
 20
-9.0
 30
23.934854
 70
    64
  0
VERTEX
  8
LETTERS
 10
-12.903958
 20
-9.0
 30
23.983624
 70
    64
  0
VERTEX
  8
LETTERS
 10
-13.125
 20
-9.0
 30
24.0
 70
    64
  0
SEQEND
  8
LETTERS
  0
POLYLINE
  8
LETTERS
 66
     1
 10
0.0
 20
0.0
 30
0.0
 70
    16
 71
     2
 72
    17
  0
VERTEX
  8
LETTERS
 10
-13.125
 20
-9.09375
 30
18.09375
 70
    64
  0
VERTEX
  8
LETTERS
 10
-12.835141
 20
-9.09375
 30
18.117492
 70
    64
  0
VERTEX
  8
LETTERS
 10
-12.55301
 20
-9.09375
 30
18.188086
 70
    64
  0
VERTEX
  8
LETTERS
 10
-12.286126
 20
-9.09375
 30
18.30365
 70
    64
  0
VERTEX
  8
LETTERS
 10
-12.041605
 20
-9.09375
 30
18.461102
 70
    64
  0
VERTEX
  8
LETTERS
 10
-11.825965
 20
-9.09375
 30
18.656246
 70
    64
  0
VERTEX
  8
LETTERS
 10
-11.644955
 20
-9.09375
 30
18.88388
 70
    64
  0
VERTEX
  8
LETTERS
 10
-11.5034
 20
-9.09375
 30
19.137935
 70
    64
  0
VERTEX
  8
LETTERS
 10
-11.405073
 20
-9.09375
 30
19.411638
 70
    64
  0
VERTEX
  8
LETTERS
 10
-11.352596
 20
-9.09375
 30
19.697694
 70
    64
  0
VERTEX
  8
LETTERS
 10
-11.347368
 20
-9.09375
 30
19.988476
 70
    64
  0
VERTEX
  8
LETTERS
 10
-11.389528
 20
-9.09375
 30
20.276234
 70
    64
  0
VERTEX
  8
LETTERS
 10
-11.477952
 20
-9.09375
 30
20.553295
 70
    64
  0
VERTEX
  8
LETTERS
 10
-11.610283
 20
-9.09375
 30
20.812274
 70
    64
  0
VERTEX
  8
LETTERS
 10
-11.782993
 20
-9.09375
 30
21.046268
 70
    64
  0
VERTEX
  8
LETTERS
 10
-11.991478
 20
-9.09375
 30
21.249038
 70
    64
  0
VERTEX
  8
LETTERS
 10
-12.230181
 20
-9.09375
 30
21.415179
 70
    64
  0
VERTEX
  8
LETTERS
 10
-13.125
 20
-9.0
 30
18.0
 70
    64
  0
VERTEX
  8
LETTERS
 10
-12.827742
 20
-9.0
 30
18.023713
 70
    64
  0
VERTEX
  8
LETTERS
 10
-12.538003
 20
-9.0
 30
18.094253
 70
    64
  0
VERTEX
  8
LETTERS
 10
-12.263112
 20
-9.0
 30
18.209835
 70
    64
  0
VERTEX
  8
LETTERS
 10
-12.010021
 20
-9.0
 30
18.367536
 70
    64
  0
VERTEX
  8
LETTERS
 10
-11.785133
 20
-9.0
 30
18.563367
 70
    64
  0
VERTEX
  8
LETTERS
 10
-11.594135
 20
-9.0
 30
18.792374
 70
    64
  0
VERTEX
  8
LETTERS
 10
-11.441859
 20
-9.0
 30
19.048766
 70
    64
  0
VERTEX
  8
LETTERS
 10
-11.332157
 20
-9.0
 30
19.326056
 70
    64
  0
VERTEX
  8
LETTERS
 10
-11.267803
 20
-9.0
 30
19.617232
 70
    64
  0
VERTEX
  8
LETTERS
 10
-11.250425
 20
-9.0
 30
19.914927
 70
    64
  0
VERTEX
  8
LETTERS
 10
-11.280463
 20
-9.0
 30
20.211612
 70
    64
  0
VERTEX
  8
LETTERS
 10
-11.357156
 20
-9.0
 30
20.499783
 70
    64
  0
VERTEX
  8
LETTERS
 10
-11.478566
 20
-9.0
 30
20.772151
 70
    64
  0
VERTEX
  8
LETTERS
 10
-11.641621
 20
-9.0
 30
21.021826
 70
    64
  0
VERTEX
  8
LETTERS
 10
-11.842196
 20
-9.0
 30
21.242494
 70
    64
  0
VERTEX
  8
LETTERS
 10
-12.075219
 20
-9.0
 30
21.428571
 70
    64
  0
SEQEND
  8
LETTERS
  0
POLYLINE
  8
LETTERS
 66
     1
 10
0.0
 20
0.0
 30
0.0
 70
    16
 71
     2
 72
    17
  0
VERTEX
  8
LETTERS
 10
-13.125
 20
-9.0
 30
18.75
 70
    64
  0
VERTEX
  8
LETTERS
 10
-12.905523
 20
-9.0
 30
18.771617
 70
    64
  0
VERTEX
  8
LETTERS
 10
-12.694481
 20
-9.0
 30
18.835636
 70
    64
  0
VERTEX
  8
LETTERS
 10
-12.499983
 20
-9.0
 30
18.939597
 70
    64
  0
VERTEX
  8
LETTERS
 10
-12.329505
 20
-9.0
 30
19.079505
 70
    64
  0
VERTEX
  8
LETTERS
 10
-12.189597
 20
-9.0
 30
19.249983
 70
    64
  0
VERTEX
  8
LETTERS
 10
-12.085636
 20
-9.0
 30
19.444481
 70
    64
  0
VERTEX
  8
LETTERS
 10
-12.021617
 20
-9.0
 30
19.655523
 70
    64
  0
VERTEX
  8
LETTERS
 10
-12.0
 20
-9.0
 30
19.875
 70
    64
  0
VERTEX
  8
LETTERS
 10
-12.021617
 20
-9.0
 30
20.094477
 70
    64
  0
VERTEX
  8
LETTERS
 10
-12.085636
 20
-9.0
 30
20.305519
 70
    64
  0
VERTEX
  8
LETTERS
 10
-12.189597
 20
-9.0
 30
20.500017
 70
    64
  0
VERTEX
  8
LETTERS
 10
-12.329505
 20
-9.0
 30
20.670495
 70
    64
  0
VERTEX
  8
LETTERS
 10
-12.499983
 20
-9.0
 30
20.810403
 70
    64
  0
VERTEX
  8
LETTERS
 10
-12.694481
 20
-9.0
 30
20.914364
 70
    64
  0
VERTEX
  8
LETTERS
 10
-12.905523
 20
-9.0
 30
20.978383
 70
    64
  0
VERTEX
  8
LETTERS
 10
-13.125
 20
-9.0
 30
21.0
 70
    64
  0
VERTEX
  8
LETTERS
 10
-13.125
 20
-9.09375
 30
18.65625
 70
    64
  0
VERTEX
  8
LETTERS
 10
-12.887234
 20
-9.09375
 30
18.679668
 70
    64
  0
VERTEX
  8
LETTERS
 10
-12.658605
 20
-9.09375
 30
18.749022
 70
    64
  0
VERTEX
  8
LETTERS
 10
-12.447899
 20
-9.09375
 30
18.861646
 70
    64
  0
VERTEX
  8
LETTERS
 10
-12.263214
 20
-9.09375
 30
19.013214
 70
    64
  0
VERTEX
  8
LETTERS
 10
-12.111646
 20
-9.09375
 30
19.197899
 70
    64
  0
VERTEX
  8
LETTERS
 10
-11.999022
 20
-9.09375
 30
19.408605
 70
    64
  0
VERTEX
  8
LETTERS
 10
-11.929668
 20
-9.09375
 30
19.637234
 70
    64
  0
VERTEX
  8
LETTERS
 10
-11.90625
 20
-9.09375
 30
19.875
 70
    64
  0
VERTEX
  8
LETTERS
 10
-11.929668
 20
-9.09375
 30
20.112766
 70
    64
  0
VERTEX
  8
LETTERS
 10
-11.999022
 20
-9.09375
 30
20.341395
 70
    64
  0
VERTEX
  8
LETTERS
 10
-12.111646
 20
-9.09375
 30
20.552101
 70
    64
  0
VERTEX
  8
LETTERS
 10
-12.263214
 20
-9.09375
 30
20.736786
 70
    64
  0
VERTEX
  8
LETTERS
 10
-12.447899
 20
-9.09375
 30
20.888354
 70
    64
  0
VERTEX
  8
LETTERS
 10
-12.658605
 20
-9.09375
 30
21.000978
 70
    64
  0
VERTEX
  8
LETTERS
 10
-12.887234
 20
-9.09375
 30
21.070332
 70
    64
  0
VERTEX
  8
LETTERS
 10
-13.125
 20
-9.09375
 30
21.09375
 70
    64
  0
SEQEND
  8
LETTERS
  0
LINE
  8
LETTERS
 39
-18.0
 10
-14.25
 20
-9.0
 30
21.0
 11
-14.25
 21
-9.0
 31
18.75
210
0.0
220
-1.0
230
0.0
  0
LINE
  8
LETTERS
 39
-18.0
 10
-13.125
 20
-9.0
 30
21.0
 11
-14.25
 21
-9.0
 31
21.0
210
0.0
220
-1.0
230
0.0
  0
ARC
  8
LETTERS
 39
-18.0
 10
-13.125
 20
19.875
 30
9.0
 40
1.125
 50
270.0
 51
90.0
210
0.0
220
-1.0
230
0.0
  0
LINE
  8
LETTERS
 39
-18.0
 10
-14.25
 20
-9.0
 30
18.75
 11
-13.125
 21
-9.0
 31
18.75
210
0.0
220
-1.0
230
0.0
  0
LINE
  8
LETTERS
 39
-18.1875
 10
-14.34375
 20
-9.09375
 30
21.09375
 11
-14.34375
 21
-9.09375
 31
18.65625
210
0.0
220
-1.0
230
0.0
  0
LINE
  8
LETTERS
 39
-18.1875
 10
-13.125
 20
-9.09375
 30
21.09375
 11
-14.34375
 21
-9.09375
 31
21.09375
210
0.0
220
-1.0
230
0.0
  0
ARC
  8
LETTERS
 39
-18.1875
 10
-13.125
 20
19.875
 30
9.09375
 40
1.21875
 50
270.000001
 51
89.999999
210
0.0
220
-1.0
230
0.0
  0
LINE
  8
LETTERS
 39
-18.1875
 10
-14.34375
 20
-9.09375
 30
18.65625
 11
-13.125
 21
-9.09375
 31
18.65625
210
0.0
220
-1.0
230
0.0
  0
LINE
  8
LETTERS
 39
-18.0
 10
-14.25
 20
-9.0
 30
21.75
 11
-14.25
 21
-9.0
 31
23.25
210
0.0
220
-1.0
230
0.0
  0
LINE
  8
LETTERS
 39
-18.0
 10
-13.125
 20
-9.0
 30
21.75
 11
-14.25
 21
-9.0
 31
21.75
210
0.0
220
-1.0
230
0.0
  0
ARC
  8
LETTERS
 39
-18.0
 10
-13.125
 20
22.5
 30
9.0
 40
0.75
 50
270.0
 51
90.0
210
0.0
220
-1.0
230
0.0
  0
LINE
  8
LETTERS
 39
-18.0
 10
-14.25
 20
-9.0
 30
23.25
 11
-13.125
 21
-9.0
 31
23.25
210
0.0
220
-1.0
230
0.0
  0
LINE
  8
LETTERS
 39
-18.1875
 10
-14.34375
 20
-9.09375
 30
21.65625
 11
-14.34375
 21
-9.09375
 31
23.34375
210
0.0
220
-1.0
230
0.0
  0
LINE
  8
LETTERS
 39
-18.1875
 10
-13.125
 20
-9.09375
 30
21.65625
 11
-14.34375
 21
-9.09375
 31
21.65625
210
0.0
220
-1.0
230
0.0
  0
ARC
  8
LETTERS
 39
-18.1875
 10
-13.125
 20
22.5
 30
9.09375
 40
0.84375
 50
270.0
 51
90.0
210
0.0
220
-1.0
230
0.0
  0
LINE
  8
LETTERS
 39
-18.1875
 10
-14.34375
 20
-9.09375
 30
23.34375
 11
-13.125
 21
-9.09375
 31
23.34375
210
0.0
220
-1.0
230
0.0
  0
LINE
  8
LETTERS
 39
-18.0
 10
-12.075219
 20
-9.0
 30
21.428571
 11
-12.075219
 21
-9.0
 31
21.428571
210
0.0
220
-1.0
230
0.0
  0
ARC
  8
LETTERS
 39
-18.0
 10
-13.125
 20
19.875
 30
9.0
 40
1.875
 50
270.0
 51
55.952268
210
0.0
220
-1.0
230
0.0
  0
LINE
  8
LETTERS
 39
-18.0
 10
-15.0
 20
-9.0
 30
18.0
 11
-13.125
 21
-9.0
 31
18.0
210
0.0
220
-1.0
230
0.0
  0
LINE
  8
LETTERS
 39
-18.0
 10
-15.0
 20
-9.0
 30
24.0
 11
-15.0
 21
-9.0
 31
18.0
210
0.0
220
-1.0
230
0.0
  0
LINE
  8
LETTERS
 39
-18.0
 10
-13.125
 20
-9.0
 30
24.0
 11
-15.0
 21
-9.0
 31
24.0
210
0.0
220
-1.0
230
0.0
  0
ARC
  8
LETTERS
 39
-18.0
 10
-13.125
 20
22.5
 30
9.0
 40
1.5
 50
314.415309
 51
90.0
210
0.0
220
-1.0
230
0.0
  0
ARC
  8
LETTERS
 39
-18.1875
 10
-13.125
 20
19.875
 30
9.09375
 40
1.78125
 50
270.0
 51
59.844093
210
0.0
220
-1.0
230
0.0
  0
LINE
  8
LETTERS
 39
-18.1875
 10
-14.90625
 20
-9.09375
 30
18.09375
 11
-13.125
 21
-9.09375
 31
18.09375
210
0.0
220
-1.0
230
0.0
  0
LINE
  8
LETTERS
 39
-18.1875
 10
-14.90625
 20
-9.09375
 30
23.90625
 11
-14.90625
 21
-9.09375
 31
18.09375
210
0.0
220
-1.0
230
0.0
  0
LINE
  8
LETTERS
 39
-18.1875
 10
-13.125
 20
-9.09375
 30
23.90625
 11
-14.90625
 21
-9.09375
 31
23.90625
210
0.0
220
-1.0
230
0.0
  0
ARC
  8
LETTERS
 39
-18.1875
 10
-13.125
 20
22.5
 30
9.09375
 40
1.40625
 50
309.517653
 51
90.0
210
0.0
220
-1.0
230
0.0
  0
POLYLINE
  8
LETTERS
 66
     1
 10
0.0
 20
0.0
 30
0.0
 70
    16
 71
     2
 72
     3
  0
VERTEX
  8
LETTERS
 10
-10.875
 20
-9.0
 30
18.0
 70
    64
  0
VERTEX
  8
LETTERS
 10
-10.875
 20
-9.0
 30
21.0
 70
    64
  0
VERTEX
  8
LETTERS
 10
-10.875
 20
-9.0
 30
24.0
 70
    64
  0
VERTEX
  8
LETTERS
 10
-10.78125
 20
-9.09375
 30
18.09375
 70
    64
  0
VERTEX
  8
LETTERS
 10
-10.78125
 20
-9.09375
 30
21.0
 70
    64
  0
VERTEX
  8
LETTERS
 10
-10.78125
 20
-9.09375
 30
23.90625
 70
    64
  0
SEQEND
  8
LETTERS
  0
POLYLINE
  8
LETTERS
 66
     1
 10
0.0
 20
0.0
 30
0.0
 70
    16
 71
     2
 72
     3
  0
VERTEX
  8
LETTERS
 10
-10.125
 20
-9.0
 30
18.0
 70
    64
  0
VERTEX
  8
LETTERS
 10
-10.5
 20
-9.0
 30
18.0
 70
    64
  0
VERTEX
  8
LETTERS
 10
-10.875
 20
-9.0
 30
18.0
 70
    64
  0
VERTEX
  8
LETTERS
 10
-10.21875
 20
-9.09375
 30
18.09375
 70
    64
  0
VERTEX
  8
LETTERS
 10
-10.5
 20
-9.09375
 30
18.09375
 70
    64
  0
VERTEX
  8
LETTERS
 10
-10.78125
 20
-9.09375
 30
18.09375
 70
    64
  0
SEQEND
  8
LETTERS
  0
POLYLINE
  8
LETTERS
 66
     1
 10
0.0
 20
0.0
 30
0.0
 70
    16
 71
     2
 72
     3
  0
VERTEX
  8
LETTERS
 10
-10.21875
 20
-9.09375
 30
23.90625
 70
    64
  0
VERTEX
  8
LETTERS
 10
-10.21875
 20
-9.09375
 30
21.0
 70
    64
  0
VERTEX
  8
LETTERS
 10
-10.21875
 20
-9.09375
 30
18.09375
 70
    64
  0
VERTEX
  8
LETTERS
 10
-10.125
 20
-9.0
 30
24.0
 70
    64
  0
VERTEX
  8
LETTERS
 10
-10.125
 20
-9.0
 30
21.0
 70
    64
  0
VERTEX
  8
LETTERS
 10
-10.125
 20
-9.0
 30
18.0
 70
    64
  0
SEQEND
  8
LETTERS
  0
POLYLINE
  8
LETTERS
 66
     1
 10
0.0
 20
0.0
 30
0.0
 70
    16
 71
     2
 72
     3
  0
VERTEX
  8
LETTERS
 10
-10.875
 20
-9.0
 30
24.0
 70
    64
  0
VERTEX
  8
LETTERS
 10
-10.5
 20
-9.0
 30
24.0
 70
    64
  0
VERTEX
  8
LETTERS
 10
-10.125
 20
-9.0
 30
24.0
 70
    64
  0
VERTEX
  8
LETTERS
 10
-10.78125
 20
-9.09375
 30
23.90625
 70
    64
  0
VERTEX
  8
LETTERS
 10
-10.5
 20
-9.09375
 30
23.90625
 70
    64
  0
VERTEX
  8
LETTERS
 10
-10.21875
 20
-9.09375
 30
23.90625
 70
    64
  0
SEQEND
  8
LETTERS
  0
LINE
  8
LETTERS
 39
-18.0
 10
-10.875
 20
-9.0
 30
24.0
 11
-10.125
 21
-9.0
 31
24.0
210
0.0
220
-1.0
230
0.0
  0
LINE
  8
LETTERS
 39
-18.0
 10
-10.875
 20
-9.0
 30
18.0
 11
-10.875
 21
-9.0
 31
24.0
210
0.0
220
-1.0
230
0.0
  0
LINE
  8
LETTERS
 39
-18.0
 10
-10.125
 20
-9.0
 30
18.0
 11
-10.875
 21
-9.0
 31
18.0
210
0.0
220
-1.0
230
0.0
  0
LINE
  8
LETTERS
 39
-18.0
 10
-10.125
 20
-9.0
 30
24.0
 11
-10.125
 21
-9.0
 31
18.0
210
0.0
220
-1.0
230
0.0
  0
LINE
  8
LETTERS
 39
-18.1875
 10
-10.78125
 20
-9.09375
 30
23.90625
 11
-10.21875
 21
-9.09375
 31
23.90625
210
0.0
220
-1.0
230
0.0
  0
LINE
  8
LETTERS
 39
-18.1875
 10
-10.78125
 20
-9.09375
 30
18.09375
 11
-10.78125
 21
-9.09375
 31
23.90625
210
0.0
220
-1.0
230
0.0
  0
LINE
  8
LETTERS
 39
-18.1875
 10
-10.21875
 20
-9.09375
 30
18.09375
 11
-10.78125
 21
-9.09375
 31
18.09375
210
0.0
220
-1.0
230
0.0
  0
LINE
  8
LETTERS
 39
-18.1875
 10
-10.21875
 20
-9.09375
 30
23.90625
 11
-10.21875
 21
-9.09375
 31
18.09375
210
0.0
220
-1.0
230
0.0
  0
POLYLINE
  8
LETTERS
 66
     1
 10
0.0
 20
0.0
 30
0.0
 70
    16
 71
     2
 72
    17
  0
VERTEX
  8
LETTERS
 10
-6.75
 20
-9.0
 30
18.0
 70
    64
  0
VERTEX
  8
LETTERS
 10
-7.335271
 20
-9.0
 30
18.057644
 70
    64
  0
VERTEX
  8
LETTERS
 10
-7.89805
 20
-9.0
 30
18.228361
 70
    64
  0
VERTEX
  8
LETTERS
 10
-8.416711
 20
-9.0
 30
18.505591
 70
    64
  0
VERTEX
  8
LETTERS
 10
-8.87132
 20
-9.0
 30
18.87868
 70
    64
  0
VERTEX
  8
LETTERS
 10
-9.244409
 20
-9.0
 30
19.333289
 70
    64
  0
VERTEX
  8
LETTERS
 10
-9.521639
 20
-9.0
 30
19.85195
 70
    64
  0
VERTEX
  8
LETTERS
 10
-9.692356
 20
-9.0
 30
20.414729
 70
    64
  0
VERTEX
  8
LETTERS
 10
-9.75
 20
-9.0
 30
21.0
 70
    64
  0
VERTEX
  8
LETTERS
 10
-9.692356
 20
-9.0
 30
21.585271
 70
    64
  0
VERTEX
  8
LETTERS
 10
-9.521639
 20
-9.0
 30
22.14805
 70
    64
  0
VERTEX
  8
LETTERS
 10
-9.244409
 20
-9.0
 30
22.666711
 70
    64
  0
VERTEX
  8
LETTERS
 10
-8.87132
 20
-9.0
 30
23.12132
 70
    64
  0
VERTEX
  8
LETTERS
 10
-8.416711
 20
-9.0
 30
23.494409
 70
    64
  0
VERTEX
  8
LETTERS
 10
-7.89805
 20
-9.0
 30
23.771639
 70
    64
  0
VERTEX
  8
LETTERS
 10
-7.335271
 20
-9.0
 30
23.942356
 70
    64
  0
VERTEX
  8
LETTERS
 10
-6.75
 20
-9.0
 30
24.0
 70
    64
  0
VERTEX
  8
LETTERS
 10
-6.75
 20
-9.09375
 30
18.09375
 70
    64
  0
VERTEX
  8
LETTERS
 10
-7.316981
 20
-9.09375
 30
18.149593
 70
    64
  0
VERTEX
  8
LETTERS
 10
-7.862174
 20
-9.09375
 30
18.314975
 70
    64
  0
VERTEX
  8
LETTERS
 10
-8.364626
 20
-9.09375
 30
18.583541
 70
    64
  0
VERTEX
  8
LETTERS
 10
-8.805029
 20
-9.09375
 30
18.944971
 70
    64
  0
VERTEX
  8
LETTERS
 10
-9.166459
 20
-9.09375
 30
19.385374
 70
    64
  0
VERTEX
  8
LETTERS
 10
-9.435025
 20
-9.09375
 30
19.887826
 70
    64
  0
VERTEX
  8
LETTERS
 10
-9.600407
 20
-9.09375
 30
20.433019
 70
    64
  0
VERTEX
  8
LETTERS
 10
-9.65625
 20
-9.09375
 30
21.0
 70
    64
  0
VERTEX
  8
LETTERS
 10
-9.600407
 20
-9.09375
 30
21.566981
 70
    64
  0
VERTEX
  8
LETTERS
 10
-9.435025
 20
-9.09375
 30
22.112174
 70
    64
  0
VERTEX
  8
LETTERS
 10
-9.166459
 20
-9.09375
 30
22.614626
 70
    64
  0
VERTEX
  8
LETTERS
 10
-8.805029
 20
-9.09375
 30
23.055029
 70
    64
  0
VERTEX
  8
LETTERS
 10
-8.364626
 20
-9.09375
 30
23.416459
 70
    64
  0
VERTEX
  8
LETTERS
 10
-7.862174
 20
-9.09375
 30
23.685025
 70
    64
  0
VERTEX
  8
LETTERS
 10
-7.316981
 20
-9.09375
 30
23.850407
 70
    64
  0
VERTEX
  8
LETTERS
 10
-6.75
 20
-9.09375
 30
23.90625
 70
    64
  0
SEQEND
  8
LETTERS
  0
POLYLINE
  8
LETTERS
 66
     1
 10
0.0
 20
0.0
 30
0.0
 70
    16
 71
     2
 72
    17
  0
VERTEX
  8
LETTERS
 10
-6.65625
 20
-9.09375
 30
18.658126
 70
    64
  0
VERTEX
  8
LETTERS
 10
-7.120717
 20
-9.09375
 30
18.685754
 70
    64
  0
VERTEX
  8
LETTERS
 10
-7.570573
 20
-9.09375
 30
18.80459
 70
    64
  0
VERTEX
  8
LETTERS
 10
-7.988089
 20
-9.09375
 30
19.00995
 70
    64
  0
VERTEX
  8
LETTERS
 10
-8.356811
 20
-9.09375
 30
19.29374
 70
    64
  0
VERTEX
  8
LETTERS
 10
-8.662206
 20
-9.09375
 30
19.644777
 70
    64
  0
VERTEX
  8
LETTERS
 10
-8.892239
 20
-9.09375
 30
20.049224
 70
    64
  0
VERTEX
  8
LETTERS
 10
-9.037844
 20
-9.09375
 30
20.491142
 70
    64
  0
VERTEX
  8
LETTERS
 10
-9.093281
 20
-9.09375
 30
20.953116
 70
    64
  0
VERTEX
  8
LETTERS
 10
-9.056367
 20
-9.09375
 30
21.416937
 70
    64
  0
VERTEX
  8
LETTERS
 10
-8.928556
 20
-9.09375
 30
21.864326
 70
    64
  0
VERTEX
  8
LETTERS
 10
-8.714885
 20
-9.09375
 30
22.277651
 70
    64
  0
VERTEX
  8
LETTERS
 10
-8.423776
 20
-9.09375
 30
22.640622
 70
    64
  0
VERTEX
  8
LETTERS
 10
-8.066701
 20
-9.09375
 30
22.938934
 70
    64
  0
VERTEX
  8
LETTERS
 10
-7.657733
 20
-9.09375
 30
23.16083
 70
    64
  0
VERTEX
  8
LETTERS
 10
-7.21299
 20
-9.09375
 30
23.297565
 70
    64
  0
VERTEX
  8
LETTERS
 10
-6.75
 20
-9.09375
 30
23.34375
 70
    64
  0
VERTEX
  8
LETTERS
 10
-6.75
 20
-9.0
 30
18.75
 70
    64
  0
VERTEX
  8
LETTERS
 10
-7.188953
 20
-9.0
 30
18.793233
 70
    64
  0
VERTEX
  8
LETTERS
 10
-7.611038
 20
-9.0
 30
18.921271
 70
    64
  0
VERTEX
  8
LETTERS
 10
-8.000033
 20
-9.0
 30
19.129193
 70
    64
  0
VERTEX
  8
LETTERS
 10
-8.34099
 20
-9.0
 30
19.40901
 70
    64
  0
VERTEX
  8
LETTERS
 10
-8.620807
 20
-9.0
 30
19.749967
 70
    64
  0
VERTEX
  8
LETTERS
 10
-8.828729
 20
-9.0
 30
20.138962
 70
    64
  0
VERTEX
  8
LETTERS
 10
-8.956767
 20
-9.0
 30
20.561047
 70
    64
  0
VERTEX
  8
LETTERS
 10
-9.0
 20
-9.0
 30
21.0
 70
    64
  0
VERTEX
  8
LETTERS
 10
-8.956767
 20
-9.0
 30
21.438953
 70
    64
  0
VERTEX
  8
LETTERS
 10
-8.828729
 20
-9.0
 30
21.861038
 70
    64
  0
VERTEX
  8
LETTERS
 10
-8.620807
 20
-9.0
 30
22.250033
 70
    64
  0
VERTEX
  8
LETTERS
 10
-8.34099
 20
-9.0
 30
22.59099
 70
    64
  0
VERTEX
  8
LETTERS
 10
-8.000033
 20
-9.0
 30
22.870807
 70
    64
  0
VERTEX
  8
LETTERS
 10
-7.611038
 20
-9.0
 30
23.078729
 70
    64
  0
VERTEX
  8
LETTERS
 10
-7.188953
 20
-9.0
 30
23.206767
 70
    64
  0
VERTEX
  8
LETTERS
 10
-6.75
 20
-9.0
 30
23.25
 70
    64
  0
SEQEND
  8
LETTERS
  0
POLYLINE
  8
LETTERS
 66
     1
 10
0.0
 20
0.0
 30
0.0
 70
    16
 71
     2
 72
     3
  0
VERTEX
  8
LETTERS
 10
-6.09375
 20
-9.09375
 30
23.90625
 70
    64
  0
VERTEX
  8
LETTERS
 10
-6.09375
 20
-9.09375
 30
23.625
 70
    64
  0
VERTEX
  8
LETTERS
 10
-6.09375
 20
-9.09375
 30
23.34375
 70
    64
  0
VERTEX
  8
LETTERS
 10
-6.0
 20
-9.0
 30
24.0
 70
    64
  0
VERTEX
  8
LETTERS
 10
-6.0
 20
-9.0
 30
23.625
 70
    64
  0
VERTEX
  8
LETTERS
 10
-6.0
 20
-9.0
 30
23.25
 70
    64
  0
SEQEND
  8
LETTERS
  0
POLYLINE
  8
LETTERS
 66
     1
 10
0.0
 20
0.0
 30
0.0
 70
    16
 71
     2
 72
     3
  0
VERTEX
  8
LETTERS
 10
-6.65625
 20
-9.09375
 30
20.34375
 70
    64
  0
VERTEX
  8
LETTERS
 10
-6.65625
 20
-9.09375
 30
19.500938
 70
    64
  0
VERTEX
  8
LETTERS
 10
-6.65625
 20
-9.09375
 30
18.658126
 70
    64
  0
VERTEX
  8
LETTERS
 10
-6.75
 20
-9.0
 30
20.25
 70
    64
  0
VERTEX
  8
LETTERS
 10
-6.75
 20
-9.0
 30
19.5
 70
    64
  0
VERTEX
  8
LETTERS
 10
-6.75
 20
-9.0
 30
18.75
 70
    64
  0
SEQEND
  8
LETTERS
  0
POLYLINE
  8
LETTERS
 66
     1
 10
0.0
 20
0.0
 30
0.0
 70
    16
 71
     2
 72
     3
  0
VERTEX
  8
LETTERS
 10
-7.125
 20
-9.0
 30
20.25
 70
    64
  0
VERTEX
  8
LETTERS
 10
-6.9375
 20
-9.0
 30
20.25
 70
    64
  0
VERTEX
  8
LETTERS
 10
-6.75
 20
-9.0
 30
20.25
 70
    64
  0
VERTEX
  8
LETTERS
 10
-7.03125
 20
-9.09375
 30
20.34375
 70
    64
  0
VERTEX
  8
LETTERS
 10
-6.84375
 20
-9.09375
 30
20.34375
 70
    64
  0
VERTEX
  8
LETTERS
 10
-6.65625
 20
-9.09375
 30
20.34375
 70
    64
  0
SEQEND
  8
LETTERS
  0
POLYLINE
  8
LETTERS
 66
     1
 10
0.0
 20
0.0
 30
0.0
 70
    16
 71
     2
 72
     3
  0
VERTEX
  8
LETTERS
 10
-7.125
 20
-9.0
 30
21.0
 70
    64
  0
VERTEX
  8
LETTERS
 10
-7.125
 20
-9.0
 30
20.625
 70
    64
  0
VERTEX
  8
LETTERS
 10
-7.125
 20
-9.0
 30
20.25
 70
    64
  0
VERTEX
  8
LETTERS
 10
-7.03125
 20
-9.09375
 30
20.90625
 70
    64
  0
VERTEX
  8
LETTERS
 10
-7.03125
 20
-9.09375
 30
20.625
 70
    64
  0
VERTEX
  8
LETTERS
 10
-7.03125
 20
-9.09375
 30
20.34375
 70
    64
  0
SEQEND
  8
LETTERS
  0
POLYLINE
  8
LETTERS
 66
     1
 10
0.0
 20
0.0
 30
0.0
 70
    16
 71
     2
 72
     3
  0
VERTEX
  8
LETTERS
 10
-6.0
 20
-9.0
 30
21.0
 70
    64
  0
VERTEX
  8
LETTERS
 10
-6.5625
 20
-9.0
 30
21.0
 70
    64
  0
VERTEX
  8
LETTERS
 10
-7.125
 20
-9.0
 30
21.0
 70
    64
  0
VERTEX
  8
LETTERS
 10
-6.09375
 20
-9.09375
 30
20.90625
 70
    64
  0
VERTEX
  8
LETTERS
 10
-6.5625
 20
-9.09375
 30
20.90625
 70
    64
  0
VERTEX
  8
LETTERS
 10
-7.03125
 20
-9.09375
 30
20.90625
 70
    64
  0
SEQEND
  8
LETTERS
  0
POLYLINE
  8
LETTERS
 66
     1
 10
0.0
 20
0.0
 30
0.0
 70
    16
 71
     2
 72
     3
  0
VERTEX
  8
LETTERS
 10
-6.0
 20
-9.0
 30
18.0
 70
    64
  0
VERTEX
  8
LETTERS
 10
-6.0
 20
-9.0
 30
19.5
 70
    64
  0
VERTEX
  8
LETTERS
 10
-6.0
 20
-9.0
 30
21.0
 70
    64
  0
VERTEX
  8
LETTERS
 10
-6.09375
 20
-9.09375
 30
18.09375
 70
    64
  0
VERTEX
  8
LETTERS
 10
-6.09375
 20
-9.09375
 30
19.5
 70
    64
  0
VERTEX
  8
LETTERS
 10
-6.09375
 20
-9.09375
 30
20.90625
 70
    64
  0
SEQEND
  8
LETTERS
  0
LINE
  8
LETTERS
 39
-18.0
 10
-6.0
 20
-9.0
 30
23.25
 11
-6.0
 21
-9.0
 31
24.0
210
0.0
220
-1.0
230
0.0
  0
LINE
  8
LETTERS
 39
-18.0
 10
-6.75
 20
-9.0
 30
23.25
 11
-6.0
 21
-9.0
 31
23.25
210
0.0
220
-1.0
230
0.0
  0
ARC
  8
LETTERS
 39
-18.0
 10
-6.75
 20
21.0
 30
9.0
 40
2.25
 50
90.0
 51
270.0
210
0.0
220
-1.0
230
0.0
  0
LINE
  8
LETTERS
 39
-18.0
 10
-6.75
 20
-9.0
 30
20.25
 11
-6.75
 21
-9.0
 31
18.75
210
0.0
220
-1.0
230
0.0
  0
LINE
  8
LETTERS
 39
-18.0
 10
-7.125
 20
-9.0
 30
20.25
 11
-6.75
 21
-9.0
 31
20.25
210
0.0
220
-1.0
230
0.0
  0
LINE
  8
LETTERS
 39
-18.0
 10
-7.125
 20
-9.0
 30
21.0
 11
-7.125
 21
-9.0
 31
20.25
210
0.0
220
-1.0
230
0.0
  0
LINE
  8
LETTERS
 39
-18.0
 10
-6.0
 20
-9.0
 30
21.0
 11
-7.125
 21
-9.0
 31
21.0
210
0.0
220
-1.0
230
0.0
  0
LINE
  8
LETTERS
 39
-18.0
 10
-6.0
 20
-9.0
 30
18.0
 11
-6.0
 21
-9.0
 31
21.0
210
0.0
220
-1.0
230
0.0
  0
LINE
  8
LETTERS
 39
-18.0
 10
-6.75
 20
-9.0
 30
18.0
 11
-6.0
 21
-9.0
 31
18.0
210
0.0
220
-1.0
230
0.0
  0
ARC
  8
LETTERS
 39
-18.0
 10
-6.75
 20
21.0
 30
9.0
 40
3.0
 50
90.0
 51
270.0
210
0.0
220
-1.0
230
0.0
  0
LINE
  8
LETTERS
 39
-18.0
 10
-6.0
 20
-9.0
 30
24.0
 11
-6.75
 21
-9.0
 31
24.0
210
0.0
220
-1.0
230
0.0
  0
LINE
  8
LETTERS
 39
-18.1875
 10
-6.09375
 20
-9.09375
 30
23.34375
 11
-6.09375
 21
-9.09375
 31
23.90625
210
0.0
220
-1.0
230
0.0
  0
LINE
  8
LETTERS
 39
-18.1875
 10
-6.75
 20
-9.09375
 30
23.34375
 11
-6.09375
 21
-9.09375
 31
23.34375
210
0.0
220
-1.0
230
0.0
  0
ARC
  8
LETTERS
 39
-18.1875
 10
-6.75
 20
21.0
 30
9.09375
 40
2.34375
 50
90.0
 51
272.292443
210
0.0
220
-1.0
230
0.0
  0
LINE
  8
LETTERS
 39
-18.1875
 10
-6.65625
 20
-9.09375
 30
20.34375
 11
-6.65625
 21
-9.09375
 31
18.658126
210
0.0
220
-1.0
230
0.0
  0
LINE
  8
LETTERS
 39
-18.1875
 10
-7.03125
 20
-9.09375
 30
20.34375
 11
-6.65625
 21
-9.09375
 31
20.34375
210
0.0
220
-1.0
230
0.0
  0
LINE
  8
LETTERS
 39
-18.1875
 10
-7.03125
 20
-9.09375
 30
20.90625
 11
-7.03125
 21
-9.09375
 31
20.34375
210
0.0
220
-1.0
230
0.0
  0
LINE
  8
LETTERS
 39
-18.1875
 10
-6.09375
 20
-9.09375
 30
20.90625
 11
-7.03125
 21
-9.09375
 31
20.90625
210
0.0
220
-1.0
230
0.0
  0
LINE
  8
LETTERS
 39
-18.1875
 10
-6.09375
 20
-9.09375
 30
18.09375
 11
-6.09375
 21
-9.09375
 31
20.90625
210
0.0
220
-1.0
230
0.0
  0
LINE
  8
LETTERS
 39
-18.1875
 10
-6.75
 20
-9.09375
 30
18.09375
 11
-6.09375
 21
-9.09375
 31
18.09375
210
0.0
220
-1.0
230
0.0
  0
ARC
  8
LETTERS
 39
-18.1875
 10
-6.75
 20
21.0
 30
9.09375
 40
2.90625
 50
90.0
 51
270.0
210
0.0
220
-1.0
230
0.0
  0
LINE
  8
LETTERS
 39
-18.1875
 10
-6.09375
 20
-9.09375
 30
23.90625
 11
-6.75
 21
-9.09375
 31
23.90625
210
0.0
220
-1.0
230
0.0
  0
LINE
  8
LETTERS
 39
-18.0
 10
-6.0
 20
-9.0
 30
23.25
 11
-6.0
 21
-9.0
 31
24.0
210
0.0
220
-1.0
230
0.0
  0
LINE
  8
BASE
 10
-144.0
 20
-144.0
 30
0.0
 11
144.0
 21
-144.0
 31
0.0
  0
LINE
  8
BASE
 10
144.0
 20
-144.0
 30
0.0
 11
144.0
 21
144.0
 31
0.0
  0
LINE
  8
BASE
 10
144.0
 20
144.0
 30
0.0
 11
-144.0
 21
144.0
 31
0.0
  0
LINE
  8
BASE
 10
-144.0
 20
144.0
 30
0.0
 11
-144.0
 21
-144.0
 31
0.0
  0
ENDSEC
  0
EOF
