  0
SECTION
  2
HEADER
  9
$ACADVER
  1
AC1006
  9
$INSBASE
 10
0.0
 20
0.0
 30
0.0
  9
$EXTMIN
 10
-24.0
 20
-24.0
  9
$EXTMAX
 10
24.0
 20
24.0
  9
$LIMMIN
 10
-24.0
 20
-24.0
  9
$LIMMAX
 10
24.0
 20
24.0
  9
$ORTHOMODE
 70
     1
  9
$REGENMODE
 70
     1
  9
$FILLMODE
 70
     1
  9
$QTEXTMODE
 70
     0
  9
$MIRRTEXT
 70
     1
  9
$DRAGMODE
 70
     2
  9
$LTSCALE
 40
1.0
  9
$OSMODE
 70
     0
  9
$ATTMODE
 70
     1
  9
$TEXTSIZE
 40
0.2
  9
$TRACEWID
 40
0.05
  9
$TEXTSTYLE
  7
STANDARD
  9
$CLAYER
  8
BASE
  9
$CELTYPE
  6
BYLAYER
  9
$CECOLOR
 62
   256
  9
$DIMSCALE
 40
1.0
  9
$DIMASZ
 40
0.18
  9
$DIMEXO
 40
0.0625
  9
$DIMDLI
 40
0.38
  9
$DIMRND
 40
0.0
  9
$DIMDLE
 40
0.0
  9
$DIMEXE
 40
0.18
  9
$DIMTP
 40
0.0
  9
$DIMTM
 40
0.0
  9
$DIMTXT
 40
0.18
  9
$DIMCEN
 40
0.09
  9
$DIMTSZ
 40
0.0
  9
$DIMTOL
 70
     0
  9
$DIMLIM
 70
     0
  9
$DIMTIH
 70
     1
  9
$DIMTOH
 70
     1
  9
$DIMSE1
 70
     0
  9
$DIMSE2
 70
     0
  9
$DIMTAD
 70
     0
  9
$DIMZIN
 70
     0
  9
$DIMBLK
  1

  9
$DIMASO
 70
     1
  9
$DIMSHO
 70
     0
  9
$DIMPOST
  1

  9
$DIMAPOST
  1

  9
$DIMALT
 70
     0
  9
$DIMALTD
 70
     2
  9
$DIMALTF
 40
25.4
  9
$DIMLFAC
 40
1.0
  9
$DIMTOFL
 70
     0
  9
$DIMTVP
 40
0.0
  9
$DIMTIX
 70
     0
  9
$DIMSOXD
 70
     0
  9
$DIMSAH
 70
     0
  9
$DIMBLK1
  1

  9
$DIMBLK2
  1

  9
$LUNITS
 70
     2
  9
$LUPREC
 70
     4
  9
$AXISMODE
 70
     0
  9
$AXISUNIT
 10
0.0
 20
0.0
  9
$SKETCHINC
 40
0.1
  9
$FILLETRAD
 40
0.0
  9
$AUNITS
 70
     0
  9
$AUPREC
 70
     0
  9
$MENU
  1
acad
  9
$ELEVATION
 40
0.0
  9
$THICKNESS
 40
0.0
  9
$LIMCHECK
 70
     0
  9
$BLIPMODE
 70
     1
  9
$CHAMFERA
 40
0.0
  9
$CHAMFERB
 40
0.0
  9
$SKPOLY
 70
     0
  9
$TDCREATE
 40
2448062.3265530095
  9
$TDUPDATE
 40
2448062.3287055558
  9
$TDINDWG
 40
0.0021525463
  9
$TDUSRTIMER
 40
0.0021525463
  9
$USRTIMER
 70
     1
  9
$ANGBASE
 50
0.0
  9
$ANGDIR
 70
     0
  9
$PDMODE
 70
     0
  9
$PDSIZE
 40
0.0
  9
$PLINEWID
 40
0.0
  9
$COORDS
 70
     2
  9
$SPLFRAME
 70
     0
  9
$SPLINETYPE
 70
     6
  9
$SPLINESEGS
 70
     8
  9
$ATTDIA
 70
     0
  9
$ATTREQ
 70
     1
  9
$HANDLING
 70
     0
  9
$HANDSEED
  5
0
  9
$SURFTAB1
 70
     6
  9
$SURFTAB2
 70
     6
  9
$SURFTYPE
 70
     6
  9
$SURFU
 70
     6
  9
$SURFV
 70
     6
  9
$FLATLAND
 70
     0
  9
$UCSNAME
  2

  9
$UCSORG
 10
0.0
 20
0.0
 30
0.0
  9
$UCSXDIR
 10
1.0
 20
0.0
 30
0.0
  9
$UCSYDIR
 10
0.0
 20
1.0
 30
0.0
  9
$USERI1
 70
     0
  9
$USERI2
 70
     0
  9
$USERI3
 70
     0
  9
$USERI4
 70
     0
  9
$USERI5
 70
     0
  9
$USERR1
 40
0.0
  9
$USERR2
 40
0.0
  9
$USERR3
 40
0.0
  9
$USERR4
 40
0.0
  9
$USERR5
 40
0.0
  9
$WORLDVIEW
 70
     1
  0
ENDSEC
  0
SECTION
  2
TABLES
  0
TABLE
  2
VPORT
 70
     2
  0
VPORT
  2
*ACTIVE
 70
     0
 10
0.0
 20
0.0
 11
1.0
 21
1.0
 12
9.137349
 22
0.0
 13
0.0
 23
0.0
 14
1.0
 24
1.0
 15
0.0
 25
0.0
 16
0.0
 26
0.0
 36
1.0
 17
0.0
 27
0.0
 37
0.0
 40
48.0
 41
1.380723
 42
50.0
 43
0.0
 44
0.0
 50
0.0
 51
0.0
 71
     0
 72
   100
 73
     1
 74
     1
 75
     1
 76
     0
 77
     0
 78
     0
  0
ENDTAB
  0
TABLE
  2
LTYPE
 70
     1
  0
LTYPE
  2
CONTINUOUS
 70
    64
  3
Solid line
 72
    65
 73
     0
 40
0.0
  0
ENDTAB
  0
TABLE
  2
LAYER
 70
     8
  0
LAYER
  2
0
 70
     0
 62
     7
  6
CONTINUOUS
  0
LAYER
  2
BASE
 70
    64
 62
     1
  6
CONTINUOUS
  0
LAYER
  2
GLASS
 70
    64
 62
     1
  6
CONTINUOUS
  0
LAYER
  2
LIQUID
 70
    64
 62
     5
  6
CONTINUOUS
  0
LAYER
  2
CAN-TOP
 70
    64
 62
     4
  6
CONTINUOUS
  0
LAYER
  2
CAN-BOTTOM
 70
    64
 62
     4
  6
CONTINUOUS
  0
LAYER
  2
CAN-SIDE1
 70
    64
 62
     1
  6
CONTINUOUS
  0
LAYER
  2
CAN-SIDE2
 70
    64
 62
     7
  6
CONTINUOUS
  0
ENDTAB
  0
TABLE
  2
STYLE
 70
     1
  0
STYLE
  2
STANDARD
 70
    64
 40
0.0
 41
1.0
 50
0.0
 71
     0
 42
0.2
  3
txt
  4

  0
ENDTAB
  0
TABLE
  2
VIEW
 70
     0
  0
ENDTAB
  0
TABLE
  2
UCS
 70
     0
  0
ENDTAB
  0
TABLE
  2
DWGMGR
 70
     0
  0
ENDTAB
  0
ENDSEC
  0
SECTION
  2
BLOCKS
  0
BLOCK
  8
BASE
  2
CUP
 70
    64
 10
0.0
 20
0.0
 30
0.0
  0
INSERT
  8
LIQUID
  2
GLASS
 10
0.0
 20
0.0
 30
0.0
210
0.0
220
-1.0
230
0.0
  0
INSERT
  8
LIQUID
  2
LIQUID
 10
0.0
 20
0.0
 30
0.0
210
0.0
220
-1.0
230
0.0
  0
ENDBLK
  8
BASE
  0
BLOCK
  8
GLASS
  2
GLASS
 70
    64
 10
0.0
 20
0.0
 30
0.0
  0
LINE
  8
GLASS
 10
1.5
 20
0.0
 30
0.0
 11
1.5
 21
0.024729
 31
0.0
  0
ARC
  8
GLASS
 10
0.771138
 20
2.621903
 30
0.0
 40
0.5
 50
107.966161
 51
177.614056
  0
ARC
  8
GLASS
 10
1.375
 20
0.024729
 30
0.0
 40
0.125
 50
0.0
 51
77.471192
  0
ARC
  8
GLASS
 10
0.695888
 20
0.815889
 30
0.0
 40
0.5
 50
177.614056
 51
257.471192
  0
LINE
  8
GLASS
 10
2.0
 20
5.0
 30
0.0
 11
2.0
 21
5.875
 31
0.0
  0
ARC
  8
GLASS
 10
0.0
 20
5.0
 30
0.0
 40
2.0
 50
287.966161
 51
0.0
  0
LINE
  8
GLASS
 10
1.5
 20
0.0
 30
0.0
 11
1.5
 21
0.0
 31
0.0
  0
LINE
  8
GLASS
 10
1.402116
 20
0.146752
 30
0.0
 11
0.587422
 21
0.327795
 31
0.0
  0
LINE
  8
GLASS
 10
0.196321
 20
0.836704
 30
0.0
 11
0.271572
 21
2.642718
 31
0.0
  0
LINE
  8
GLASS
 10
0.0
 20
0.0
 30
0.0
 11
1.5
 21
0.0
 31
0.0
  0
LINE
  8
GLASS
 10
0.0
 20
0.0
 30
0.0
 11
0.0
 21
3.25
 31
0.0
  0
LINE
  8
GLASS
 10
1.75
 20
5.875
 30
0.0
 11
1.75
 21
5.0
 31
0.0
  0
ARC
  8
GLASS
 10
-0.0
 20
5.0
 30
0.0
 40
1.75
 50
270.0
 51
0.0
  0
ARC
  8
GLASS
 10
1.875
 20
5.875
 30
0.0
 40
0.125
 50
0.0
 51
180.0
  0
ATTDEF
  8
GLASS
 10
0.0
 20
0.0
 30
0.0
 40
0.2
  1
0.0
  3

  2
REVANG
 70
     3
  0
POLYLINE
  8
GLASS
 66
     1
 10
0.0
 20
0.0
 30
0.0
 70
    17
 71
    12
 72
     7
  0
VERTEX
  8
GLASS
 10
1.5
 20
0.0
 30
0.0
 70
    64
  0
VERTEX
  8
GLASS
 10
1.5
 20
0.004121
 30
0.0
 70
    64
  0
VERTEX
  8
GLASS
 10
1.5
 20
0.008243
 30
0.0
 70
    64
  0
VERTEX
  8
GLASS
 10
1.5
 20
0.012364
 30
0.0
 70
    64
  0
VERTEX
  8
GLASS
 10
1.5
 20
0.016486
 30
0.0
 70
    64
  0
VERTEX
  8
GLASS
 10
1.5
 20
0.020607
 30
0.0
 70
    64
  0
VERTEX
  8
GLASS
 10
1.5
 20
0.024729
 30
0.0
 70
    64
  0
VERTEX
  8
GLASS
 10
1.299038
 20
0.0
 30
-0.75
 70
    64
  0
VERTEX
  8
GLASS
 10
1.299038
 20
0.004121
 30
-0.75
 70
    64
  0
VERTEX
  8
GLASS
 10
1.299038
 20
0.008243
 30
-0.75
 70
    64
  0
VERTEX
  8
GLASS
 10
1.299038
 20
0.012364
 30
-0.75
 70
    64
  0
VERTEX
  8
GLASS
 10
1.299038
 20
0.016486
 30
-0.75
 70
    64
  0
VERTEX
  8
GLASS
 10
1.299038
 20
0.020607
 30
-0.75
 70
    64
  0
VERTEX
  8
GLASS
 10
1.299038
 20
0.024729
 30
-0.75
 70
    64
  0
VERTEX
  8
GLASS
 10
0.75
 20
0.0
 30
-1.299038
 70
    64
  0
VERTEX
  8
GLASS
 10
0.75
 20
0.004121
 30
-1.299038
 70
    64
  0
VERTEX
  8
GLASS
 10
0.75
 20
0.008243
 30
-1.299038
 70
    64
  0
VERTEX
  8
GLASS
 10
0.75
 20
0.012364
 30
-1.299038
 70
    64
  0
VERTEX
  8
GLASS
 10
0.75
 20
0.016486
 30
-1.299038
 70
    64
  0
VERTEX
  8
GLASS
 10
0.75
 20
0.020607
 30
-1.299038
 70
    64
  0
VERTEX
  8
GLASS
 10
0.75
 20
0.024729
 30
-1.299038
 70
    64
  0
VERTEX
  8
GLASS
 10
0.0
 20
0.0
 30
-1.5
 70
    64
  0
VERTEX
  8
GLASS
 10
0.0
 20
0.004121
 30
-1.5
 70
    64
  0
VERTEX
  8
GLASS
 10
0.0
 20
0.008243
 30
-1.5
 70
    64
  0
VERTEX
  8
GLASS
 10
0.0
 20
0.012364
 30
-1.5
 70
    64
  0
VERTEX
  8
GLASS
 10
0.0
 20
0.016486
 30
-1.5
 70
    64
  0
VERTEX
  8
GLASS
 10
0.0
 20
0.020607
 30
-1.5
 70
    64
  0
VERTEX
  8
GLASS
 10
0.0
 20
0.024729
 30
-1.5
 70
    64
  0
VERTEX
  8
GLASS
 10
-0.75
 20
0.0
 30
-1.299038
 70
    64
  0
VERTEX
  8
GLASS
 10
-0.75
 20
0.004121
 30
-1.299038
 70
    64
  0
VERTEX
  8
GLASS
 10
-0.75
 20
0.008243
 30
-1.299038
 70
    64
  0
VERTEX
  8
GLASS
 10
-0.75
 20
0.012364
 30
-1.299038
 70
    64
  0
VERTEX
  8
GLASS
 10
-0.75
 20
0.016486
 30
-1.299038
 70
    64
  0
VERTEX
  8
GLASS
 10
-0.75
 20
0.020607
 30
-1.299038
 70
    64
  0
VERTEX
  8
GLASS
 10
-0.75
 20
0.024729
 30
-1.299038
 70
    64
  0
VERTEX
  8
GLASS
 10
-1.299038
 20
0.0
 30
-0.75
 70
    64
  0
VERTEX
  8
GLASS
 10
-1.299038
 20
0.004121
 30
-0.75
 70
    64
  0
VERTEX
  8
GLASS
 10
-1.299038
 20
0.008243
 30
-0.75
 70
    64
  0
VERTEX
  8
GLASS
 10
-1.299038
 20
0.012364
 30
-0.75
 70
    64
  0
VERTEX
  8
GLASS
 10
-1.299038
 20
0.016486
 30
-0.75
 70
    64
  0
VERTEX
  8
GLASS
 10
-1.299038
 20
0.020607
 30
-0.75
 70
    64
  0
VERTEX
  8
GLASS
 10
-1.299038
 20
0.024729
 30
-0.75
 70
    64
  0
VERTEX
  8
GLASS
 10
-1.5
 20
0.0
 30
-0.0
 70
    64
  0
VERTEX
  8
GLASS
 10
-1.5
 20
0.004121
 30
-0.0
 70
    64
  0
VERTEX
  8
GLASS
 10
-1.5
 20
0.008243
 30
-0.0
 70
    64
  0
VERTEX
  8
GLASS
 10
-1.5
 20
0.012364
 30
-0.0
 70
    64
  0
VERTEX
  8
GLASS
 10
-1.5
 20
0.016486
 30
-0.0
 70
    64
  0
VERTEX
  8
GLASS
 10
-1.5
 20
0.020607
 30
-0.0
 70
    64
  0
VERTEX
  8
GLASS
 10
-1.5
 20
0.024729
 30
-0.0
 70
    64
  0
VERTEX
  8
GLASS
 10
-1.299038
 20
0.0
 30
0.75
 70
    64
  0
VERTEX
  8
GLASS
 10
-1.299038
 20
0.004121
 30
0.75
 70
    64
  0
VERTEX
  8
GLASS
 10
-1.299038
 20
0.008243
 30
0.75
 70
    64
  0
VERTEX
  8
GLASS
 10
-1.299038
 20
0.012364
 30
0.75
 70
    64
  0
VERTEX
  8
GLASS
 10
-1.299038
 20
0.016486
 30
0.75
 70
    64
  0
VERTEX
  8
GLASS
 10
-1.299038
 20
0.020607
 30
0.75
 70
    64
  0
VERTEX
  8
GLASS
 10
-1.299038
 20
0.024729
 30
0.75
 70
    64
  0
VERTEX
  8
GLASS
 10
-0.75
 20
0.0
 30
1.299038
 70
    64
  0
VERTEX
  8
GLASS
 10
-0.75
 20
0.004121
 30
1.299038
 70
    64
  0
VERTEX
  8
GLASS
 10
-0.75
 20
0.008243
 30
1.299038
 70
    64
  0
VERTEX
  8
GLASS
 10
-0.75
 20
0.012364
 30
1.299038
 70
    64
  0
VERTEX
  8
GLASS
 10
-0.75
 20
0.016486
 30
1.299038
 70
    64
  0
VERTEX
  8
GLASS
 10
-0.75
 20
0.020607
 30
1.299038
 70
    64
  0
VERTEX
  8
GLASS
 10
-0.75
 20
0.024729
 30
1.299038
 70
    64
  0
VERTEX
  8
GLASS
 10
0.0
 20
0.0
 30
1.5
 70
    64
  0
VERTEX
  8
GLASS
 10
0.0
 20
0.004121
 30
1.5
 70
    64
  0
VERTEX
  8
GLASS
 10
0.0
 20
0.008243
 30
1.5
 70
    64
  0
VERTEX
  8
GLASS
 10
0.0
 20
0.012364
 30
1.5
 70
    64
  0
VERTEX
  8
GLASS
 10
0.0
 20
0.016486
 30
1.5
 70
    64
  0
VERTEX
  8
GLASS
 10
0.0
 20
0.020607
 30
1.5
 70
    64
  0
VERTEX
  8
GLASS
 10
0.0
 20
0.024729
 30
1.5
 70
    64
  0
VERTEX
  8
GLASS
 10
0.75
 20
0.0
 30
1.299038
 70
    64
  0
VERTEX
  8
GLASS
 10
0.75
 20
0.004121
 30
1.299038
 70
    64
  0
VERTEX
  8
GLASS
 10
0.75
 20
0.008243
 30
1.299038
 70
    64
  0
VERTEX
  8
GLASS
 10
0.75
 20
0.012364
 30
1.299038
 70
    64
  0
VERTEX
  8
GLASS
 10
0.75
 20
0.016486
 30
1.299038
 70
    64
  0
VERTEX
  8
GLASS
 10
0.75
 20
0.020607
 30
1.299038
 70
    64
  0
VERTEX
  8
GLASS
 10
0.75
 20
0.024729
 30
1.299038
 70
    64
  0
VERTEX
  8
GLASS
 10
1.299038
 20
0.0
 30
0.75
 70
    64
  0
VERTEX
  8
GLASS
 10
1.299038
 20
0.004121
 30
0.75
 70
    64
  0
VERTEX
  8
GLASS
 10
1.299038
 20
0.008243
 30
0.75
 70
    64
  0
VERTEX
  8
GLASS
 10
1.299038
 20
0.012364
 30
0.75
 70
    64
  0
VERTEX
  8
GLASS
 10
1.299038
 20
0.016486
 30
0.75
 70
    64
  0
VERTEX
  8
GLASS
 10
1.299038
 20
0.020607
 30
0.75
 70
    64
  0
VERTEX
  8
GLASS
 10
1.299038
 20
0.024729
 30
0.75
 70
    64
  0
SEQEND
  8
GLASS
  0
POLYLINE
  8
GLASS
 66
     1
 10
0.0
 20
0.0
 30
0.0
 70
    17
 71
    12
 72
     7
  0
VERTEX
  8
GLASS
 10
0.271572
 20
2.642718
 30
0.0
 70
    64
  0
VERTEX
  8
GLASS
 10
0.285977
 20
2.742812
 30
0.0
 70
    64
  0
VERTEX
  8
GLASS
 10
0.320229
 20
2.837961
 30
0.0
 70
    64
  0
VERTEX
  8
GLASS
 10
0.372925
 20
2.924271
 30
0.0
 70
    64
  0
VERTEX
  8
GLASS
 10
0.441911
 20
2.998213
 30
0.0
 70
    64
  0
VERTEX
  8
GLASS
 10
0.524363
 20
3.056762
 30
0.0
 70
    64
  0
VERTEX
  8
GLASS
 10
0.616911
 20
3.097522
 30
0.0
 70
    64
  0
VERTEX
  8
GLASS
 10
0.235188
 20
2.642718
 30
-0.135786
 70
    64
  0
VERTEX
  8
GLASS
 10
0.247664
 20
2.742812
 30
-0.142989
 70
    64
  0
VERTEX
  8
GLASS
 10
0.277327
 20
2.837961
 30
-0.160115
 70
    64
  0
VERTEX
  8
GLASS
 10
0.322963
 20
2.924271
 30
-0.186463
 70
    64
  0
VERTEX
  8
GLASS
 10
0.382706
 20
2.998213
 30
-0.220955
 70
    64
  0
VERTEX
  8
GLASS
 10
0.454112
 20
3.056762
 30
-0.262182
 70
    64
  0
VERTEX
  8
GLASS
 10
0.53426
 20
3.097522
 30
-0.308455
 70
    64
  0
VERTEX
  8
GLASS
 10
0.135786
 20
2.642718
 30
-0.235188
 70
    64
  0
VERTEX
  8
GLASS
 10
0.142989
 20
2.742812
 30
-0.247664
 70
    64
  0
VERTEX
  8
GLASS
 10
0.160115
 20
2.837961
 30
-0.277327
 70
    64
  0
VERTEX
  8
GLASS
 10
0.186463
 20
2.924271
 30
-0.322963
 70
    64
  0
VERTEX
  8
GLASS
 10
0.220955
 20
2.998213
 30
-0.382706
 70
    64
  0
VERTEX
  8
GLASS
 10
0.262182
 20
3.056762
 30
-0.454112
 70
    64
  0
VERTEX
  8
GLASS
 10
0.308455
 20
3.097522
 30
-0.53426
 70
    64
  0
VERTEX
  8
GLASS
 10
0.0
 20
2.642718
 30
-0.271572
 70
    64
  0
VERTEX
  8
GLASS
 10
0.0
 20
2.742812
 30
-0.285977
 70
    64
  0
VERTEX
  8
GLASS
 10
0.0
 20
2.837961
 30
-0.320229
 70
    64
  0
VERTEX
  8
GLASS
 10
0.0
 20
2.924271
 30
-0.372925
 70
    64
  0
VERTEX
  8
GLASS
 10
0.0
 20
2.998213
 30
-0.441911
 70
    64
  0
VERTEX
  8
GLASS
 10
0.0
 20
3.056762
 30
-0.524363
 70
    64
  0
VERTEX
  8
GLASS
 10
0.0
 20
3.097522
 30
-0.616911
 70
    64
  0
VERTEX
  8
GLASS
 10
-0.135786
 20
2.642718
 30
-0.235188
 70
    64
  0
VERTEX
  8
GLASS
 10
-0.142989
 20
2.742812
 30
-0.247664
 70
    64
  0
VERTEX
  8
GLASS
 10
-0.160115
 20
2.837961
 30
-0.277327
 70
    64
  0
VERTEX
  8
GLASS
 10
-0.186463
 20
2.924271
 30
-0.322963
 70
    64
  0
VERTEX
  8
GLASS
 10
-0.220955
 20
2.998213
 30
-0.382706
 70
    64
  0
VERTEX
  8
GLASS
 10
-0.262182
 20
3.056762
 30
-0.454112
 70
    64
  0
VERTEX
  8
GLASS
 10
-0.308455
 20
3.097522
 30
-0.53426
 70
    64
  0
VERTEX
  8
GLASS
 10
-0.235188
 20
2.642718
 30
-0.135786
 70
    64
  0
VERTEX
  8
GLASS
 10
-0.247664
 20
2.742812
 30
-0.142989
 70
    64
  0
VERTEX
  8
GLASS
 10
-0.277327
 20
2.837961
 30
-0.160115
 70
    64
  0
VERTEX
  8
GLASS
 10
-0.322963
 20
2.924271
 30
-0.186463
 70
    64
  0
VERTEX
  8
GLASS
 10
-0.382706
 20
2.998213
 30
-0.220955
 70
    64
  0
VERTEX
  8
GLASS
 10
-0.454112
 20
3.056762
 30
-0.262182
 70
    64
  0
VERTEX
  8
GLASS
 10
-0.53426
 20
3.097522
 30
-0.308455
 70
    64
  0
VERTEX
  8
GLASS
 10
-0.271572
 20
2.642718
 30
-0.0
 70
    64
  0
VERTEX
  8
GLASS
 10
-0.285977
 20
2.742812
 30
-0.0
 70
    64
  0
VERTEX
  8
GLASS
 10
-0.320229
 20
2.837961
 30
-0.0
 70
    64
  0
VERTEX
  8
GLASS
 10
-0.372925
 20
2.924271
 30
-0.0
 70
    64
  0
VERTEX
  8
GLASS
 10
-0.441911
 20
2.998213
 30
-0.0
 70
    64
  0
VERTEX
  8
GLASS
 10
-0.524363
 20
3.056762
 30
-0.0
 70
    64
  0
VERTEX
  8
GLASS
 10
-0.616911
 20
3.097522
 30
-0.0
 70
    64
  0
VERTEX
  8
GLASS
 10
-0.235188
 20
2.642718
 30
0.135786
 70
    64
  0
VERTEX
  8
GLASS
 10
-0.247664
 20
2.742812
 30
0.142989
 70
    64
  0
VERTEX
  8
GLASS
 10
-0.277327
 20
2.837961
 30
0.160115
 70
    64
  0
VERTEX
  8
GLASS
 10
-0.322963
 20
2.924271
 30
0.186463
 70
    64
  0
VERTEX
  8
GLASS
 10
-0.382706
 20
2.998213
 30
0.220955
 70
    64
  0
VERTEX
  8
GLASS
 10
-0.454112
 20
3.056762
 30
0.262182
 70
    64
  0
VERTEX
  8
GLASS
 10
-0.53426
 20
3.097522
 30
0.308455
 70
    64
  0
VERTEX
  8
GLASS
 10
-0.135786
 20
2.642718
 30
0.235188
 70
    64
  0
VERTEX
  8
GLASS
 10
-0.142989
 20
2.742812
 30
0.247664
 70
    64
  0
VERTEX
  8
GLASS
 10
-0.160115
 20
2.837961
 30
0.277327
 70
    64
  0
VERTEX
  8
GLASS
 10
-0.186463
 20
2.924271
 30
0.322963
 70
    64
  0
VERTEX
  8
GLASS
 10
-0.220955
 20
2.998213
 30
0.382706
 70
    64
  0
VERTEX
  8
GLASS
 10
-0.262182
 20
3.056762
 30
0.454112
 70
    64
  0
VERTEX
  8
GLASS
 10
-0.308455
 20
3.097522
 30
0.53426
 70
    64
  0
VERTEX
  8
GLASS
 10
0.0
 20
2.642718
 30
0.271572
 70
    64
  0
VERTEX
  8
GLASS
 10
0.0
 20
2.742812
 30
0.285977
 70
    64
  0
VERTEX
  8
GLASS
 10
0.0
 20
2.837961
 30
0.320229
 70
    64
  0
VERTEX
  8
GLASS
 10
0.0
 20
2.924271
 30
0.372925
 70
    64
  0
VERTEX
  8
GLASS
 10
0.0
 20
2.998213
 30
0.441911
 70
    64
  0
VERTEX
  8
GLASS
 10
0.0
 20
3.056762
 30
0.524363
 70
    64
  0
VERTEX
  8
GLASS
 10
0.0
 20
3.097522
 30
0.616911
 70
    64
  0
VERTEX
  8
GLASS
 10
0.135786
 20
2.642718
 30
0.235188
 70
    64
  0
VERTEX
  8
GLASS
 10
0.142989
 20
2.742812
 30
0.247664
 70
    64
  0
VERTEX
  8
GLASS
 10
0.160115
 20
2.837961
 30
0.277327
 70
    64
  0
VERTEX
  8
GLASS
 10
0.186463
 20
2.924271
 30
0.322963
 70
    64
  0
VERTEX
  8
GLASS
 10
0.220955
 20
2.998213
 30
0.382706
 70
    64
  0
VERTEX
  8
GLASS
 10
0.262182
 20
3.056762
 30
0.454112
 70
    64
  0
VERTEX
  8
GLASS
 10
0.308455
 20
3.097522
 30
0.53426
 70
    64
  0
VERTEX
  8
GLASS
 10
0.235188
 20
2.642718
 30
0.135786
 70
    64
  0
VERTEX
  8
GLASS
 10
0.247664
 20
2.742812
 30
0.142989
 70
    64
  0
VERTEX
  8
GLASS
 10
0.277327
 20
2.837961
 30
0.160115
 70
    64
  0
VERTEX
  8
GLASS
 10
0.322963
 20
2.924271
 30
0.186463
 70
    64
  0
VERTEX
  8
GLASS
 10
0.382706
 20
2.998213
 30
0.220955
 70
    64
  0
VERTEX
  8
GLASS
 10
0.454112
 20
3.056762
 30
0.262182
 70
    64
  0
VERTEX
  8
GLASS
 10
0.53426
 20
3.097522
 30
0.308455
 70
    64
  0
SEQEND
  8
GLASS
  0
POLYLINE
  8
GLASS
 66
     1
 10
0.0
 20
0.0
 30
0.0
 70
    17
 71
    12
 72
     7
  0
VERTEX
  8
GLASS
 10
1.402116
 20
0.146752
 30
0.0
 70
    64
  0
VERTEX
  8
GLASS
 10
1.428697
 20
0.137607
 30
0.0
 70
    64
  0
VERTEX
  8
GLASS
 10
1.452562
 20
0.122755
 30
0.0
 70
    64
  0
VERTEX
  8
GLASS
 10
1.472505
 20
0.102944
 30
0.0
 70
    64
  0
VERTEX
  8
GLASS
 10
1.487517
 20
0.079179
 30
0.0
 70
    64
  0
VERTEX
  8
GLASS
 10
1.496839
 20
0.05266
 30
0.0
 70
    64
  0
VERTEX
  8
GLASS
 10
1.5
 20
0.024729
 30
0.0
 70
    64
  0
VERTEX
  8
GLASS
 10
1.214268
 20
0.146752
 30
-0.701058
 70
    64
  0
VERTEX
  8
GLASS
 10
1.237288
 20
0.137607
 30
-0.714349
 70
    64
  0
VERTEX
  8
GLASS
 10
1.257956
 20
0.122755
 30
-0.726281
 70
    64
  0
VERTEX
  8
GLASS
 10
1.275227
 20
0.102944
 30
-0.736253
 70
    64
  0
VERTEX
  8
GLASS
 10
1.288228
 20
0.079179
 30
-0.743759
 70
    64
  0
VERTEX
  8
GLASS
 10
1.296301
 20
0.05266
 30
-0.74842
 70
    64
  0
VERTEX
  8
GLASS
 10
1.299038
 20
0.024729
 30
-0.75
 70
    64
  0
VERTEX
  8
GLASS
 10
0.701058
 20
0.146752
 30
-1.214268
 70
    64
  0
VERTEX
  8
GLASS
 10
0.714349
 20
0.137607
 30
-1.237288
 70
    64
  0
VERTEX
  8
GLASS
 10
0.726281
 20
0.122755
 30
-1.257956
 70
    64
  0
VERTEX
  8
GLASS
 10
0.736253
 20
0.102944
 30
-1.275227
 70
    64
  0
VERTEX
  8
GLASS
 10
0.743759
 20
0.079179
 30
-1.288228
 70
    64
  0
VERTEX
  8
GLASS
 10
0.74842
 20
0.05266
 30
-1.296301
 70
    64
  0
VERTEX
  8
GLASS
 10
0.75
 20
0.024729
 30
-1.299038
 70
    64
  0
VERTEX
  8
GLASS
 10
0.0
 20
0.146752
 30
-1.402116
 70
    64
  0
VERTEX
  8
GLASS
 10
0.0
 20
0.137607
 30
-1.428697
 70
    64
  0
VERTEX
  8
GLASS
 10
0.0
 20
0.122755
 30
-1.452562
 70
    64
  0
VERTEX
  8
GLASS
 10
0.0
 20
0.102944
 30
-1.472505
 70
    64
  0
VERTEX
  8
GLASS
 10
0.0
 20
0.079179
 30
-1.487517
 70
    64
  0
VERTEX
  8
GLASS
 10
0.0
 20
0.05266
 30
-1.496839
 70
    64
  0
VERTEX
  8
GLASS
 10
0.0
 20
0.024729
 30
-1.5
 70
    64
  0
VERTEX
  8
GLASS
 10
-0.701058
 20
0.146752
 30
-1.214268
 70
    64
  0
VERTEX
  8
GLASS
 10
-0.714349
 20
0.137607
 30
-1.237288
 70
    64
  0
VERTEX
  8
GLASS
 10
-0.726281
 20
0.122755
 30
-1.257956
 70
    64
  0
VERTEX
  8
GLASS
 10
-0.736253
 20
0.102944
 30
-1.275227
 70
    64
  0
VERTEX
  8
GLASS
 10
-0.743759
 20
0.079179
 30
-1.288228
 70
    64
  0
VERTEX
  8
GLASS
 10
-0.74842
 20
0.05266
 30
-1.296301
 70
    64
  0
VERTEX
  8
GLASS
 10
-0.75
 20
0.024729
 30
-1.299038
 70
    64
  0
VERTEX
  8
GLASS
 10
-1.214268
 20
0.146752
 30
-0.701058
 70
    64
  0
VERTEX
  8
GLASS
 10
-1.237288
 20
0.137607
 30
-0.714349
 70
    64
  0
VERTEX
  8
GLASS
 10
-1.257956
 20
0.122755
 30
-0.726281
 70
    64
  0
VERTEX
  8
GLASS
 10
-1.275227
 20
0.102944
 30
-0.736253
 70
    64
  0
VERTEX
  8
GLASS
 10
-1.288228
 20
0.079179
 30
-0.743759
 70
    64
  0
VERTEX
  8
GLASS
 10
-1.296301
 20
0.05266
 30
-0.74842
 70
    64
  0
VERTEX
  8
GLASS
 10
-1.299038
 20
0.024729
 30
-0.75
 70
    64
  0
VERTEX
  8
GLASS
 10
-1.402116
 20
0.146752
 30
-0.0
 70
    64
  0
VERTEX
  8
GLASS
 10
-1.428697
 20
0.137607
 30
-0.0
 70
    64
  0
VERTEX
  8
GLASS
 10
-1.452562
 20
0.122755
 30
-0.0
 70
    64
  0
VERTEX
  8
GLASS
 10
-1.472505
 20
0.102944
 30
-0.0
 70
    64
  0
VERTEX
  8
GLASS
 10
-1.487517
 20
0.079179
 30
-0.0
 70
    64
  0
VERTEX
  8
GLASS
 10
-1.496839
 20
0.05266
 30
-0.0
 70
    64
  0
VERTEX
  8
GLASS
 10
-1.5
 20
0.024729
 30
-0.0
 70
    64
  0
VERTEX
  8
GLASS
 10
-1.214268
 20
0.146752
 30
0.701058
 70
    64
  0
VERTEX
  8
GLASS
 10
-1.237288
 20
0.137607
 30
0.714349
 70
    64
  0
VERTEX
  8
GLASS
 10
-1.257956
 20
0.122755
 30
0.726281
 70
    64
  0
VERTEX
  8
GLASS
 10
-1.275227
 20
0.102944
 30
0.736253
 70
    64
  0
VERTEX
  8
GLASS
 10
-1.288228
 20
0.079179
 30
0.743759
 70
    64
  0
VERTEX
  8
GLASS
 10
-1.296301
 20
0.05266
 30
0.74842
 70
    64
  0
VERTEX
  8
GLASS
 10
-1.299038
 20
0.024729
 30
0.75
 70
    64
  0
VERTEX
  8
GLASS
 10
-0.701058
 20
0.146752
 30
1.214268
 70
    64
  0
VERTEX
  8
GLASS
 10
-0.714349
 20
0.137607
 30
1.237288
 70
    64
  0
VERTEX
  8
GLASS
 10
-0.726281
 20
0.122755
 30
1.257956
 70
    64
  0
VERTEX
  8
GLASS
 10
-0.736253
 20
0.102944
 30
1.275227
 70
    64
  0
VERTEX
  8
GLASS
 10
-0.743759
 20
0.079179
 30
1.288228
 70
    64
  0
VERTEX
  8
GLASS
 10
-0.74842
 20
0.05266
 30
1.296301
 70
    64
  0
VERTEX
  8
GLASS
 10
-0.75
 20
0.024729
 30
1.299038
 70
    64
  0
VERTEX
  8
GLASS
 10
0.0
 20
0.146752
 30
1.402116
 70
    64
  0
VERTEX
  8
GLASS
 10
0.0
 20
0.137607
 30
1.428697
 70
    64
  0
VERTEX
  8
GLASS
 10
0.0
 20
0.122755
 30
1.452562
 70
    64
  0
VERTEX
  8
GLASS
 10
0.0
 20
0.102944
 30
1.472505
 70
    64
  0
VERTEX
  8
GLASS
 10
0.0
 20
0.079179
 30
1.487517
 70
    64
  0
VERTEX
  8
GLASS
 10
0.0
 20
0.05266
 30
1.496839
 70
    64
  0
VERTEX
  8
GLASS
 10
0.0
 20
0.024729
 30
1.5
 70
    64
  0
VERTEX
  8
GLASS
 10
0.701058
 20
0.146752
 30
1.214268
 70
    64
  0
VERTEX
  8
GLASS
 10
0.714349
 20
0.137607
 30
1.237288
 70
    64
  0
VERTEX
  8
GLASS
 10
0.726281
 20
0.122755
 30
1.257956
 70
    64
  0
VERTEX
  8
GLASS
 10
0.736253
 20
0.102944
 30
1.275227
 70
    64
  0
VERTEX
  8
GLASS
 10
0.743759
 20
0.079179
 30
1.288228
 70
    64
  0
VERTEX
  8
GLASS
 10
0.74842
 20
0.05266
 30
1.296301
 70
    64
  0
VERTEX
  8
GLASS
 10
0.75
 20
0.024729
 30
1.299038
 70
    64
  0
VERTEX
  8
GLASS
 10
1.214268
 20
0.146752
 30
0.701058
 70
    64
  0
VERTEX
  8
GLASS
 10
1.237288
 20
0.137607
 30
0.714349
 70
    64
  0
VERTEX
  8
GLASS
 10
1.257956
 20
0.122755
 30
0.726281
 70
    64
  0
VERTEX
  8
GLASS
 10
1.275227
 20
0.102944
 30
0.736253
 70
    64
  0
VERTEX
  8
GLASS
 10
1.288228
 20
0.079179
 30
0.743759
 70
    64
  0
VERTEX
  8
GLASS
 10
1.296301
 20
0.05266
 30
0.74842
 70
    64
  0
VERTEX
  8
GLASS
 10
1.299038
 20
0.024729
 30
0.75
 70
    64
  0
SEQEND
  8
GLASS
  0
POLYLINE
  8
GLASS
 66
     1
 10
0.0
 20
0.0
 30
0.0
 70
    17
 71
    12
 72
     7
  0
VERTEX
  8
GLASS
 10
0.587422
 20
0.327795
 30
0.0
 70
    64
  0
VERTEX
  8
GLASS
 10
0.477971
 20
0.365875
 30
0.0
 70
    64
  0
VERTEX
  8
GLASS
 10
0.380226
 20
0.428129
 30
0.0
 70
    64
  0
VERTEX
  8
GLASS
 10
0.299437
 20
0.511213
 30
0.0
 70
    64
  0
VERTEX
  8
GLASS
 10
0.239946
 20
0.610664
 30
0.0
 70
    64
  0
VERTEX
  8
GLASS
 10
0.204947
 20
0.721139
 30
0.0
 70
    64
  0
VERTEX
  8
GLASS
 10
0.196321
 20
0.836704
 30
0.0
 70
    64
  0
VERTEX
  8
GLASS
 10
0.508723
 20
0.327795
 30
-0.293711
 70
    64
  0
VERTEX
  8
GLASS
 10
0.413935
 20
0.365875
 30
-0.238985
 70
    64
  0
VERTEX
  8
GLASS
 10
0.329285
 20
0.428129
 30
-0.190113
 70
    64
  0
VERTEX
  8
GLASS
 10
0.25932
 20
0.511213
 30
-0.149719
 70
    64
  0
VERTEX
  8
GLASS
 10
0.207799
 20
0.610664
 30
-0.119973
 70
    64
  0
VERTEX
  8
GLASS
 10
0.177489
 20
0.721139
 30
-0.102474
 70
    64
  0
VERTEX
  8
GLASS
 10
0.170019
 20
0.836704
 30
-0.09816
 70
    64
  0
VERTEX
  8
GLASS
 10
0.293711
 20
0.327795
 30
-0.508723
 70
    64
  0
VERTEX
  8
GLASS
 10
0.238985
 20
0.365875
 30
-0.413935
 70
    64
  0
VERTEX
  8
GLASS
 10
0.190113
 20
0.428129
 30
-0.329285
 70
    64
  0
VERTEX
  8
GLASS
 10
0.149719
 20
0.511213
 30
-0.25932
 70
    64
  0
VERTEX
  8
GLASS
 10
0.119973
 20
0.610664
 30
-0.207799
 70
    64
  0
VERTEX
  8
GLASS
 10
0.102474
 20
0.721139
 30
-0.177489
 70
    64
  0
VERTEX
  8
GLASS
 10
0.09816
 20
0.836704
 30
-0.170019
 70
    64
  0
VERTEX
  8
GLASS
 10
0.0
 20
0.327795
 30
-0.587422
 70
    64
  0
VERTEX
  8
GLASS
 10
0.0
 20
0.365875
 30
-0.477971
 70
    64
  0
VERTEX
  8
GLASS
 10
0.0
 20
0.428129
 30
-0.380226
 70
    64
  0
VERTEX
  8
GLASS
 10
0.0
 20
0.511213
 30
-0.299437
 70
    64
  0
VERTEX
  8
GLASS
 10
0.0
 20
0.610664
 30
-0.239946
 70
    64
  0
VERTEX
  8
GLASS
 10
0.0
 20
0.721139
 30
-0.204947
 70
    64
  0
VERTEX
  8
GLASS
 10
0.0
 20
0.836704
 30
-0.196321
 70
    64
  0
VERTEX
  8
GLASS
 10
-0.293711
 20
0.327795
 30
-0.508723
 70
    64
  0
VERTEX
  8
GLASS
 10
-0.238985
 20
0.365875
 30
-0.413935
 70
    64
  0
VERTEX
  8
GLASS
 10
-0.190113
 20
0.428129
 30
-0.329285
 70
    64
  0
VERTEX
  8
GLASS
 10
-0.149719
 20
0.511213
 30
-0.25932
 70
    64
  0
VERTEX
  8
GLASS
 10
-0.119973
 20
0.610664
 30
-0.207799
 70
    64
  0
VERTEX
  8
GLASS
 10
-0.102474
 20
0.721139
 30
-0.177489
 70
    64
  0
VERTEX
  8
GLASS
 10
-0.09816
 20
0.836704
 30
-0.170019
 70
    64
  0
VERTEX
  8
GLASS
 10
-0.508723
 20
0.327795
 30
-0.293711
 70
    64
  0
VERTEX
  8
GLASS
 10
-0.413935
 20
0.365875
 30
-0.238985
 70
    64
  0
VERTEX
  8
GLASS
 10
-0.329285
 20
0.428129
 30
-0.190113
 70
    64
  0
VERTEX
  8
GLASS
 10
-0.25932
 20
0.511213
 30
-0.149719
 70
    64
  0
VERTEX
  8
GLASS
 10
-0.207799
 20
0.610664
 30
-0.119973
 70
    64
  0
VERTEX
  8
GLASS
 10
-0.177489
 20
0.721139
 30
-0.102474
 70
    64
  0
VERTEX
  8
GLASS
 10
-0.170019
 20
0.836704
 30
-0.09816
 70
    64
  0
VERTEX
  8
GLASS
 10
-0.587422
 20
0.327795
 30
-0.0
 70
    64
  0
VERTEX
  8
GLASS
 10
-0.477971
 20
0.365875
 30
-0.0
 70
    64
  0
VERTEX
  8
GLASS
 10
-0.380226
 20
0.428129
 30
-0.0
 70
    64
  0
VERTEX
  8
GLASS
 10
-0.299437
 20
0.511213
 30
-0.0
 70
    64
  0
VERTEX
  8
GLASS
 10
-0.239946
 20
0.610664
 30
-0.0
 70
    64
  0
VERTEX
  8
GLASS
 10
-0.204947
 20
0.721139
 30
-0.0
 70
    64
  0
VERTEX
  8
GLASS
 10
-0.196321
 20
0.836704
 30
-0.0
 70
    64
  0
VERTEX
  8
GLASS
 10
-0.508723
 20
0.327795
 30
0.293711
 70
    64
  0
VERTEX
  8
GLASS
 10
-0.413935
 20
0.365875
 30
0.238985
 70
    64
  0
VERTEX
  8
GLASS
 10
-0.329285
 20
0.428129
 30
0.190113
 70
    64
  0
VERTEX
  8
GLASS
 10
-0.25932
 20
0.511213
 30
0.149719
 70
    64
  0
VERTEX
  8
GLASS
 10
-0.207799
 20
0.610664
 30
0.119973
 70
    64
  0
VERTEX
  8
GLASS
 10
-0.177489
 20
0.721139
 30
0.102474
 70
    64
  0
VERTEX
  8
GLASS
 10
-0.170019
 20
0.836704
 30
0.09816
 70
    64
  0
VERTEX
  8
GLASS
 10
-0.293711
 20
0.327795
 30
0.508723
 70
    64
  0
VERTEX
  8
GLASS
 10
-0.238985
 20
0.365875
 30
0.413935
 70
    64
  0
VERTEX
  8
GLASS
 10
-0.190113
 20
0.428129
 30
0.329285
 70
    64
  0
VERTEX
  8
GLASS
 10
-0.149719
 20
0.511213
 30
0.25932
 70
    64
  0
VERTEX
  8
GLASS
 10
-0.119973
 20
0.610664
 30
0.207799
 70
    64
  0
VERTEX
  8
GLASS
 10
-0.102474
 20
0.721139
 30
0.177489
 70
    64
  0
VERTEX
  8
GLASS
 10
-0.09816
 20
0.836704
 30
0.170019
 70
    64
  0
VERTEX
  8
GLASS
 10
0.0
 20
0.327795
 30
0.587422
 70
    64
  0
VERTEX
  8
GLASS
 10
0.0
 20
0.365875
 30
0.477971
 70
    64
  0
VERTEX
  8
GLASS
 10
0.0
 20
0.428129
 30
0.380226
 70
    64
  0
VERTEX
  8
GLASS
 10
0.0
 20
0.511213
 30
0.299437
 70
    64
  0
VERTEX
  8
GLASS
 10
0.0
 20
0.610664
 30
0.239946
 70
    64
  0
VERTEX
  8
GLASS
 10
0.0
 20
0.721139
 30
0.204947
 70
    64
  0
VERTEX
  8
GLASS
 10
0.0
 20
0.836704
 30
0.196321
 70
    64
  0
VERTEX
  8
GLASS
 10
0.293711
 20
0.327795
 30
0.508723
 70
    64
  0
VERTEX
  8
GLASS
 10
0.238985
 20
0.365875
 30
0.413935
 70
    64
  0
VERTEX
  8
GLASS
 10
0.190113
 20
0.428129
 30
0.329285
 70
    64
  0
VERTEX
  8
GLASS
 10
0.149719
 20
0.511213
 30
0.25932
 70
    64
  0
VERTEX
  8
GLASS
 10
0.119973
 20
0.610664
 30
0.207799
 70
    64
  0
VERTEX
  8
GLASS
 10
0.102474
 20
0.721139
 30
0.177489
 70
    64
  0
VERTEX
  8
GLASS
 10
0.09816
 20
0.836704
 30
0.170019
 70
    64
  0
VERTEX
  8
GLASS
 10
0.508723
 20
0.327795
 30
0.293711
 70
    64
  0
VERTEX
  8
GLASS
 10
0.413935
 20
0.365875
 30
0.238985
 70
    64
  0
VERTEX
  8
GLASS
 10
0.329285
 20
0.428129
 30
0.190113
 70
    64
  0
VERTEX
  8
GLASS
 10
0.25932
 20
0.511213
 30
0.149719
 70
    64
  0
VERTEX
  8
GLASS
 10
0.207799
 20
0.610664
 30
0.119973
 70
    64
  0
VERTEX
  8
GLASS
 10
0.177489
 20
0.721139
 30
0.102474
 70
    64
  0
VERTEX
  8
GLASS
 10
0.170019
 20
0.836704
 30
0.09816
 70
    64
  0
SEQEND
  8
GLASS
  0
POLYLINE
  8
GLASS
 66
     1
 10
0.0
 20
0.0
 30
0.0
 70
    17
 71
    12
 72
     7
  0
VERTEX
  8
GLASS
 10
2.0
 20
5.0
 30
0.0
 70
    64
  0
VERTEX
  8
GLASS
 10
2.0
 20
5.145833
 30
0.0
 70
    64
  0
VERTEX
  8
GLASS
 10
2.0
 20
5.291667
 30
0.0
 70
    64
  0
VERTEX
  8
GLASS
 10
2.0
 20
5.4375
 30
0.0
 70
    64
  0
VERTEX
  8
GLASS
 10
2.0
 20
5.583333
 30
0.0
 70
    64
  0
VERTEX
  8
GLASS
 10
2.0
 20
5.729167
 30
0.0
 70
    64
  0
VERTEX
  8
GLASS
 10
2.0
 20
5.875
 30
0.0
 70
    64
  0
VERTEX
  8
GLASS
 10
1.732051
 20
5.0
 30
-1.0
 70
    64
  0
VERTEX
  8
GLASS
 10
1.732051
 20
5.145833
 30
-1.0
 70
    64
  0
VERTEX
  8
GLASS
 10
1.732051
 20
5.291667
 30
-1.0
 70
    64
  0
VERTEX
  8
GLASS
 10
1.732051
 20
5.4375
 30
-1.0
 70
    64
  0
VERTEX
  8
GLASS
 10
1.732051
 20
5.583333
 30
-1.0
 70
    64
  0
VERTEX
  8
GLASS
 10
1.732051
 20
5.729167
 30
-1.0
 70
    64
  0
VERTEX
  8
GLASS
 10
1.732051
 20
5.875
 30
-1.0
 70
    64
  0
VERTEX
  8
GLASS
 10
1.0
 20
5.0
 30
-1.732051
 70
    64
  0
VERTEX
  8
GLASS
 10
1.0
 20
5.145833
 30
-1.732051
 70
    64
  0
VERTEX
  8
GLASS
 10
1.0
 20
5.291667
 30
-1.732051
 70
    64
  0
VERTEX
  8
GLASS
 10
1.0
 20
5.4375
 30
-1.732051
 70
    64
  0
VERTEX
  8
GLASS
 10
1.0
 20
5.583333
 30
-1.732051
 70
    64
  0
VERTEX
  8
GLASS
 10
1.0
 20
5.729167
 30
-1.732051
 70
    64
  0
VERTEX
  8
GLASS
 10
1.0
 20
5.875
 30
-1.732051
 70
    64
  0
VERTEX
  8
GLASS
 10
0.0
 20
5.0
 30
-2.0
 70
    64
  0
VERTEX
  8
GLASS
 10
0.0
 20
5.145833
 30
-2.0
 70
    64
  0
VERTEX
  8
GLASS
 10
0.0
 20
5.291667
 30
-2.0
 70
    64
  0
VERTEX
  8
GLASS
 10
0.0
 20
5.4375
 30
-2.0
 70
    64
  0
VERTEX
  8
GLASS
 10
0.0
 20
5.583333
 30
-2.0
 70
    64
  0
VERTEX
  8
GLASS
 10
0.0
 20
5.729167
 30
-2.0
 70
    64
  0
VERTEX
  8
GLASS
 10
0.0
 20
5.875
 30
-2.0
 70
    64
  0
VERTEX
  8
GLASS
 10
-1.0
 20
5.0
 30
-1.732051
 70
    64
  0
VERTEX
  8
GLASS
 10
-1.0
 20
5.145833
 30
-1.732051
 70
    64
  0
VERTEX
  8
GLASS
 10
-1.0
 20
5.291667
 30
-1.732051
 70
    64
  0
VERTEX
  8
GLASS
 10
-1.0
 20
5.4375
 30
-1.732051
 70
    64
  0
VERTEX
  8
GLASS
 10
-1.0
 20
5.583333
 30
-1.732051
 70
    64
  0
VERTEX
  8
GLASS
 10
-1.0
 20
5.729167
 30
-1.732051
 70
    64
  0
VERTEX
  8
GLASS
 10
-1.0
 20
5.875
 30
-1.732051
 70
    64
  0
VERTEX
  8
GLASS
 10
-1.732051
 20
5.0
 30
-1.0
 70
    64
  0
VERTEX
  8
GLASS
 10
-1.732051
 20
5.145833
 30
-1.0
 70
    64
  0
VERTEX
  8
GLASS
 10
-1.732051
 20
5.291667
 30
-1.0
 70
    64
  0
VERTEX
  8
GLASS
 10
-1.732051
 20
5.4375
 30
-1.0
 70
    64
  0
VERTEX
  8
GLASS
 10
-1.732051
 20
5.583333
 30
-1.0
 70
    64
  0
VERTEX
  8
GLASS
 10
-1.732051
 20
5.729167
 30
-1.0
 70
    64
  0
VERTEX
  8
GLASS
 10
-1.732051
 20
5.875
 30
-1.0
 70
    64
  0
VERTEX
  8
GLASS
 10
-2.0
 20
5.0
 30
-0.0
 70
    64
  0
VERTEX
  8
GLASS
 10
-2.0
 20
5.145833
 30
-0.0
 70
    64
  0
VERTEX
  8
GLASS
 10
-2.0
 20
5.291667
 30
-0.0
 70
    64
  0
VERTEX
  8
GLASS
 10
-2.0
 20
5.4375
 30
-0.0
 70
    64
  0
VERTEX
  8
GLASS
 10
-2.0
 20
5.583333
 30
-0.0
 70
    64
  0
VERTEX
  8
GLASS
 10
-2.0
 20
5.729167
 30
-0.0
 70
    64
  0
VERTEX
  8
GLASS
 10
-2.0
 20
5.875
 30
-0.0
 70
    64
  0
VERTEX
  8
GLASS
 10
-1.732051
 20
5.0
 30
1.0
 70
    64
  0
VERTEX
  8
GLASS
 10
-1.732051
 20
5.145833
 30
1.0
 70
    64
  0
VERTEX
  8
GLASS
 10
-1.732051
 20
5.291667
 30
1.0
 70
    64
  0
VERTEX
  8
GLASS
 10
-1.732051
 20
5.4375
 30
1.0
 70
    64
  0
VERTEX
  8
GLASS
 10
-1.732051
 20
5.583333
 30
1.0
 70
    64
  0
VERTEX
  8
GLASS
 10
-1.732051
 20
5.729167
 30
1.0
 70
    64
  0
VERTEX
  8
GLASS
 10
-1.732051
 20
5.875
 30
1.0
 70
    64
  0
VERTEX
  8
GLASS
 10
-1.0
 20
5.0
 30
1.732051
 70
    64
  0
VERTEX
  8
GLASS
 10
-1.0
 20
5.145833
 30
1.732051
 70
    64
  0
VERTEX
  8
GLASS
 10
-1.0
 20
5.291667
 30
1.732051
 70
    64
  0
VERTEX
  8
GLASS
 10
-1.0
 20
5.4375
 30
1.732051
 70
    64
  0
VERTEX
  8
GLASS
 10
-1.0
 20
5.583333
 30
1.732051
 70
    64
  0
VERTEX
  8
GLASS
 10
-1.0
 20
5.729167
 30
1.732051
 70
    64
  0
VERTEX
  8
GLASS
 10
-1.0
 20
5.875
 30
1.732051
 70
    64
  0
VERTEX
  8
GLASS
 10
0.0
 20
5.0
 30
2.0
 70
    64
  0
VERTEX
  8
GLASS
 10
0.0
 20
5.145833
 30
2.0
 70
    64
  0
VERTEX
  8
GLASS
 10
0.0
 20
5.291667
 30
2.0
 70
    64
  0
VERTEX
  8
GLASS
 10
0.0
 20
5.4375
 30
2.0
 70
    64
  0
VERTEX
  8
GLASS
 10
0.0
 20
5.583333
 30
2.0
 70
    64
  0
VERTEX
  8
GLASS
 10
0.0
 20
5.729167
 30
2.0
 70
    64
  0
VERTEX
  8
GLASS
 10
0.0
 20
5.875
 30
2.0
 70
    64
  0
VERTEX
  8
GLASS
 10
1.0
 20
5.0
 30
1.732051
 70
    64
  0
VERTEX
  8
GLASS
 10
1.0
 20
5.145833
 30
1.732051
 70
    64
  0
VERTEX
  8
GLASS
 10
1.0
 20
5.291667
 30
1.732051
 70
    64
  0
VERTEX
  8
GLASS
 10
1.0
 20
5.4375
 30
1.732051
 70
    64
  0
VERTEX
  8
GLASS
 10
1.0
 20
5.583333
 30
1.732051
 70
    64
  0
VERTEX
  8
GLASS
 10
1.0
 20
5.729167
 30
1.732051
 70
    64
  0
VERTEX
  8
GLASS
 10
1.0
 20
5.875
 30
1.732051
 70
    64
  0
VERTEX
  8
GLASS
 10
1.732051
 20
5.0
 30
1.0
 70
    64
  0
VERTEX
  8
GLASS
 10
1.732051
 20
5.145833
 30
1.0
 70
    64
  0
VERTEX
  8
GLASS
 10
1.732051
 20
5.291667
 30
1.0
 70
    64
  0
VERTEX
  8
GLASS
 10
1.732051
 20
5.4375
 30
1.0
 70
    64
  0
VERTEX
  8
GLASS
 10
1.732051
 20
5.583333
 30
1.0
 70
    64
  0
VERTEX
  8
GLASS
 10
1.732051
 20
5.729167
 30
1.0
 70
    64
  0
VERTEX
  8
GLASS
 10
1.732051
 20
5.875
 30
1.0
 70
    64
  0
SEQEND
  8
GLASS
  0
POLYLINE
  8
GLASS
 66
     1
 10
0.0
 20
0.0
 30
0.0
 70
    17
 71
    12
 72
     7
  0
VERTEX
  8
GLASS
 10
0.616911
 20
3.097522
 30
0.0
 70
    64
  0
VERTEX
  8
GLASS
 10
0.999147
 20
3.267457
 30
0.0
 70
    64
  0
VERTEX
  8
GLASS
 10
1.337676
 20
3.513184
 30
0.0
 70
    64
  0
VERTEX
  8
GLASS
 10
1.617687
 20
3.823952
 30
0.0
 70
    64
  0
VERTEX
  8
GLASS
 10
1.826931
 20
4.186167
 30
0.0
 70
    64
  0
VERTEX
  8
GLASS
 10
1.956254
 20
4.583984
 30
0.0
 70
    64
  0
VERTEX
  8
GLASS
 10
2.0
 20
5.0
 30
0.0
 70
    64
  0
VERTEX
  8
GLASS
 10
0.53426
 20
3.097522
 30
-0.308455
 70
    64
  0
VERTEX
  8
GLASS
 10
0.865287
 20
3.267457
 30
-0.499574
 70
    64
  0
VERTEX
  8
GLASS
 10
1.158461
 20
3.513184
 30
-0.668838
 70
    64
  0
VERTEX
  8
GLASS
 10
1.400958
 20
3.823952
 30
-0.808843
 70
    64
  0
VERTEX
  8
GLASS
 10
1.582168
 20
4.186167
 30
-0.913465
 70
    64
  0
VERTEX
  8
GLASS
 10
1.694166
 20
4.583984
 30
-0.978127
 70
    64
  0
VERTEX
  8
GLASS
 10
1.732051
 20
5.0
 30
-1.0
 70
    64
  0
VERTEX
  8
GLASS
 10
0.308455
 20
3.097522
 30
-0.53426
 70
    64
  0
VERTEX
  8
GLASS
 10
0.499574
 20
3.267457
 30
-0.865287
 70
    64
  0
VERTEX
  8
GLASS
 10
0.668838
 20
3.513184
 30
-1.158461
 70
    64
  0
VERTEX
  8
GLASS
 10
0.808843
 20
3.823952
 30
-1.400958
 70
    64
  0
VERTEX
  8
GLASS
 10
0.913465
 20
4.186167
 30
-1.582168
 70
    64
  0
VERTEX
  8
GLASS
 10
0.978127
 20
4.583984
 30
-1.694166
 70
    64
  0
VERTEX
  8
GLASS
 10
1.0
 20
5.0
 30
-1.732051
 70
    64
  0
VERTEX
  8
GLASS
 10
0.0
 20
3.097522
 30
-0.616911
 70
    64
  0
VERTEX
  8
GLASS
 10
0.0
 20
3.267457
 30
-0.999147
 70
    64
  0
VERTEX
  8
GLASS
 10
0.0
 20
3.513184
 30
-1.337676
 70
    64
  0
VERTEX
  8
GLASS
 10
0.0
 20
3.823952
 30
-1.617687
 70
    64
  0
VERTEX
  8
GLASS
 10
0.0
 20
4.186167
 30
-1.826931
 70
    64
  0
VERTEX
  8
GLASS
 10
0.0
 20
4.583984
 30
-1.956254
 70
    64
  0
VERTEX
  8
GLASS
 10
0.0
 20
5.0
 30
-2.0
 70
    64
  0
VERTEX
  8
GLASS
 10
-0.308455
 20
3.097522
 30
-0.53426
 70
    64
  0
VERTEX
  8
GLASS
 10
-0.499574
 20
3.267457
 30
-0.865287
 70
    64
  0
VERTEX
  8
GLASS
 10
-0.668838
 20
3.513184
 30
-1.158461
 70
    64
  0
VERTEX
  8
GLASS
 10
-0.808843
 20
3.823952
 30
-1.400958
 70
    64
  0
VERTEX
  8
GLASS
 10
-0.913465
 20
4.186167
 30
-1.582168
 70
    64
  0
VERTEX
  8
GLASS
 10
-0.978127
 20
4.583984
 30
-1.694166
 70
    64
  0
VERTEX
  8
GLASS
 10
-1.0
 20
5.0
 30
-1.732051
 70
    64
  0
VERTEX
  8
GLASS
 10
-0.53426
 20
3.097522
 30
-0.308455
 70
    64
  0
VERTEX
  8
GLASS
 10
-0.865287
 20
3.267457
 30
-0.499574
 70
    64
  0
VERTEX
  8
GLASS
 10
-1.158461
 20
3.513184
 30
-0.668838
 70
    64
  0
VERTEX
  8
GLASS
 10
-1.400958
 20
3.823952
 30
-0.808843
 70
    64
  0
VERTEX
  8
GLASS
 10
-1.582168
 20
4.186167
 30
-0.913465
 70
    64
  0
VERTEX
  8
GLASS
 10
-1.694166
 20
4.583984
 30
-0.978127
 70
    64
  0
VERTEX
  8
GLASS
 10
-1.732051
 20
5.0
 30
-1.0
 70
    64
  0
VERTEX
  8
GLASS
 10
-0.616911
 20
3.097522
 30
-0.0
 70
    64
  0
VERTEX
  8
GLASS
 10
-0.999147
 20
3.267457
 30
-0.0
 70
    64
  0
VERTEX
  8
GLASS
 10
-1.337676
 20
3.513184
 30
-0.0
 70
    64
  0
VERTEX
  8
GLASS
 10
-1.617687
 20
3.823952
 30
-0.0
 70
    64
  0
VERTEX
  8
GLASS
 10
-1.826931
 20
4.186167
 30
-0.0
 70
    64
  0
VERTEX
  8
GLASS
 10
-1.956254
 20
4.583984
 30
-0.0
 70
    64
  0
VERTEX
  8
GLASS
 10
-2.0
 20
5.0
 30
-0.0
 70
    64
  0
VERTEX
  8
GLASS
 10
-0.53426
 20
3.097522
 30
0.308455
 70
    64
  0
VERTEX
  8
GLASS
 10
-0.865287
 20
3.267457
 30
0.499574
 70
    64
  0
VERTEX
  8
GLASS
 10
-1.158461
 20
3.513184
 30
0.668838
 70
    64
  0
VERTEX
  8
GLASS
 10
-1.400958
 20
3.823952
 30
0.808843
 70
    64
  0
VERTEX
  8
GLASS
 10
-1.582168
 20
4.186167
 30
0.913465
 70
    64
  0
VERTEX
  8
GLASS
 10
-1.694166
 20
4.583984
 30
0.978127
 70
    64
  0
VERTEX
  8
GLASS
 10
-1.732051
 20
5.0
 30
1.0
 70
    64
  0
VERTEX
  8
GLASS
 10
-0.308455
 20
3.097522
 30
0.53426
 70
    64
  0
VERTEX
  8
GLASS
 10
-0.499574
 20
3.267457
 30
0.865287
 70
    64
  0
VERTEX
  8
GLASS
 10
-0.668838
 20
3.513184
 30
1.158461
 70
    64
  0
VERTEX
  8
GLASS
 10
-0.808843
 20
3.823952
 30
1.400958
 70
    64
  0
VERTEX
  8
GLASS
 10
-0.913465
 20
4.186167
 30
1.582168
 70
    64
  0
VERTEX
  8
GLASS
 10
-0.978127
 20
4.583984
 30
1.694166
 70
    64
  0
VERTEX
  8
GLASS
 10
-1.0
 20
5.0
 30
1.732051
 70
    64
  0
VERTEX
  8
GLASS
 10
0.0
 20
3.097522
 30
0.616911
 70
    64
  0
VERTEX
  8
GLASS
 10
0.0
 20
3.267457
 30
0.999147
 70
    64
  0
VERTEX
  8
GLASS
 10
0.0
 20
3.513184
 30
1.337676
 70
    64
  0
VERTEX
  8
GLASS
 10
0.0
 20
3.823952
 30
1.617687
 70
    64
  0
VERTEX
  8
GLASS
 10
0.0
 20
4.186167
 30
1.826931
 70
    64
  0
VERTEX
  8
GLASS
 10
0.0
 20
4.583984
 30
1.956254
 70
    64
  0
VERTEX
  8
GLASS
 10
0.0
 20
5.0
 30
2.0
 70
    64
  0
VERTEX
  8
GLASS
 10
0.308455
 20
3.097522
 30
0.53426
 70
    64
  0
VERTEX
  8
GLASS
 10
0.499574
 20
3.267457
 30
0.865287
 70
    64
  0
VERTEX
  8
GLASS
 10
0.668838
 20
3.513184
 30
1.158461
 70
    64
  0
VERTEX
  8
GLASS
 10
0.808843
 20
3.823952
 30
1.400958
 70
    64
  0
VERTEX
  8
GLASS
 10
0.913465
 20
4.186167
 30
1.582168
 70
    64
  0
VERTEX
  8
GLASS
 10
0.978127
 20
4.583984
 30
1.694166
 70
    64
  0
VERTEX
  8
GLASS
 10
1.0
 20
5.0
 30
1.732051
 70
    64
  0
VERTEX
  8
GLASS
 10
0.53426
 20
3.097522
 30
0.308455
 70
    64
  0
VERTEX
  8
GLASS
 10
0.865287
 20
3.267457
 30
0.499574
 70
    64
  0
VERTEX
  8
GLASS
 10
1.158461
 20
3.513184
 30
0.668838
 70
    64
  0
VERTEX
  8
GLASS
 10
1.400958
 20
3.823952
 30
0.808843
 70
    64
  0
VERTEX
  8
GLASS
 10
1.582168
 20
4.186167
 30
0.913465
 70
    64
  0
VERTEX
  8
GLASS
 10
1.694166
 20
4.583984
 30
0.978127
 70
    64
  0
VERTEX
  8
GLASS
 10
1.732051
 20
5.0
 30
1.0
 70
    64
  0
SEQEND
  8
GLASS
  0
POLYLINE
  8
GLASS
 66
     1
 10
0.0
 20
0.0
 30
0.0
 70
    17
 71
    12
 72
     7
  0
VERTEX
  8
GLASS
 10
1.5
 20
0.0
 30
0.0
 70
    64
  0
VERTEX
  8
GLASS
 10
1.5
 20
0.0
 30
0.0
 70
    64
  0
VERTEX
  8
GLASS
 10
1.5
 20
0.0
 30
0.0
 70
    64
  0
VERTEX
  8
GLASS
 10
1.5
 20
0.0
 30
0.0
 70
    64
  0
VERTEX
  8
GLASS
 10
1.5
 20
0.0
 30
0.0
 70
    64
  0
VERTEX
  8
GLASS
 10
1.5
 20
0.0
 30
0.0
 70
    64
  0
VERTEX
  8
GLASS
 10
1.5
 20
0.0
 30
0.0
 70
    64
  0
VERTEX
  8
GLASS
 10
1.299038
 20
0.0
 30
-0.75
 70
    64
  0
VERTEX
  8
GLASS
 10
1.299038
 20
0.0
 30
-0.75
 70
    64
  0
VERTEX
  8
GLASS
 10
1.299038
 20
0.0
 30
-0.75
 70
    64
  0
VERTEX
  8
GLASS
 10
1.299038
 20
0.0
 30
-0.75
 70
    64
  0
VERTEX
  8
GLASS
 10
1.299038
 20
0.0
 30
-0.75
 70
    64
  0
VERTEX
  8
GLASS
 10
1.299038
 20
0.0
 30
-0.75
 70
    64
  0
VERTEX
  8
GLASS
 10
1.299038
 20
0.0
 30
-0.75
 70
    64
  0
VERTEX
  8
GLASS
 10
0.75
 20
0.0
 30
-1.299038
 70
    64
  0
VERTEX
  8
GLASS
 10
0.75
 20
0.0
 30
-1.299038
 70
    64
  0
VERTEX
  8
GLASS
 10
0.75
 20
0.0
 30
-1.299038
 70
    64
  0
VERTEX
  8
GLASS
 10
0.75
 20
0.0
 30
-1.299038
 70
    64
  0
VERTEX
  8
GLASS
 10
0.75
 20
0.0
 30
-1.299038
 70
    64
  0
VERTEX
  8
GLASS
 10
0.75
 20
0.0
 30
-1.299038
 70
    64
  0
VERTEX
  8
GLASS
 10
0.75
 20
0.0
 30
-1.299038
 70
    64
  0
VERTEX
  8
GLASS
 10
0.0
 20
0.0
 30
-1.5
 70
    64
  0
VERTEX
  8
GLASS
 10
0.0
 20
0.0
 30
-1.5
 70
    64
  0
VERTEX
  8
GLASS
 10
0.0
 20
0.0
 30
-1.5
 70
    64
  0
VERTEX
  8
GLASS
 10
0.0
 20
0.0
 30
-1.5
 70
    64
  0
VERTEX
  8
GLASS
 10
0.0
 20
0.0
 30
-1.5
 70
    64
  0
VERTEX
  8
GLASS
 10
0.0
 20
0.0
 30
-1.5
 70
    64
  0
VERTEX
  8
GLASS
 10
0.0
 20
0.0
 30
-1.5
 70
    64
  0
VERTEX
  8
GLASS
 10
-0.75
 20
0.0
 30
-1.299038
 70
    64
  0
VERTEX
  8
GLASS
 10
-0.75
 20
0.0
 30
-1.299038
 70
    64
  0
VERTEX
  8
GLASS
 10
-0.75
 20
0.0
 30
-1.299038
 70
    64
  0
VERTEX
  8
GLASS
 10
-0.75
 20
0.0
 30
-1.299038
 70
    64
  0
VERTEX
  8
GLASS
 10
-0.75
 20
0.0
 30
-1.299038
 70
    64
  0
VERTEX
  8
GLASS
 10
-0.75
 20
0.0
 30
-1.299038
 70
    64
  0
VERTEX
  8
GLASS
 10
-0.75
 20
0.0
 30
-1.299038
 70
    64
  0
VERTEX
  8
GLASS
 10
-1.299038
 20
0.0
 30
-0.75
 70
    64
  0
VERTEX
  8
GLASS
 10
-1.299038
 20
0.0
 30
-0.75
 70
    64
  0
VERTEX
  8
GLASS
 10
-1.299038
 20
0.0
 30
-0.75
 70
    64
  0
VERTEX
  8
GLASS
 10
-1.299038
 20
0.0
 30
-0.75
 70
    64
  0
VERTEX
  8
GLASS
 10
-1.299038
 20
0.0
 30
-0.75
 70
    64
  0
VERTEX
  8
GLASS
 10
-1.299038
 20
0.0
 30
-0.75
 70
    64
  0
VERTEX
  8
GLASS
 10
-1.299038
 20
0.0
 30
-0.75
 70
    64
  0
VERTEX
  8
GLASS
 10
-1.5
 20
0.0
 30
-0.0
 70
    64
  0
VERTEX
  8
GLASS
 10
-1.5
 20
0.0
 30
-0.0
 70
    64
  0
VERTEX
  8
GLASS
 10
-1.5
 20
0.0
 30
-0.0
 70
    64
  0
VERTEX
  8
GLASS
 10
-1.5
 20
0.0
 30
-0.0
 70
    64
  0
VERTEX
  8
GLASS
 10
-1.5
 20
0.0
 30
-0.0
 70
    64
  0
VERTEX
  8
GLASS
 10
-1.5
 20
0.0
 30
-0.0
 70
    64
  0
VERTEX
  8
GLASS
 10
-1.5
 20
0.0
 30
-0.0
 70
    64
  0
VERTEX
  8
GLASS
 10
-1.299038
 20
0.0
 30
0.75
 70
    64
  0
VERTEX
  8
GLASS
 10
-1.299038
 20
0.0
 30
0.75
 70
    64
  0
VERTEX
  8
GLASS
 10
-1.299038
 20
0.0
 30
0.75
 70
    64
  0
VERTEX
  8
GLASS
 10
-1.299038
 20
0.0
 30
0.75
 70
    64
  0
VERTEX
  8
GLASS
 10
-1.299038
 20
0.0
 30
0.75
 70
    64
  0
VERTEX
  8
GLASS
 10
-1.299038
 20
0.0
 30
0.75
 70
    64
  0
VERTEX
  8
GLASS
 10
-1.299038
 20
0.0
 30
0.75
 70
    64
  0
VERTEX
  8
GLASS
 10
-0.75
 20
0.0
 30
1.299038
 70
    64
  0
VERTEX
  8
GLASS
 10
-0.75
 20
0.0
 30
1.299038
 70
    64
  0
VERTEX
  8
GLASS
 10
-0.75
 20
0.0
 30
1.299038
 70
    64
  0
VERTEX
  8
GLASS
 10
-0.75
 20
0.0
 30
1.299038
 70
    64
  0
VERTEX
  8
GLASS
 10
-0.75
 20
0.0
 30
1.299038
 70
    64
  0
VERTEX
  8
GLASS
 10
-0.75
 20
0.0
 30
1.299038
 70
    64
  0
VERTEX
  8
GLASS
 10
-0.75
 20
0.0
 30
1.299038
 70
    64
  0
VERTEX
  8
GLASS
 10
0.0
 20
0.0
 30
1.5
 70
    64
  0
VERTEX
  8
GLASS
 10
0.0
 20
0.0
 30
1.5
 70
    64
  0
VERTEX
  8
GLASS
 10
0.0
 20
0.0
 30
1.5
 70
    64
  0
VERTEX
  8
GLASS
 10
0.0
 20
0.0
 30
1.5
 70
    64
  0
VERTEX
  8
GLASS
 10
0.0
 20
0.0
 30
1.5
 70
    64
  0
VERTEX
  8
GLASS
 10
0.0
 20
0.0
 30
1.5
 70
    64
  0
VERTEX
  8
GLASS
 10
0.0
 20
0.0
 30
1.5
 70
    64
  0
VERTEX
  8
GLASS
 10
0.75
 20
0.0
 30
1.299038
 70
    64
  0
VERTEX
  8
GLASS
 10
0.75
 20
0.0
 30
1.299038
 70
    64
  0
VERTEX
  8
GLASS
 10
0.75
 20
0.0
 30
1.299038
 70
    64
  0
VERTEX
  8
GLASS
 10
0.75
 20
0.0
 30
1.299038
 70
    64
  0
VERTEX
  8
GLASS
 10
0.75
 20
0.0
 30
1.299038
 70
    64
  0
VERTEX
  8
GLASS
 10
0.75
 20
0.0
 30
1.299038
 70
    64
  0
VERTEX
  8
GLASS
 10
0.75
 20
0.0
 30
1.299038
 70
    64
  0
VERTEX
  8
GLASS
 10
1.299038
 20
0.0
 30
0.75
 70
    64
  0
VERTEX
  8
GLASS
 10
1.299038
 20
0.0
 30
0.75
 70
    64
  0
VERTEX
  8
GLASS
 10
1.299038
 20
0.0
 30
0.75
 70
    64
  0
VERTEX
  8
GLASS
 10
1.299038
 20
0.0
 30
0.75
 70
    64
  0
VERTEX
  8
GLASS
 10
1.299038
 20
0.0
 30
0.75
 70
    64
  0
VERTEX
  8
GLASS
 10
1.299038
 20
0.0
 30
0.75
 70
    64
  0
VERTEX
  8
GLASS
 10
1.299038
 20
0.0
 30
0.75
 70
    64
  0
SEQEND
  8
GLASS
  0
POLYLINE
  8
GLASS
 66
     1
 10
0.0
 20
0.0
 30
0.0
 70
    17
 71
    12
 72
     7
  0
VERTEX
  8
GLASS
 10
1.402116
 20
0.146752
 30
0.0
 70
    64
  0
VERTEX
  8
GLASS
 10
1.266334
 20
0.176926
 30
0.0
 70
    64
  0
VERTEX
  8
GLASS
 10
1.130552
 20
0.2071
 30
0.0
 70
    64
  0
VERTEX
  8
GLASS
 10
0.994769
 20
0.237273
 30
0.0
 70
    64
  0
VERTEX
  8
GLASS
 10
0.858987
 20
0.267447
 30
0.0
 70
    64
  0
VERTEX
  8
GLASS
 10
0.723205
 20
0.297621
 30
0.0
 70
    64
  0
VERTEX
  8
GLASS
 10
0.587422
 20
0.327795
 30
0.0
 70
    64
  0
VERTEX
  8
GLASS
 10
1.214268
 20
0.146752
 30
-0.701058
 70
    64
  0
VERTEX
  8
GLASS
 10
1.096677
 20
0.176926
 30
-0.633167
 70
    64
  0
VERTEX
  8
GLASS
 10
0.979086
 20
0.2071
 30
-0.565276
 70
    64
  0
VERTEX
  8
GLASS
 10
0.861495
 20
0.237273
 30
-0.497385
 70
    64
  0
VERTEX
  8
GLASS
 10
0.743905
 20
0.267447
 30
-0.429493
 70
    64
  0
VERTEX
  8
GLASS
 10
0.626314
 20
0.297621
 30
-0.361602
 70
    64
  0
VERTEX
  8
GLASS
 10
0.508723
 20
0.327795
 30
-0.293711
 70
    64
  0
VERTEX
  8
GLASS
 10
0.701058
 20
0.146752
 30
-1.214268
 70
    64
  0
VERTEX
  8
GLASS
 10
0.633167
 20
0.176926
 30
-1.096677
 70
    64
  0
VERTEX
  8
GLASS
 10
0.565276
 20
0.2071
 30
-0.979086
 70
    64
  0
VERTEX
  8
GLASS
 10
0.497385
 20
0.237273
 30
-0.861495
 70
    64
  0
VERTEX
  8
GLASS
 10
0.429493
 20
0.267447
 30
-0.743905
 70
    64
  0
VERTEX
  8
GLASS
 10
0.361602
 20
0.297621
 30
-0.626314
 70
    64
  0
VERTEX
  8
GLASS
 10
0.293711
 20
0.327795
 30
-0.508723
 70
    64
  0
VERTEX
  8
GLASS
 10
0.0
 20
0.146752
 30
-1.402116
 70
    64
  0
VERTEX
  8
GLASS
 10
0.0
 20
0.176926
 30
-1.266334
 70
    64
  0
VERTEX
  8
GLASS
 10
0.0
 20
0.2071
 30
-1.130552
 70
    64
  0
VERTEX
  8
GLASS
 10
0.0
 20
0.237273
 30
-0.994769
 70
    64
  0
VERTEX
  8
GLASS
 10
0.0
 20
0.267447
 30
-0.858987
 70
    64
  0
VERTEX
  8
GLASS
 10
0.0
 20
0.297621
 30
-0.723205
 70
    64
  0
VERTEX
  8
GLASS
 10
0.0
 20
0.327795
 30
-0.587422
 70
    64
  0
VERTEX
  8
GLASS
 10
-0.701058
 20
0.146752
 30
-1.214268
 70
    64
  0
VERTEX
  8
GLASS
 10
-0.633167
 20
0.176926
 30
-1.096677
 70
    64
  0
VERTEX
  8
GLASS
 10
-0.565276
 20
0.2071
 30
-0.979086
 70
    64
  0
VERTEX
  8
GLASS
 10
-0.497385
 20
0.237273
 30
-0.861495
 70
    64
  0
VERTEX
  8
GLASS
 10
-0.429493
 20
0.267447
 30
-0.743905
 70
    64
  0
VERTEX
  8
GLASS
 10
-0.361602
 20
0.297621
 30
-0.626314
 70
    64
  0
VERTEX
  8
GLASS
 10
-0.293711
 20
0.327795
 30
-0.508723
 70
    64
  0
VERTEX
  8
GLASS
 10
-1.214268
 20
0.146752
 30
-0.701058
 70
    64
  0
VERTEX
  8
GLASS
 10
-1.096677
 20
0.176926
 30
-0.633167
 70
    64
  0
VERTEX
  8
GLASS
 10
-0.979086
 20
0.2071
 30
-0.565276
 70
    64
  0
VERTEX
  8
GLASS
 10
-0.861495
 20
0.237273
 30
-0.497385
 70
    64
  0
VERTEX
  8
GLASS
 10
-0.743905
 20
0.267447
 30
-0.429493
 70
    64
  0
VERTEX
  8
GLASS
 10
-0.626314
 20
0.297621
 30
-0.361602
 70
    64
  0
VERTEX
  8
GLASS
 10
-0.508723
 20
0.327795
 30
-0.293711
 70
    64
  0
VERTEX
  8
GLASS
 10
-1.402116
 20
0.146752
 30
-0.0
 70
    64
  0
VERTEX
  8
GLASS
 10
-1.266334
 20
0.176926
 30
-0.0
 70
    64
  0
VERTEX
  8
GLASS
 10
-1.130552
 20
0.2071
 30
-0.0
 70
    64
  0
VERTEX
  8
GLASS
 10
-0.994769
 20
0.237273
 30
-0.0
 70
    64
  0
VERTEX
  8
GLASS
 10
-0.858987
 20
0.267447
 30
-0.0
 70
    64
  0
VERTEX
  8
GLASS
 10
-0.723205
 20
0.297621
 30
-0.0
 70
    64
  0
VERTEX
  8
GLASS
 10
-0.587422
 20
0.327795
 30
-0.0
 70
    64
  0
VERTEX
  8
GLASS
 10
-1.214268
 20
0.146752
 30
0.701058
 70
    64
  0
VERTEX
  8
GLASS
 10
-1.096677
 20
0.176926
 30
0.633167
 70
    64
  0
VERTEX
  8
GLASS
 10
-0.979086
 20
0.2071
 30
0.565276
 70
    64
  0
VERTEX
  8
GLASS
 10
-0.861495
 20
0.237273
 30
0.497385
 70
    64
  0
VERTEX
  8
GLASS
 10
-0.743905
 20
0.267447
 30
0.429493
 70
    64
  0
VERTEX
  8
GLASS
 10
-0.626314
 20
0.297621
 30
0.361602
 70
    64
  0
VERTEX
  8
GLASS
 10
-0.508723
 20
0.327795
 30
0.293711
 70
    64
  0
VERTEX
  8
GLASS
 10
-0.701058
 20
0.146752
 30
1.214268
 70
    64
  0
VERTEX
  8
GLASS
 10
-0.633167
 20
0.176926
 30
1.096677
 70
    64
  0
VERTEX
  8
GLASS
 10
-0.565276
 20
0.2071
 30
0.979086
 70
    64
  0
VERTEX
  8
GLASS
 10
-0.497385
 20
0.237273
 30
0.861495
 70
    64
  0
VERTEX
  8
GLASS
 10
-0.429493
 20
0.267447
 30
0.743905
 70
    64
  0
VERTEX
  8
GLASS
 10
-0.361602
 20
0.297621
 30
0.626314
 70
    64
  0
VERTEX
  8
GLASS
 10
-0.293711
 20
0.327795
 30
0.508723
 70
    64
  0
VERTEX
  8
GLASS
 10
0.0
 20
0.146752
 30
1.402116
 70
    64
  0
VERTEX
  8
GLASS
 10
0.0
 20
0.176926
 30
1.266334
 70
    64
  0
VERTEX
  8
GLASS
 10
0.0
 20
0.2071
 30
1.130552
 70
    64
  0
VERTEX
  8
GLASS
 10
0.0
 20
0.237273
 30
0.994769
 70
    64
  0
VERTEX
  8
GLASS
 10
0.0
 20
0.267447
 30
0.858987
 70
    64
  0
VERTEX
  8
GLASS
 10
0.0
 20
0.297621
 30
0.723205
 70
    64
  0
VERTEX
  8
GLASS
 10
0.0
 20
0.327795
 30
0.587422
 70
    64
  0
VERTEX
  8
GLASS
 10
0.701058
 20
0.146752
 30
1.214268
 70
    64
  0
VERTEX
  8
GLASS
 10
0.633167
 20
0.176926
 30
1.096677
 70
    64
  0
VERTEX
  8
GLASS
 10
0.565276
 20
0.2071
 30
0.979086
 70
    64
  0
VERTEX
  8
GLASS
 10
0.497385
 20
0.237273
 30
0.861495
 70
    64
  0
VERTEX
  8
GLASS
 10
0.429493
 20
0.267447
 30
0.743905
 70
    64
  0
VERTEX
  8
GLASS
 10
0.361602
 20
0.297621
 30
0.626314
 70
    64
  0
VERTEX
  8
GLASS
 10
0.293711
 20
0.327795
 30
0.508723
 70
    64
  0
VERTEX
  8
GLASS
 10
1.214268
 20
0.146752
 30
0.701058
 70
    64
  0
VERTEX
  8
GLASS
 10
1.096677
 20
0.176926
 30
0.633167
 70
    64
  0
VERTEX
  8
GLASS
 10
0.979086
 20
0.2071
 30
0.565276
 70
    64
  0
VERTEX
  8
GLASS
 10
0.861495
 20
0.237273
 30
0.497385
 70
    64
  0
VERTEX
  8
GLASS
 10
0.743905
 20
0.267447
 30
0.429493
 70
    64
  0
VERTEX
  8
GLASS
 10
0.626314
 20
0.297621
 30
0.361602
 70
    64
  0
VERTEX
  8
GLASS
 10
0.508723
 20
0.327795
 30
0.293711
 70
    64
  0
SEQEND
  8
GLASS
  0
POLYLINE
  8
GLASS
 66
     1
 10
0.0
 20
0.0
 30
0.0
 70
    17
 71
    12
 72
     7
  0
VERTEX
  8
GLASS
 10
0.196321
 20
0.836704
 30
0.0
 70
    64
  0
VERTEX
  8
GLASS
 10
0.208863
 20
1.137706
 30
0.0
 70
    64
  0
VERTEX
  8
GLASS
 10
0.221405
 20
1.438709
 30
0.0
 70
    64
  0
VERTEX
  8
GLASS
 10
0.233946
 20
1.739711
 30
0.0
 70
    64
  0
VERTEX
  8
GLASS
 10
0.246488
 20
2.040713
 30
0.0
 70
    64
  0
VERTEX
  8
GLASS
 10
0.25903
 20
2.341716
 30
0.0
 70
    64
  0
VERTEX
  8
GLASS
 10
0.271572
 20
2.642718
 30
0.0
 70
    64
  0
VERTEX
  8
GLASS
 10
0.170019
 20
0.836704
 30
-0.09816
 70
    64
  0
VERTEX
  8
GLASS
 10
0.18088
 20
1.137706
 30
-0.104431
 70
    64
  0
VERTEX
  8
GLASS
 10
0.191742
 20
1.438709
 30
-0.110702
 70
    64
  0
VERTEX
  8
GLASS
 10
0.202603
 20
1.739711
 30
-0.116973
 70
    64
  0
VERTEX
  8
GLASS
 10
0.213465
 20
2.040713
 30
-0.123244
 70
    64
  0
VERTEX
  8
GLASS
 10
0.224326
 20
2.341716
 30
-0.129515
 70
    64
  0
VERTEX
  8
GLASS
 10
0.235188
 20
2.642718
 30
-0.135786
 70
    64
  0
VERTEX
  8
GLASS
 10
0.09816
 20
0.836704
 30
-0.170019
 70
    64
  0
VERTEX
  8
GLASS
 10
0.104431
 20
1.137706
 30
-0.18088
 70
    64
  0
VERTEX
  8
GLASS
 10
0.110702
 20
1.438709
 30
-0.191742
 70
    64
  0
VERTEX
  8
GLASS
 10
0.116973
 20
1.739711
 30
-0.202603
 70
    64
  0
VERTEX
  8
GLASS
 10
0.123244
 20
2.040713
 30
-0.213465
 70
    64
  0
VERTEX
  8
GLASS
 10
0.129515
 20
2.341716
 30
-0.224326
 70
    64
  0
VERTEX
  8
GLASS
 10
0.135786
 20
2.642718
 30
-0.235188
 70
    64
  0
VERTEX
  8
GLASS
 10
0.0
 20
0.836704
 30
-0.196321
 70
    64
  0
VERTEX
  8
GLASS
 10
0.0
 20
1.137706
 30
-0.208863
 70
    64
  0
VERTEX
  8
GLASS
 10
0.0
 20
1.438709
 30
-0.221405
 70
    64
  0
VERTEX
  8
GLASS
 10
0.0
 20
1.739711
 30
-0.233946
 70
    64
  0
VERTEX
  8
GLASS
 10
0.0
 20
2.040713
 30
-0.246488
 70
    64
  0
VERTEX
  8
GLASS
 10
0.0
 20
2.341716
 30
-0.25903
 70
    64
  0
VERTEX
  8
GLASS
 10
0.0
 20
2.642718
 30
-0.271572
 70
    64
  0
VERTEX
  8
GLASS
 10
-0.09816
 20
0.836704
 30
-0.170019
 70
    64
  0
VERTEX
  8
GLASS
 10
-0.104431
 20
1.137706
 30
-0.18088
 70
    64
  0
VERTEX
  8
GLASS
 10
-0.110702
 20
1.438709
 30
-0.191742
 70
    64
  0
VERTEX
  8
GLASS
 10
-0.116973
 20
1.739711
 30
-0.202603
 70
    64
  0
VERTEX
  8
GLASS
 10
-0.123244
 20
2.040713
 30
-0.213465
 70
    64
  0
VERTEX
  8
GLASS
 10
-0.129515
 20
2.341716
 30
-0.224326
 70
    64
  0
VERTEX
  8
GLASS
 10
-0.135786
 20
2.642718
 30
-0.235188
 70
    64
  0
VERTEX
  8
GLASS
 10
-0.170019
 20
0.836704
 30
-0.09816
 70
    64
  0
VERTEX
  8
GLASS
 10
-0.18088
 20
1.137706
 30
-0.104431
 70
    64
  0
VERTEX
  8
GLASS
 10
-0.191742
 20
1.438709
 30
-0.110702
 70
    64
  0
VERTEX
  8
GLASS
 10
-0.202603
 20
1.739711
 30
-0.116973
 70
    64
  0
VERTEX
  8
GLASS
 10
-0.213465
 20
2.040713
 30
-0.123244
 70
    64
  0
VERTEX
  8
GLASS
 10
-0.224326
 20
2.341716
 30
-0.129515
 70
    64
  0
VERTEX
  8
GLASS
 10
-0.235188
 20
2.642718
 30
-0.135786
 70
    64
  0
VERTEX
  8
GLASS
 10
-0.196321
 20
0.836704
 30
-0.0
 70
    64
  0
VERTEX
  8
GLASS
 10
-0.208863
 20
1.137706
 30
-0.0
 70
    64
  0
VERTEX
  8
GLASS
 10
-0.221405
 20
1.438709
 30
-0.0
 70
    64
  0
VERTEX
  8
GLASS
 10
-0.233946
 20
1.739711
 30
-0.0
 70
    64
  0
VERTEX
  8
GLASS
 10
-0.246488
 20
2.040713
 30
-0.0
 70
    64
  0
VERTEX
  8
GLASS
 10
-0.25903
 20
2.341716
 30
-0.0
 70
    64
  0
VERTEX
  8
GLASS
 10
-0.271572
 20
2.642718
 30
-0.0
 70
    64
  0
VERTEX
  8
GLASS
 10
-0.170019
 20
0.836704
 30
0.09816
 70
    64
  0
VERTEX
  8
GLASS
 10
-0.18088
 20
1.137706
 30
0.104431
 70
    64
  0
VERTEX
  8
GLASS
 10
-0.191742
 20
1.438709
 30
0.110702
 70
    64
  0
VERTEX
  8
GLASS
 10
-0.202603
 20
1.739711
 30
0.116973
 70
    64
  0
VERTEX
  8
GLASS
 10
-0.213465
 20
2.040713
 30
0.123244
 70
    64
  0
VERTEX
  8
GLASS
 10
-0.224326
 20
2.341716
 30
0.129515
 70
    64
  0
VERTEX
  8
GLASS
 10
-0.235188
 20
2.642718
 30
0.135786
 70
    64
  0
VERTEX
  8
GLASS
 10
-0.09816
 20
0.836704
 30
0.170019
 70
    64
  0
VERTEX
  8
GLASS
 10
-0.104431
 20
1.137706
 30
0.18088
 70
    64
  0
VERTEX
  8
GLASS
 10
-0.110702
 20
1.438709
 30
0.191742
 70
    64
  0
VERTEX
  8
GLASS
 10
-0.116973
 20
1.739711
 30
0.202603
 70
    64
  0
VERTEX
  8
GLASS
 10
-0.123244
 20
2.040713
 30
0.213465
 70
    64
  0
VERTEX
  8
GLASS
 10
-0.129515
 20
2.341716
 30
0.224326
 70
    64
  0
VERTEX
  8
GLASS
 10
-0.135786
 20
2.642718
 30
0.235188
 70
    64
  0
VERTEX
  8
GLASS
 10
0.0
 20
0.836704
 30
0.196321
 70
    64
  0
VERTEX
  8
GLASS
 10
0.0
 20
1.137706
 30
0.208863
 70
    64
  0
VERTEX
  8
GLASS
 10
0.0
 20
1.438709
 30
0.221405
 70
    64
  0
VERTEX
  8
GLASS
 10
0.0
 20
1.739711
 30
0.233946
 70
    64
  0
VERTEX
  8
GLASS
 10
0.0
 20
2.040713
 30
0.246488
 70
    64
  0
VERTEX
  8
GLASS
 10
0.0
 20
2.341716
 30
0.25903
 70
    64
  0
VERTEX
  8
GLASS
 10
0.0
 20
2.642718
 30
0.271572
 70
    64
  0
VERTEX
  8
GLASS
 10
0.09816
 20
0.836704
 30
0.170019
 70
    64
  0
VERTEX
  8
GLASS
 10
0.104431
 20
1.137706
 30
0.18088
 70
    64
  0
VERTEX
  8
GLASS
 10
0.110702
 20
1.438709
 30
0.191742
 70
    64
  0
VERTEX
  8
GLASS
 10
0.116973
 20
1.739711
 30
0.202603
 70
    64
  0
VERTEX
  8
GLASS
 10
0.123244
 20
2.040713
 30
0.213465
 70
    64
  0
VERTEX
  8
GLASS
 10
0.129515
 20
2.341716
 30
0.224326
 70
    64
  0
VERTEX
  8
GLASS
 10
0.135786
 20
2.642718
 30
0.235188
 70
    64
  0
VERTEX
  8
GLASS
 10
0.170019
 20
0.836704
 30
0.09816
 70
    64
  0
VERTEX
  8
GLASS
 10
0.18088
 20
1.137706
 30
0.104431
 70
    64
  0
VERTEX
  8
GLASS
 10
0.191742
 20
1.438709
 30
0.110702
 70
    64
  0
VERTEX
  8
GLASS
 10
0.202603
 20
1.739711
 30
0.116973
 70
    64
  0
VERTEX
  8
GLASS
 10
0.213465
 20
2.040713
 30
0.123244
 70
    64
  0
VERTEX
  8
GLASS
 10
0.224326
 20
2.341716
 30
0.129515
 70
    64
  0
VERTEX
  8
GLASS
 10
0.235188
 20
2.642718
 30
0.135786
 70
    64
  0
SEQEND
  8
GLASS
  0
POLYLINE
  8
GLASS
 66
     1
 10
0.0
 20
0.0
 30
0.0
 70
    17
 71
    12
 72
     7
  0
VERTEX
  8
GLASS
 10
0.0
 20
0.0
 30
0.0
 70
    64
  0
VERTEX
  8
GLASS
 10
0.25
 20
0.0
 30
0.0
 70
    64
  0
VERTEX
  8
GLASS
 10
0.5
 20
0.0
 30
0.0
 70
    64
  0
VERTEX
  8
GLASS
 10
0.75
 20
0.0
 30
0.0
 70
    64
  0
VERTEX
  8
GLASS
 10
1.0
 20
0.0
 30
0.0
 70
    64
  0
VERTEX
  8
GLASS
 10
1.25
 20
0.0
 30
0.0
 70
    64
  0
VERTEX
  8
GLASS
 10
1.5
 20
0.0
 30
0.0
 70
    64
  0
VERTEX
  8
GLASS
 10
0.0
 20
0.0
 30
0.0
 70
    64
  0
VERTEX
  8
GLASS
 10
0.216506
 20
0.0
 30
-0.125
 70
    64
  0
VERTEX
  8
GLASS
 10
0.433013
 20
0.0
 30
-0.25
 70
    64
  0
VERTEX
  8
GLASS
 10
0.649519
 20
0.0
 30
-0.375
 70
    64
  0
VERTEX
  8
GLASS
 10
0.866025
 20
0.0
 30
-0.5
 70
    64
  0
VERTEX
  8
GLASS
 10
1.082532
 20
0.0
 30
-0.625
 70
    64
  0
VERTEX
  8
GLASS
 10
1.299038
 20
0.0
 30
-0.75
 70
    64
  0
VERTEX
  8
GLASS
 10
0.0
 20
0.0
 30
0.0
 70
    64
  0
VERTEX
  8
GLASS
 10
0.125
 20
0.0
 30
-0.216506
 70
    64
  0
VERTEX
  8
GLASS
 10
0.25
 20
0.0
 30
-0.433013
 70
    64
  0
VERTEX
  8
GLASS
 10
0.375
 20
0.0
 30
-0.649519
 70
    64
  0
VERTEX
  8
GLASS
 10
0.5
 20
0.0
 30
-0.866025
 70
    64
  0
VERTEX
  8
GLASS
 10
0.625
 20
0.0
 30
-1.082532
 70
    64
  0
VERTEX
  8
GLASS
 10
0.75
 20
0.0
 30
-1.299038
 70
    64
  0
VERTEX
  8
GLASS
 10
0.0
 20
0.0
 30
0.0
 70
    64
  0
VERTEX
  8
GLASS
 10
0.0
 20
0.0
 30
-0.25
 70
    64
  0
VERTEX
  8
GLASS
 10
0.0
 20
0.0
 30
-0.5
 70
    64
  0
VERTEX
  8
GLASS
 10
0.0
 20
0.0
 30
-0.75
 70
    64
  0
VERTEX
  8
GLASS
 10
0.0
 20
0.0
 30
-1.0
 70
    64
  0
VERTEX
  8
GLASS
 10
0.0
 20
0.0
 30
-1.25
 70
    64
  0
VERTEX
  8
GLASS
 10
0.0
 20
0.0
 30
-1.5
 70
    64
  0
VERTEX
  8
GLASS
 10
0.0
 20
0.0
 30
0.0
 70
    64
  0
VERTEX
  8
GLASS
 10
-0.125
 20
0.0
 30
-0.216506
 70
    64
  0
VERTEX
  8
GLASS
 10
-0.25
 20
0.0
 30
-0.433013
 70
    64
  0
VERTEX
  8
GLASS
 10
-0.375
 20
0.0
 30
-0.649519
 70
    64
  0
VERTEX
  8
GLASS
 10
-0.5
 20
0.0
 30
-0.866025
 70
    64
  0
VERTEX
  8
GLASS
 10
-0.625
 20
0.0
 30
-1.082532
 70
    64
  0
VERTEX
  8
GLASS
 10
-0.75
 20
0.0
 30
-1.299038
 70
    64
  0
VERTEX
  8
GLASS
 10
0.0
 20
0.0
 30
0.0
 70
    64
  0
VERTEX
  8
GLASS
 10
-0.216506
 20
0.0
 30
-0.125
 70
    64
  0
VERTEX
  8
GLASS
 10
-0.433013
 20
0.0
 30
-0.25
 70
    64
  0
VERTEX
  8
GLASS
 10
-0.649519
 20
0.0
 30
-0.375
 70
    64
  0
VERTEX
  8
GLASS
 10
-0.866025
 20
0.0
 30
-0.5
 70
    64
  0
VERTEX
  8
GLASS
 10
-1.082532
 20
0.0
 30
-0.625
 70
    64
  0
VERTEX
  8
GLASS
 10
-1.299038
 20
0.0
 30
-0.75
 70
    64
  0
VERTEX
  8
GLASS
 10
0.0
 20
0.0
 30
0.0
 70
    64
  0
VERTEX
  8
GLASS
 10
-0.25
 20
0.0
 30
-0.0
 70
    64
  0
VERTEX
  8
GLASS
 10
-0.5
 20
0.0
 30
-0.0
 70
    64
  0
VERTEX
  8
GLASS
 10
-0.75
 20
0.0
 30
-0.0
 70
    64
  0
VERTEX
  8
GLASS
 10
-1.0
 20
0.0
 30
-0.0
 70
    64
  0
VERTEX
  8
GLASS
 10
-1.25
 20
0.0
 30
-0.0
 70
    64
  0
VERTEX
  8
GLASS
 10
-1.5
 20
0.0
 30
-0.0
 70
    64
  0
VERTEX
  8
GLASS
 10
0.0
 20
0.0
 30
0.0
 70
    64
  0
VERTEX
  8
GLASS
 10
-0.216506
 20
0.0
 30
0.125
 70
    64
  0
VERTEX
  8
GLASS
 10
-0.433013
 20
0.0
 30
0.25
 70
    64
  0
VERTEX
  8
GLASS
 10
-0.649519
 20
0.0
 30
0.375
 70
    64
  0
VERTEX
  8
GLASS
 10
-0.866025
 20
0.0
 30
0.5
 70
    64
  0
VERTEX
  8
GLASS
 10
-1.082532
 20
0.0
 30
0.625
 70
    64
  0
VERTEX
  8
GLASS
 10
-1.299038
 20
0.0
 30
0.75
 70
    64
  0
VERTEX
  8
GLASS
 10
0.0
 20
0.0
 30
0.0
 70
    64
  0
VERTEX
  8
GLASS
 10
-0.125
 20
0.0
 30
0.216506
 70
    64
  0
VERTEX
  8
GLASS
 10
-0.25
 20
0.0
 30
0.433013
 70
    64
  0
VERTEX
  8
GLASS
 10
-0.375
 20
0.0
 30
0.649519
 70
    64
  0
VERTEX
  8
GLASS
 10
-0.5
 20
0.0
 30
0.866025
 70
    64
  0
VERTEX
  8
GLASS
 10
-0.625
 20
0.0
 30
1.082532
 70
    64
  0
VERTEX
  8
GLASS
 10
-0.75
 20
0.0
 30
1.299038
 70
    64
  0
VERTEX
  8
GLASS
 10
0.0
 20
0.0
 30
0.0
 70
    64
  0
VERTEX
  8
GLASS
 10
0.0
 20
0.0
 30
0.25
 70
    64
  0
VERTEX
  8
GLASS
 10
0.0
 20
0.0
 30
0.5
 70
    64
  0
VERTEX
  8
GLASS
 10
0.0
 20
0.0
 30
0.75
 70
    64
  0
VERTEX
  8
GLASS
 10
0.0
 20
0.0
 30
1.0
 70
    64
  0
VERTEX
  8
GLASS
 10
0.0
 20
0.0
 30
1.25
 70
    64
  0
VERTEX
  8
GLASS
 10
0.0
 20
0.0
 30
1.5
 70
    64
  0
VERTEX
  8
GLASS
 10
0.0
 20
0.0
 30
0.0
 70
    64
  0
VERTEX
  8
GLASS
 10
0.125
 20
0.0
 30
0.216506
 70
    64
  0
VERTEX
  8
GLASS
 10
0.25
 20
0.0
 30
0.433013
 70
    64
  0
VERTEX
  8
GLASS
 10
0.375
 20
0.0
 30
0.649519
 70
    64
  0
VERTEX
  8
GLASS
 10
0.5
 20
0.0
 30
0.866025
 70
    64
  0
VERTEX
  8
GLASS
 10
0.625
 20
0.0
 30
1.082532
 70
    64
  0
VERTEX
  8
GLASS
 10
0.75
 20
0.0
 30
1.299038
 70
    64
  0
VERTEX
  8
GLASS
 10
0.0
 20
0.0
 30
0.0
 70
    64
  0
VERTEX
  8
GLASS
 10
0.216506
 20
0.0
 30
0.125
 70
    64
  0
VERTEX
  8
GLASS
 10
0.433013
 20
0.0
 30
0.25
 70
    64
  0
VERTEX
  8
GLASS
 10
0.649519
 20
0.0
 30
0.375
 70
    64
  0
VERTEX
  8
GLASS
 10
0.866025
 20
0.0
 30
0.5
 70
    64
  0
VERTEX
  8
GLASS
 10
1.082532
 20
0.0
 30
0.625
 70
    64
  0
VERTEX
  8
GLASS
 10
1.299038
 20
0.0
 30
0.75
 70
    64
  0
SEQEND
  8
GLASS
  0
POLYLINE
  8
GLASS
 66
     1
 10
0.0
 20
0.0
 30
0.0
 70
    17
 71
    12
 72
     7
  0
VERTEX
  8
GLASS
 10
0.0
 20
0.0
 30
0.0
 70
    64
  0
VERTEX
  8
GLASS
 10
0.0
 20
0.541667
 30
0.0
 70
    64
  0
VERTEX
  8
GLASS
 10
0.0
 20
1.083333
 30
0.0
 70
    64
  0
VERTEX
  8
GLASS
 10
0.0
 20
1.625
 30
0.0
 70
    64
  0
VERTEX
  8
GLASS
 10
0.0
 20
2.166667
 30
0.0
 70
    64
  0
VERTEX
  8
GLASS
 10
0.0
 20
2.708333
 30
0.0
 70
    64
  0
VERTEX
  8
GLASS
 10
0.0
 20
3.25
 30
0.0
 70
    64
  0
VERTEX
  8
GLASS
 10
0.0
 20
0.0
 30
0.0
 70
    64
  0
VERTEX
  8
GLASS
 10
0.0
 20
0.541667
 30
0.0
 70
    64
  0
VERTEX
  8
GLASS
 10
0.0
 20
1.083333
 30
0.0
 70
    64
  0
VERTEX
  8
GLASS
 10
0.0
 20
1.625
 30
0.0
 70
    64
  0
VERTEX
  8
GLASS
 10
0.0
 20
2.166667
 30
0.0
 70
    64
  0
VERTEX
  8
GLASS
 10
0.0
 20
2.708333
 30
0.0
 70
    64
  0
VERTEX
  8
GLASS
 10
0.0
 20
3.25
 30
0.0
 70
    64
  0
VERTEX
  8
GLASS
 10
0.0
 20
0.0
 30
0.0
 70
    64
  0
VERTEX
  8
GLASS
 10
0.0
 20
0.541667
 30
0.0
 70
    64
  0
VERTEX
  8
GLASS
 10
0.0
 20
1.083333
 30
0.0
 70
    64
  0
VERTEX
  8
GLASS
 10
0.0
 20
1.625
 30
0.0
 70
    64
  0
VERTEX
  8
GLASS
 10
0.0
 20
2.166667
 30
0.0
 70
    64
  0
VERTEX
  8
GLASS
 10
0.0
 20
2.708333
 30
0.0
 70
    64
  0
VERTEX
  8
GLASS
 10
0.0
 20
3.25
 30
0.0
 70
    64
  0
VERTEX
  8
GLASS
 10
0.0
 20
0.0
 30
0.0
 70
    64
  0
VERTEX
  8
GLASS
 10
0.0
 20
0.541667
 30
0.0
 70
    64
  0
VERTEX
  8
GLASS
 10
0.0
 20
1.083333
 30
0.0
 70
    64
  0
VERTEX
  8
GLASS
 10
0.0
 20
1.625
 30
0.0
 70
    64
  0
VERTEX
  8
GLASS
 10
0.0
 20
2.166667
 30
0.0
 70
    64
  0
VERTEX
  8
GLASS
 10
0.0
 20
2.708333
 30
0.0
 70
    64
  0
VERTEX
  8
GLASS
 10
0.0
 20
3.25
 30
0.0
 70
    64
  0
VERTEX
  8
GLASS
 10
0.0
 20
0.0
 30
0.0
 70
    64
  0
VERTEX
  8
GLASS
 10
0.0
 20
0.541667
 30
0.0
 70
    64
  0
VERTEX
  8
GLASS
 10
0.0
 20
1.083333
 30
0.0
 70
    64
  0
VERTEX
  8
GLASS
 10
0.0
 20
1.625
 30
0.0
 70
    64
  0
VERTEX
  8
GLASS
 10
0.0
 20
2.166667
 30
0.0
 70
    64
  0
VERTEX
  8
GLASS
 10
0.0
 20
2.708333
 30
0.0
 70
    64
  0
VERTEX
  8
GLASS
 10
0.0
 20
3.25
 30
0.0
 70
    64
  0
VERTEX
  8
GLASS
 10
0.0
 20
0.0
 30
0.0
 70
    64
  0
VERTEX
  8
GLASS
 10
0.0
 20
0.541667
 30
0.0
 70
    64
  0
VERTEX
  8
GLASS
 10
0.0
 20
1.083333
 30
0.0
 70
    64
  0
VERTEX
  8
GLASS
 10
0.0
 20
1.625
 30
0.0
 70
    64
  0
VERTEX
  8
GLASS
 10
0.0
 20
2.166667
 30
0.0
 70
    64
  0
VERTEX
  8
GLASS
 10
0.0
 20
2.708333
 30
0.0
 70
    64
  0
VERTEX
  8
GLASS
 10
0.0
 20
3.25
 30
0.0
 70
    64
  0
VERTEX
  8
GLASS
 10
0.0
 20
0.0
 30
0.0
 70
    64
  0
VERTEX
  8
GLASS
 10
0.0
 20
0.541667
 30
0.0
 70
    64
  0
VERTEX
  8
GLASS
 10
0.0
 20
1.083333
 30
0.0
 70
    64
  0
VERTEX
  8
GLASS
 10
0.0
 20
1.625
 30
0.0
 70
    64
  0
VERTEX
  8
GLASS
 10
0.0
 20
2.166667
 30
0.0
 70
    64
  0
VERTEX
  8
GLASS
 10
0.0
 20
2.708333
 30
0.0
 70
    64
  0
VERTEX
  8
GLASS
 10
0.0
 20
3.25
 30
0.0
 70
    64
  0
VERTEX
  8
GLASS
 10
0.0
 20
0.0
 30
0.0
 70
    64
  0
VERTEX
  8
GLASS
 10
0.0
 20
0.541667
 30
0.0
 70
    64
  0
VERTEX
  8
GLASS
 10
0.0
 20
1.083333
 30
0.0
 70
    64
  0
VERTEX
  8
GLASS
 10
0.0
 20
1.625
 30
0.0
 70
    64
  0
VERTEX
  8
GLASS
 10
0.0
 20
2.166667
 30
0.0
 70
    64
  0
VERTEX
  8
GLASS
 10
0.0
 20
2.708333
 30
0.0
 70
    64
  0
VERTEX
  8
GLASS
 10
0.0
 20
3.25
 30
0.0
 70
    64
  0
VERTEX
  8
GLASS
 10
0.0
 20
0.0
 30
0.0
 70
    64
  0
VERTEX
  8
GLASS
 10
0.0
 20
0.541667
 30
0.0
 70
    64
  0
VERTEX
  8
GLASS
 10
0.0
 20
1.083333
 30
0.0
 70
    64
  0
VERTEX
  8
GLASS
 10
0.0
 20
1.625
 30
0.0
 70
    64
  0
VERTEX
  8
GLASS
 10
0.0
 20
2.166667
 30
0.0
 70
    64
  0
VERTEX
  8
GLASS
 10
0.0
 20
2.708333
 30
0.0
 70
    64
  0
VERTEX
  8
GLASS
 10
0.0
 20
3.25
 30
0.0
 70
    64
  0
VERTEX
  8
GLASS
 10
0.0
 20
0.0
 30
0.0
 70
    64
  0
VERTEX
  8
GLASS
 10
0.0
 20
0.541667
 30
0.0
 70
    64
  0
VERTEX
  8
GLASS
 10
0.0
 20
1.083333
 30
0.0
 70
    64
  0
VERTEX
  8
GLASS
 10
0.0
 20
1.625
 30
0.0
 70
    64
  0
VERTEX
  8
GLASS
 10
0.0
 20
2.166667
 30
0.0
 70
    64
  0
VERTEX
  8
GLASS
 10
0.0
 20
2.708333
 30
0.0
 70
    64
  0
VERTEX
  8
GLASS
 10
0.0
 20
3.25
 30
0.0
 70
    64
  0
VERTEX
  8
GLASS
 10
0.0
 20
0.0
 30
0.0
 70
    64
  0
VERTEX
  8
GLASS
 10
0.0
 20
0.541667
 30
0.0
 70
    64
  0
VERTEX
  8
GLASS
 10
0.0
 20
1.083333
 30
0.0
 70
    64
  0
VERTEX
  8
GLASS
 10
0.0
 20
1.625
 30
0.0
 70
    64
  0
VERTEX
  8
GLASS
 10
0.0
 20
2.166667
 30
0.0
 70
    64
  0
VERTEX
  8
GLASS
 10
0.0
 20
2.708333
 30
0.0
 70
    64
  0
VERTEX
  8
GLASS
 10
0.0
 20
3.25
 30
0.0
 70
    64
  0
VERTEX
  8
GLASS
 10
0.0
 20
0.0
 30
0.0
 70
    64
  0
VERTEX
  8
GLASS
 10
0.0
 20
0.541667
 30
0.0
 70
    64
  0
VERTEX
  8
GLASS
 10
0.0
 20
1.083333
 30
0.0
 70
    64
  0
VERTEX
  8
GLASS
 10
0.0
 20
1.625
 30
0.0
 70
    64
  0
VERTEX
  8
GLASS
 10
0.0
 20
2.166667
 30
0.0
 70
    64
  0
VERTEX
  8
GLASS
 10
0.0
 20
2.708333
 30
0.0
 70
    64
  0
VERTEX
  8
GLASS
 10
0.0
 20
3.25
 30
0.0
 70
    64
  0
SEQEND
  8
GLASS
  0
POLYLINE
  8
GLASS
 66
     1
 10
0.0
 20
0.0
 30
0.0
 70
    17
 71
    12
 72
     7
  0
VERTEX
  8
GLASS
 10
1.75
 20
5.0
 30
0.0
 70
    64
  0
VERTEX
  8
GLASS
 10
1.75
 20
5.145833
 30
0.0
 70
    64
  0
VERTEX
  8
GLASS
 10
1.75
 20
5.291667
 30
0.0
 70
    64
  0
VERTEX
  8
GLASS
 10
1.75
 20
5.4375
 30
0.0
 70
    64
  0
VERTEX
  8
GLASS
 10
1.75
 20
5.583333
 30
0.0
 70
    64
  0
VERTEX
  8
GLASS
 10
1.75
 20
5.729167
 30
0.0
 70
    64
  0
VERTEX
  8
GLASS
 10
1.75
 20
5.875
 30
0.0
 70
    64
  0
VERTEX
  8
GLASS
 10
1.515544
 20
5.0
 30
-0.875
 70
    64
  0
VERTEX
  8
GLASS
 10
1.515544
 20
5.145833
 30
-0.875
 70
    64
  0
VERTEX
  8
GLASS
 10
1.515544
 20
5.291667
 30
-0.875
 70
    64
  0
VERTEX
  8
GLASS
 10
1.515544
 20
5.4375
 30
-0.875
 70
    64
  0
VERTEX
  8
GLASS
 10
1.515544
 20
5.583333
 30
-0.875
 70
    64
  0
VERTEX
  8
GLASS
 10
1.515544
 20
5.729167
 30
-0.875
 70
    64
  0
VERTEX
  8
GLASS
 10
1.515544
 20
5.875
 30
-0.875
 70
    64
  0
VERTEX
  8
GLASS
 10
0.875
 20
5.0
 30
-1.515544
 70
    64
  0
VERTEX
  8
GLASS
 10
0.875
 20
5.145833
 30
-1.515544
 70
    64
  0
VERTEX
  8
GLASS
 10
0.875
 20
5.291667
 30
-1.515544
 70
    64
  0
VERTEX
  8
GLASS
 10
0.875
 20
5.4375
 30
-1.515544
 70
    64
  0
VERTEX
  8
GLASS
 10
0.875
 20
5.583333
 30
-1.515544
 70
    64
  0
VERTEX
  8
GLASS
 10
0.875
 20
5.729167
 30
-1.515544
 70
    64
  0
VERTEX
  8
GLASS
 10
0.875
 20
5.875
 30
-1.515544
 70
    64
  0
VERTEX
  8
GLASS
 10
0.0
 20
5.0
 30
-1.75
 70
    64
  0
VERTEX
  8
GLASS
 10
0.0
 20
5.145833
 30
-1.75
 70
    64
  0
VERTEX
  8
GLASS
 10
0.0
 20
5.291667
 30
-1.75
 70
    64
  0
VERTEX
  8
GLASS
 10
0.0
 20
5.4375
 30
-1.75
 70
    64
  0
VERTEX
  8
GLASS
 10
0.0
 20
5.583333
 30
-1.75
 70
    64
  0
VERTEX
  8
GLASS
 10
0.0
 20
5.729167
 30
-1.75
 70
    64
  0
VERTEX
  8
GLASS
 10
0.0
 20
5.875
 30
-1.75
 70
    64
  0
VERTEX
  8
GLASS
 10
-0.875
 20
5.0
 30
-1.515544
 70
    64
  0
VERTEX
  8
GLASS
 10
-0.875
 20
5.145833
 30
-1.515544
 70
    64
  0
VERTEX
  8
GLASS
 10
-0.875
 20
5.291667
 30
-1.515544
 70
    64
  0
VERTEX
  8
GLASS
 10
-0.875
 20
5.4375
 30
-1.515544
 70
    64
  0
VERTEX
  8
GLASS
 10
-0.875
 20
5.583333
 30
-1.515544
 70
    64
  0
VERTEX
  8
GLASS
 10
-0.875
 20
5.729167
 30
-1.515544
 70
    64
  0
VERTEX
  8
GLASS
 10
-0.875
 20
5.875
 30
-1.515544
 70
    64
  0
VERTEX
  8
GLASS
 10
-1.515544
 20
5.0
 30
-0.875
 70
    64
  0
VERTEX
  8
GLASS
 10
-1.515544
 20
5.145833
 30
-0.875
 70
    64
  0
VERTEX
  8
GLASS
 10
-1.515544
 20
5.291667
 30
-0.875
 70
    64
  0
VERTEX
  8
GLASS
 10
-1.515544
 20
5.4375
 30
-0.875
 70
    64
  0
VERTEX
  8
GLASS
 10
-1.515544
 20
5.583333
 30
-0.875
 70
    64
  0
VERTEX
  8
GLASS
 10
-1.515544
 20
5.729167
 30
-0.875
 70
    64
  0
VERTEX
  8
GLASS
 10
-1.515544
 20
5.875
 30
-0.875
 70
    64
  0
VERTEX
  8
GLASS
 10
-1.75
 20
5.0
 30
-0.0
 70
    64
  0
VERTEX
  8
GLASS
 10
-1.75
 20
5.145833
 30
-0.0
 70
    64
  0
VERTEX
  8
GLASS
 10
-1.75
 20
5.291667
 30
-0.0
 70
    64
  0
VERTEX
  8
GLASS
 10
-1.75
 20
5.4375
 30
-0.0
 70
    64
  0
VERTEX
  8
GLASS
 10
-1.75
 20
5.583333
 30
-0.0
 70
    64
  0
VERTEX
  8
GLASS
 10
-1.75
 20
5.729167
 30
-0.0
 70
    64
  0
VERTEX
  8
GLASS
 10
-1.75
 20
5.875
 30
-0.0
 70
    64
  0
VERTEX
  8
GLASS
 10
-1.515544
 20
5.0
 30
0.875
 70
    64
  0
VERTEX
  8
GLASS
 10
-1.515544
 20
5.145833
 30
0.875
 70
    64
  0
VERTEX
  8
GLASS
 10
-1.515544
 20
5.291667
 30
0.875
 70
    64
  0
VERTEX
  8
GLASS
 10
-1.515544
 20
5.4375
 30
0.875
 70
    64
  0
VERTEX
  8
GLASS
 10
-1.515544
 20
5.583333
 30
0.875
 70
    64
  0
VERTEX
  8
GLASS
 10
-1.515544
 20
5.729167
 30
0.875
 70
    64
  0
VERTEX
  8
GLASS
 10
-1.515544
 20
5.875
 30
0.875
 70
    64
  0
VERTEX
  8
GLASS
 10
-0.875
 20
5.0
 30
1.515544
 70
    64
  0
VERTEX
  8
GLASS
 10
-0.875
 20
5.145833
 30
1.515544
 70
    64
  0
VERTEX
  8
GLASS
 10
-0.875
 20
5.291667
 30
1.515544
 70
    64
  0
VERTEX
  8
GLASS
 10
-0.875
 20
5.4375
 30
1.515544
 70
    64
  0
VERTEX
  8
GLASS
 10
-0.875
 20
5.583333
 30
1.515544
 70
    64
  0
VERTEX
  8
GLASS
 10
-0.875
 20
5.729167
 30
1.515544
 70
    64
  0
VERTEX
  8
GLASS
 10
-0.875
 20
5.875
 30
1.515544
 70
    64
  0
VERTEX
  8
GLASS
 10
0.0
 20
5.0
 30
1.75
 70
    64
  0
VERTEX
  8
GLASS
 10
0.0
 20
5.145833
 30
1.75
 70
    64
  0
VERTEX
  8
GLASS
 10
0.0
 20
5.291667
 30
1.75
 70
    64
  0
VERTEX
  8
GLASS
 10
0.0
 20
5.4375
 30
1.75
 70
    64
  0
VERTEX
  8
GLASS
 10
0.0
 20
5.583333
 30
1.75
 70
    64
  0
VERTEX
  8
GLASS
 10
0.0
 20
5.729167
 30
1.75
 70
    64
  0
VERTEX
  8
GLASS
 10
0.0
 20
5.875
 30
1.75
 70
    64
  0
VERTEX
  8
GLASS
 10
0.875
 20
5.0
 30
1.515544
 70
    64
  0
VERTEX
  8
GLASS
 10
0.875
 20
5.145833
 30
1.515544
 70
    64
  0
VERTEX
  8
GLASS
 10
0.875
 20
5.291667
 30
1.515544
 70
    64
  0
VERTEX
  8
GLASS
 10
0.875
 20
5.4375
 30
1.515544
 70
    64
  0
VERTEX
  8
GLASS
 10
0.875
 20
5.583333
 30
1.515544
 70
    64
  0
VERTEX
  8
GLASS
 10
0.875
 20
5.729167
 30
1.515544
 70
    64
  0
VERTEX
  8
GLASS
 10
0.875
 20
5.875
 30
1.515544
 70
    64
  0
VERTEX
  8
GLASS
 10
1.515544
 20
5.0
 30
0.875
 70
    64
  0
VERTEX
  8
GLASS
 10
1.515544
 20
5.145833
 30
0.875
 70
    64
  0
VERTEX
  8
GLASS
 10
1.515544
 20
5.291667
 30
0.875
 70
    64
  0
VERTEX
  8
GLASS
 10
1.515544
 20
5.4375
 30
0.875
 70
    64
  0
VERTEX
  8
GLASS
 10
1.515544
 20
5.583333
 30
0.875
 70
    64
  0
VERTEX
  8
GLASS
 10
1.515544
 20
5.729167
 30
0.875
 70
    64
  0
VERTEX
  8
GLASS
 10
1.515544
 20
5.875
 30
0.875
 70
    64
  0
SEQEND
  8
GLASS
  0
POLYLINE
  8
GLASS
 66
     1
 10
0.0
 20
0.0
 30
0.0
 70
    17
 71
    12
 72
     7
  0
VERTEX
  8
GLASS
 10
1.75
 20
5.0
 30
0.0
 70
    64
  0
VERTEX
  8
GLASS
 10
1.69037
 20
4.547067
 30
0.0
 70
    64
  0
VERTEX
  8
GLASS
 10
1.515544
 20
4.125
 30
0.0
 70
    64
  0
VERTEX
  8
GLASS
 10
1.237437
 20
3.762563
 30
0.0
 70
    64
  0
VERTEX
  8
GLASS
 10
0.875
 20
3.484456
 30
0.0
 70
    64
  0
VERTEX
  8
GLASS
 10
0.452933
 20
3.30963
 30
0.0
 70
    64
  0
VERTEX
  8
GLASS
 10
0.0
 20
3.25
 30
0.0
 70
    64
  0
VERTEX
  8
GLASS
 10
1.515544
 20
5.0
 30
-0.875
 70
    64
  0
VERTEX
  8
GLASS
 10
1.463904
 20
4.547067
 30
-0.845185
 70
    64
  0
VERTEX
  8
GLASS
 10
1.3125
 20
4.125
 30
-0.757772
 70
    64
  0
VERTEX
  8
GLASS
 10
1.071652
 20
3.762563
 30
-0.618718
 70
    64
  0
VERTEX
  8
GLASS
 10
0.757772
 20
3.484456
 30
-0.4375
 70
    64
  0
VERTEX
  8
GLASS
 10
0.392252
 20
3.30963
 30
-0.226467
 70
    64
  0
VERTEX
  8
GLASS
 10
0.0
 20
3.25
 30
-0.0
 70
    64
  0
VERTEX
  8
GLASS
 10
0.875
 20
5.0
 30
-1.515544
 70
    64
  0
VERTEX
  8
GLASS
 10
0.845185
 20
4.547067
 30
-1.463904
 70
    64
  0
VERTEX
  8
GLASS
 10
0.757772
 20
4.125
 30
-1.3125
 70
    64
  0
VERTEX
  8
GLASS
 10
0.618718
 20
3.762563
 30
-1.071652
 70
    64
  0
VERTEX
  8
GLASS
 10
0.4375
 20
3.484456
 30
-0.757772
 70
    64
  0
VERTEX
  8
GLASS
 10
0.226467
 20
3.30963
 30
-0.392252
 70
    64
  0
VERTEX
  8
GLASS
 10
0.0
 20
3.25
 30
-0.0
 70
    64
  0
VERTEX
  8
GLASS
 10
0.0
 20
5.0
 30
-1.75
 70
    64
  0
VERTEX
  8
GLASS
 10
0.0
 20
4.547067
 30
-1.69037
 70
    64
  0
VERTEX
  8
GLASS
 10
0.0
 20
4.125
 30
-1.515544
 70
    64
  0
VERTEX
  8
GLASS
 10
0.0
 20
3.762563
 30
-1.237437
 70
    64
  0
VERTEX
  8
GLASS
 10
0.0
 20
3.484456
 30
-0.875
 70
    64
  0
VERTEX
  8
GLASS
 10
0.0
 20
3.30963
 30
-0.452933
 70
    64
  0
VERTEX
  8
GLASS
 10
0.0
 20
3.25
 30
-0.0
 70
    64
  0
VERTEX
  8
GLASS
 10
-0.875
 20
5.0
 30
-1.515544
 70
    64
  0
VERTEX
  8
GLASS
 10
-0.845185
 20
4.547067
 30
-1.463904
 70
    64
  0
VERTEX
  8
GLASS
 10
-0.757772
 20
4.125
 30
-1.3125
 70
    64
  0
VERTEX
  8
GLASS
 10
-0.618718
 20
3.762563
 30
-1.071652
 70
    64
  0
VERTEX
  8
GLASS
 10
-0.4375
 20
3.484456
 30
-0.757772
 70
    64
  0
VERTEX
  8
GLASS
 10
-0.226467
 20
3.30963
 30
-0.392252
 70
    64
  0
VERTEX
  8
GLASS
 10
-0.0
 20
3.25
 30
-0.0
 70
    64
  0
VERTEX
  8
GLASS
 10
-1.515544
 20
5.0
 30
-0.875
 70
    64
  0
VERTEX
  8
GLASS
 10
-1.463904
 20
4.547067
 30
-0.845185
 70
    64
  0
VERTEX
  8
GLASS
 10
-1.3125
 20
4.125
 30
-0.757772
 70
    64
  0
VERTEX
  8
GLASS
 10
-1.071652
 20
3.762563
 30
-0.618718
 70
    64
  0
VERTEX
  8
GLASS
 10
-0.757772
 20
3.484456
 30
-0.4375
 70
    64
  0
VERTEX
  8
GLASS
 10
-0.392252
 20
3.30963
 30
-0.226467
 70
    64
  0
VERTEX
  8
GLASS
 10
-0.0
 20
3.25
 30
-0.0
 70
    64
  0
VERTEX
  8
GLASS
 10
-1.75
 20
5.0
 30
-0.0
 70
    64
  0
VERTEX
  8
GLASS
 10
-1.69037
 20
4.547067
 30
-0.0
 70
    64
  0
VERTEX
  8
GLASS
 10
-1.515544
 20
4.125
 30
-0.0
 70
    64
  0
VERTEX
  8
GLASS
 10
-1.237437
 20
3.762563
 30
-0.0
 70
    64
  0
VERTEX
  8
GLASS
 10
-0.875
 20
3.484456
 30
-0.0
 70
    64
  0
VERTEX
  8
GLASS
 10
-0.452933
 20
3.30963
 30
-0.0
 70
    64
  0
VERTEX
  8
GLASS
 10
-0.0
 20
3.25
 30
-0.0
 70
    64
  0
VERTEX
  8
GLASS
 10
-1.515544
 20
5.0
 30
0.875
 70
    64
  0
VERTEX
  8
GLASS
 10
-1.463904
 20
4.547067
 30
0.845185
 70
    64
  0
VERTEX
  8
GLASS
 10
-1.3125
 20
4.125
 30
0.757772
 70
    64
  0
VERTEX
  8
GLASS
 10
-1.071652
 20
3.762563
 30
0.618718
 70
    64
  0
VERTEX
  8
GLASS
 10
-0.757772
 20
3.484456
 30
0.4375
 70
    64
  0
VERTEX
  8
GLASS
 10
-0.392252
 20
3.30963
 30
0.226467
 70
    64
  0
VERTEX
  8
GLASS
 10
-0.0
 20
3.25
 30
0.0
 70
    64
  0
VERTEX
  8
GLASS
 10
-0.875
 20
5.0
 30
1.515544
 70
    64
  0
VERTEX
  8
GLASS
 10
-0.845185
 20
4.547067
 30
1.463904
 70
    64
  0
VERTEX
  8
GLASS
 10
-0.757772
 20
4.125
 30
1.3125
 70
    64
  0
VERTEX
  8
GLASS
 10
-0.618718
 20
3.762563
 30
1.071652
 70
    64
  0
VERTEX
  8
GLASS
 10
-0.4375
 20
3.484456
 30
0.757772
 70
    64
  0
VERTEX
  8
GLASS
 10
-0.226467
 20
3.30963
 30
0.392252
 70
    64
  0
VERTEX
  8
GLASS
 10
-0.0
 20
3.25
 30
0.0
 70
    64
  0
VERTEX
  8
GLASS
 10
0.0
 20
5.0
 30
1.75
 70
    64
  0
VERTEX
  8
GLASS
 10
0.0
 20
4.547067
 30
1.69037
 70
    64
  0
VERTEX
  8
GLASS
 10
0.0
 20
4.125
 30
1.515544
 70
    64
  0
VERTEX
  8
GLASS
 10
0.0
 20
3.762563
 30
1.237437
 70
    64
  0
VERTEX
  8
GLASS
 10
0.0
 20
3.484456
 30
0.875
 70
    64
  0
VERTEX
  8
GLASS
 10
0.0
 20
3.30963
 30
0.452933
 70
    64
  0
VERTEX
  8
GLASS
 10
0.0
 20
3.25
 30
0.0
 70
    64
  0
VERTEX
  8
GLASS
 10
0.875
 20
5.0
 30
1.515544
 70
    64
  0
VERTEX
  8
GLASS
 10
0.845185
 20
4.547067
 30
1.463904
 70
    64
  0
VERTEX
  8
GLASS
 10
0.757772
 20
4.125
 30
1.3125
 70
    64
  0
VERTEX
  8
GLASS
 10
0.618718
 20
3.762563
 30
1.071652
 70
    64
  0
VERTEX
  8
GLASS
 10
0.4375
 20
3.484456
 30
0.757772
 70
    64
  0
VERTEX
  8
GLASS
 10
0.226467
 20
3.30963
 30
0.392252
 70
    64
  0
VERTEX
  8
GLASS
 10
0.0
 20
3.25
 30
0.0
 70
    64
  0
VERTEX
  8
GLASS
 10
1.515544
 20
5.0
 30
0.875
 70
    64
  0
VERTEX
  8
GLASS
 10
1.463904
 20
4.547067
 30
0.845185
 70
    64
  0
VERTEX
  8
GLASS
 10
1.3125
 20
4.125
 30
0.757772
 70
    64
  0
VERTEX
  8
GLASS
 10
1.071652
 20
3.762563
 30
0.618718
 70
    64
  0
VERTEX
  8
GLASS
 10
0.757772
 20
3.484456
 30
0.4375
 70
    64
  0
VERTEX
  8
GLASS
 10
0.392252
 20
3.30963
 30
0.226467
 70
    64
  0
VERTEX
  8
GLASS
 10
0.0
 20
3.25
 30
0.0
 70
    64
  0
SEQEND
  8
GLASS
  0
POLYLINE
  8
GLASS
 66
     1
 10
0.0
 20
0.0
 30
0.0
 70
    17
 71
    12
 72
     7
  0
VERTEX
  8
GLASS
 10
1.75
 20
5.875
 30
0.0
 70
    64
  0
VERTEX
  8
GLASS
 10
1.766747
 20
5.9375
 30
0.0
 70
    64
  0
VERTEX
  8
GLASS
 10
1.8125
 20
5.983253
 30
0.0
 70
    64
  0
VERTEX
  8
GLASS
 10
1.875
 20
6.0
 30
0.0
 70
    64
  0
VERTEX
  8
GLASS
 10
1.9375
 20
5.983253
 30
0.0
 70
    64
  0
VERTEX
  8
GLASS
 10
1.983253
 20
5.9375
 30
0.0
 70
    64
  0
VERTEX
  8
GLASS
 10
2.0
 20
5.875
 30
0.0
 70
    64
  0
VERTEX
  8
GLASS
 10
1.515544
 20
5.875
 30
-0.875
 70
    64
  0
VERTEX
  8
GLASS
 10
1.530048
 20
5.9375
 30
-0.883373
 70
    64
  0
VERTEX
  8
GLASS
 10
1.569671
 20
5.983253
 30
-0.90625
 70
    64
  0
VERTEX
  8
GLASS
 10
1.623798
 20
6.0
 30
-0.9375
 70
    64
  0
VERTEX
  8
GLASS
 10
1.677924
 20
5.983253
 30
-0.96875
 70
    64
  0
VERTEX
  8
GLASS
 10
1.717548
 20
5.9375
 30
-0.991627
 70
    64
  0
VERTEX
  8
GLASS
 10
1.732051
 20
5.875
 30
-1.0
 70
    64
  0
VERTEX
  8
GLASS
 10
0.875
 20
5.875
 30
-1.515544
 70
    64
  0
VERTEX
  8
GLASS
 10
0.883373
 20
5.9375
 30
-1.530048
 70
    64
  0
VERTEX
  8
GLASS
 10
0.90625
 20
5.983253
 30
-1.569671
 70
    64
  0
VERTEX
  8
GLASS
 10
0.9375
 20
6.0
 30
-1.623798
 70
    64
  0
VERTEX
  8
GLASS
 10
0.96875
 20
5.983253
 30
-1.677924
 70
    64
  0
VERTEX
  8
GLASS
 10
0.991627
 20
5.9375
 30
-1.717548
 70
    64
  0
VERTEX
  8
GLASS
 10
1.0
 20
5.875
 30
-1.732051
 70
    64
  0
VERTEX
  8
GLASS
 10
0.0
 20
5.875
 30
-1.75
 70
    64
  0
VERTEX
  8
GLASS
 10
0.0
 20
5.9375
 30
-1.766747
 70
    64
  0
VERTEX
  8
GLASS
 10
0.0
 20
5.983253
 30
-1.8125
 70
    64
  0
VERTEX
  8
GLASS
 10
0.0
 20
6.0
 30
-1.875
 70
    64
  0
VERTEX
  8
GLASS
 10
0.0
 20
5.983253
 30
-1.9375
 70
    64
  0
VERTEX
  8
GLASS
 10
0.0
 20
5.9375
 30
-1.983253
 70
    64
  0
VERTEX
  8
GLASS
 10
0.0
 20
5.875
 30
-2.0
 70
    64
  0
VERTEX
  8
GLASS
 10
-0.875
 20
5.875
 30
-1.515544
 70
    64
  0
VERTEX
  8
GLASS
 10
-0.883373
 20
5.9375
 30
-1.530048
 70
    64
  0
VERTEX
  8
GLASS
 10
-0.90625
 20
5.983253
 30
-1.569671
 70
    64
  0
VERTEX
  8
GLASS
 10
-0.9375
 20
6.0
 30
-1.623798
 70
    64
  0
VERTEX
  8
GLASS
 10
-0.96875
 20
5.983253
 30
-1.677924
 70
    64
  0
VERTEX
  8
GLASS
 10
-0.991627
 20
5.9375
 30
-1.717548
 70
    64
  0
VERTEX
  8
GLASS
 10
-1.0
 20
5.875
 30
-1.732051
 70
    64
  0
VERTEX
  8
GLASS
 10
-1.515544
 20
5.875
 30
-0.875
 70
    64
  0
VERTEX
  8
GLASS
 10
-1.530048
 20
5.9375
 30
-0.883373
 70
    64
  0
VERTEX
  8
GLASS
 10
-1.569671
 20
5.983253
 30
-0.90625
 70
    64
  0
VERTEX
  8
GLASS
 10
-1.623798
 20
6.0
 30
-0.9375
 70
    64
  0
VERTEX
  8
GLASS
 10
-1.677924
 20
5.983253
 30
-0.96875
 70
    64
  0
VERTEX
  8
GLASS
 10
-1.717548
 20
5.9375
 30
-0.991627
 70
    64
  0
VERTEX
  8
GLASS
 10
-1.732051
 20
5.875
 30
-1.0
 70
    64
  0
VERTEX
  8
GLASS
 10
-1.75
 20
5.875
 30
-0.0
 70
    64
  0
VERTEX
  8
GLASS
 10
-1.766747
 20
5.9375
 30
-0.0
 70
    64
  0
VERTEX
  8
GLASS
 10
-1.8125
 20
5.983253
 30
-0.0
 70
    64
  0
VERTEX
  8
GLASS
 10
-1.875
 20
6.0
 30
-0.0
 70
    64
  0
VERTEX
  8
GLASS
 10
-1.9375
 20
5.983253
 30
-0.0
 70
    64
  0
VERTEX
  8
GLASS
 10
-1.983253
 20
5.9375
 30
-0.0
 70
    64
  0
VERTEX
  8
GLASS
 10
-2.0
 20
5.875
 30
-0.0
 70
    64
  0
VERTEX
  8
GLASS
 10
-1.515544
 20
5.875
 30
0.875
 70
    64
  0
VERTEX
  8
GLASS
 10
-1.530048
 20
5.9375
 30
0.883373
 70
    64
  0
VERTEX
  8
GLASS
 10
-1.569671
 20
5.983253
 30
0.90625
 70
    64
  0
VERTEX
  8
GLASS
 10
-1.623798
 20
6.0
 30
0.9375
 70
    64
  0
VERTEX
  8
GLASS
 10
-1.677924
 20
5.983253
 30
0.96875
 70
    64
  0
VERTEX
  8
GLASS
 10
-1.717548
 20
5.9375
 30
0.991627
 70
    64
  0
VERTEX
  8
GLASS
 10
-1.732051
 20
5.875
 30
1.0
 70
    64
  0
VERTEX
  8
GLASS
 10
-0.875
 20
5.875
 30
1.515544
 70
    64
  0
VERTEX
  8
GLASS
 10
-0.883373
 20
5.9375
 30
1.530048
 70
    64
  0
VERTEX
  8
GLASS
 10
-0.90625
 20
5.983253
 30
1.569671
 70
    64
  0
VERTEX
  8
GLASS
 10
-0.9375
 20
6.0
 30
1.623798
 70
    64
  0
VERTEX
  8
GLASS
 10
-0.96875
 20
5.983253
 30
1.677924
 70
    64
  0
VERTEX
  8
GLASS
 10
-0.991627
 20
5.9375
 30
1.717548
 70
    64
  0
VERTEX
  8
GLASS
 10
-1.0
 20
5.875
 30
1.732051
 70
    64
  0
VERTEX
  8
GLASS
 10
0.0
 20
5.875
 30
1.75
 70
    64
  0
VERTEX
  8
GLASS
 10
0.0
 20
5.9375
 30
1.766747
 70
    64
  0
VERTEX
  8
GLASS
 10
0.0
 20
5.983253
 30
1.8125
 70
    64
  0
VERTEX
  8
GLASS
 10
0.0
 20
6.0
 30
1.875
 70
    64
  0
VERTEX
  8
GLASS
 10
0.0
 20
5.983253
 30
1.9375
 70
    64
  0
VERTEX
  8
GLASS
 10
0.0
 20
5.9375
 30
1.983253
 70
    64
  0
VERTEX
  8
GLASS
 10
0.0
 20
5.875
 30
2.0
 70
    64
  0
VERTEX
  8
GLASS
 10
0.875
 20
5.875
 30
1.515544
 70
    64
  0
VERTEX
  8
GLASS
 10
0.883373
 20
5.9375
 30
1.530048
 70
    64
  0
VERTEX
  8
GLASS
 10
0.90625
 20
5.983253
 30
1.569671
 70
    64
  0
VERTEX
  8
GLASS
 10
0.9375
 20
6.0
 30
1.623798
 70
    64
  0
VERTEX
  8
GLASS
 10
0.96875
 20
5.983253
 30
1.677924
 70
    64
  0
VERTEX
  8
GLASS
 10
0.991627
 20
5.9375
 30
1.717548
 70
    64
  0
VERTEX
  8
GLASS
 10
1.0
 20
5.875
 30
1.732051
 70
    64
  0
VERTEX
  8
GLASS
 10
1.515544
 20
5.875
 30
0.875
 70
    64
  0
VERTEX
  8
GLASS
 10
1.530048
 20
5.9375
 30
0.883373
 70
    64
  0
VERTEX
  8
GLASS
 10
1.569671
 20
5.983253
 30
0.90625
 70
    64
  0
VERTEX
  8
GLASS
 10
1.623798
 20
6.0
 30
0.9375
 70
    64
  0
VERTEX
  8
GLASS
 10
1.677924
 20
5.983253
 30
0.96875
 70
    64
  0
VERTEX
  8
GLASS
 10
1.717548
 20
5.9375
 30
0.991627
 70
    64
  0
VERTEX
  8
GLASS
 10
1.732051
 20
5.875
 30
1.0
 70
    64
  0
SEQEND
  8
GLASS
  0
ENDBLK
  8
GLASS
  0
BLOCK
  8
LIQUID
  2
LIQUID
 70
    64
 10
0.0
 20
0.0
 30
0.0
  0
LINE
  8
LIQUID
 10
1.71875
 20
5.0
 30
0.0
 11
0.0
 21
5.0
 31
0.0
  0
LINE
  8
LIQUID
 10
0.0
 20
5.0
 30
0.0
 11
0.0
 21
3.28125
 31
0.0
  0
ARC
  8
LIQUID
 10
0.0
 20
5.0
 30
0.0
 40
1.71875
 50
270.0
 51
0.0
  0
ATTDEF
  8
LIQUID
 10
0.0
 20
0.0
 30
0.0
 40
0.2
  1
0.0
  3

  2
REVANG
 70
     3
  0
POLYLINE
  8
LIQUID
 66
     1
 10
0.0
 20
0.0
 30
0.0
 70
    17
 71
    12
 72
     7
  0
VERTEX
  8
LIQUID
 10
1.71875
 20
5.0
 30
0.0
 70
    64
  0
VERTEX
  8
LIQUID
 10
1.432292
 20
5.0
 30
0.0
 70
    64
  0
VERTEX
  8
LIQUID
 10
1.145833
 20
5.0
 30
0.0
 70
    64
  0
VERTEX
  8
LIQUID
 10
0.859375
 20
5.0
 30
0.0
 70
    64
  0
VERTEX
  8
LIQUID
 10
0.572917
 20
5.0
 30
0.0
 70
    64
  0
VERTEX
  8
LIQUID
 10
0.286458
 20
5.0
 30
0.0
 70
    64
  0
VERTEX
  8
LIQUID
 10
0.0
 20
5.0
 30
0.0
 70
    64
  0
VERTEX
  8
LIQUID
 10
1.488481
 20
5.0
 30
-0.859375
 70
    64
  0
VERTEX
  8
LIQUID
 10
1.240401
 20
5.0
 30
-0.716146
 70
    64
  0
VERTEX
  8
LIQUID
 10
0.992321
 20
5.0
 30
-0.572917
 70
    64
  0
VERTEX
  8
LIQUID
 10
0.744241
 20
5.0
 30
-0.429688
 70
    64
  0
VERTEX
  8
LIQUID
 10
0.49616
 20
5.0
 30
-0.286458
 70
    64
  0
VERTEX
  8
LIQUID
 10
0.24808
 20
5.0
 30
-0.143229
 70
    64
  0
VERTEX
  8
LIQUID
 10
0.0
 20
5.0
 30
0.0
 70
    64
  0
VERTEX
  8
LIQUID
 10
0.859375
 20
5.0
 30
-1.488481
 70
    64
  0
VERTEX
  8
LIQUID
 10
0.716146
 20
5.0
 30
-1.240401
 70
    64
  0
VERTEX
  8
LIQUID
 10
0.572917
 20
5.0
 30
-0.992321
 70
    64
  0
VERTEX
  8
LIQUID
 10
0.429688
 20
5.0
 30
-0.744241
 70
    64
  0
VERTEX
  8
LIQUID
 10
0.286458
 20
5.0
 30
-0.49616
 70
    64
  0
VERTEX
  8
LIQUID
 10
0.143229
 20
5.0
 30
-0.24808
 70
    64
  0
VERTEX
  8
LIQUID
 10
0.0
 20
5.0
 30
0.0
 70
    64
  0
VERTEX
  8
LIQUID
 10
0.0
 20
5.0
 30
-1.71875
 70
    64
  0
VERTEX
  8
LIQUID
 10
0.0
 20
5.0
 30
-1.432292
 70
    64
  0
VERTEX
  8
LIQUID
 10
0.0
 20
5.0
 30
-1.145833
 70
    64
  0
VERTEX
  8
LIQUID
 10
0.0
 20
5.0
 30
-0.859375
 70
    64
  0
VERTEX
  8
LIQUID
 10
0.0
 20
5.0
 30
-0.572917
 70
    64
  0
VERTEX
  8
LIQUID
 10
0.0
 20
5.0
 30
-0.286458
 70
    64
  0
VERTEX
  8
LIQUID
 10
0.0
 20
5.0
 30
0.0
 70
    64
  0
VERTEX
  8
LIQUID
 10
-0.859375
 20
5.0
 30
-1.488481
 70
    64
  0
VERTEX
  8
LIQUID
 10
-0.716146
 20
5.0
 30
-1.240401
 70
    64
  0
VERTEX
  8
LIQUID
 10
-0.572917
 20
5.0
 30
-0.992321
 70
    64
  0
VERTEX
  8
LIQUID
 10
-0.429688
 20
5.0
 30
-0.744241
 70
    64
  0
VERTEX
  8
LIQUID
 10
-0.286458
 20
5.0
 30
-0.49616
 70
    64
  0
VERTEX
  8
LIQUID
 10
-0.143229
 20
5.0
 30
-0.24808
 70
    64
  0
VERTEX
  8
LIQUID
 10
0.0
 20
5.0
 30
0.0
 70
    64
  0
VERTEX
  8
LIQUID
 10
-1.488481
 20
5.0
 30
-0.859375
 70
    64
  0
VERTEX
  8
LIQUID
 10
-1.240401
 20
5.0
 30
-0.716146
 70
    64
  0
VERTEX
  8
LIQUID
 10
-0.992321
 20
5.0
 30
-0.572917
 70
    64
  0
VERTEX
  8
LIQUID
 10
-0.744241
 20
5.0
 30
-0.429688
 70
    64
  0
VERTEX
  8
LIQUID
 10
-0.49616
 20
5.0
 30
-0.286458
 70
    64
  0
VERTEX
  8
LIQUID
 10
-0.24808
 20
5.0
 30
-0.143229
 70
    64
  0
VERTEX
  8
LIQUID
 10
0.0
 20
5.0
 30
0.0
 70
    64
  0
VERTEX
  8
LIQUID
 10
-1.71875
 20
5.0
 30
-0.0
 70
    64
  0
VERTEX
  8
LIQUID
 10
-1.432292
 20
5.0
 30
-0.0
 70
    64
  0
VERTEX
  8
LIQUID
 10
-1.145833
 20
5.0
 30
-0.0
 70
    64
  0
VERTEX
  8
LIQUID
 10
-0.859375
 20
5.0
 30
-0.0
 70
    64
  0
VERTEX
  8
LIQUID
 10
-0.572917
 20
5.0
 30
-0.0
 70
    64
  0
VERTEX
  8
LIQUID
 10
-0.286458
 20
5.0
 30
-0.0
 70
    64
  0
VERTEX
  8
LIQUID
 10
0.0
 20
5.0
 30
0.0
 70
    64
  0
VERTEX
  8
LIQUID
 10
-1.488481
 20
5.0
 30
0.859375
 70
    64
  0
VERTEX
  8
LIQUID
 10
-1.240401
 20
5.0
 30
0.716146
 70
    64
  0
VERTEX
  8
LIQUID
 10
-0.992321
 20
5.0
 30
0.572917
 70
    64
  0
VERTEX
  8
LIQUID
 10
-0.744241
 20
5.0
 30
0.429687
 70
    64
  0
VERTEX
  8
LIQUID
 10
-0.49616
 20
5.0
 30
0.286458
 70
    64
  0
VERTEX
  8
LIQUID
 10
-0.24808
 20
5.0
 30
0.143229
 70
    64
  0
VERTEX
  8
LIQUID
 10
0.0
 20
5.0
 30
0.0
 70
    64
  0
VERTEX
  8
LIQUID
 10
-0.859375
 20
5.0
 30
1.488481
 70
    64
  0
VERTEX
  8
LIQUID
 10
-0.716146
 20
5.0
 30
1.240401
 70
    64
  0
VERTEX
  8
LIQUID
 10
-0.572917
 20
5.0
 30
0.992321
 70
    64
  0
VERTEX
  8
LIQUID
 10
-0.429688
 20
5.0
 30
0.744241
 70
    64
  0
VERTEX
  8
LIQUID
 10
-0.286458
 20
5.0
 30
0.49616
 70
    64
  0
VERTEX
  8
LIQUID
 10
-0.143229
 20
5.0
 30
0.24808
 70
    64
  0
VERTEX
  8
LIQUID
 10
0.0
 20
5.0
 30
0.0
 70
    64
  0
VERTEX
  8
LIQUID
 10
0.0
 20
5.0
 30
1.71875
 70
    64
  0
VERTEX
  8
LIQUID
 10
0.0
 20
5.0
 30
1.432292
 70
    64
  0
VERTEX
  8
LIQUID
 10
0.0
 20
5.0
 30
1.145833
 70
    64
  0
VERTEX
  8
LIQUID
 10
0.0
 20
5.0
 30
0.859375
 70
    64
  0
VERTEX
  8
LIQUID
 10
0.0
 20
5.0
 30
0.572917
 70
    64
  0
VERTEX
  8
LIQUID
 10
0.0
 20
5.0
 30
0.286458
 70
    64
  0
VERTEX
  8
LIQUID
 10
0.0
 20
5.0
 30
0.0
 70
    64
  0
VERTEX
  8
LIQUID
 10
0.859375
 20
5.0
 30
1.488481
 70
    64
  0
VERTEX
  8
LIQUID
 10
0.716146
 20
5.0
 30
1.240401
 70
    64
  0
VERTEX
  8
LIQUID
 10
0.572917
 20
5.0
 30
0.992321
 70
    64
  0
VERTEX
  8
LIQUID
 10
0.429688
 20
5.0
 30
0.744241
 70
    64
  0
VERTEX
  8
LIQUID
 10
0.286458
 20
5.0
 30
0.49616
 70
    64
  0
VERTEX
  8
LIQUID
 10
0.143229
 20
5.0
 30
0.24808
 70
    64
  0
VERTEX
  8
LIQUID
 10
0.0
 20
5.0
 30
0.0
 70
    64
  0
VERTEX
  8
LIQUID
 10
1.488481
 20
5.0
 30
0.859375
 70
    64
  0
VERTEX
  8
LIQUID
 10
1.240401
 20
5.0
 30
0.716146
 70
    64
  0
VERTEX
  8
LIQUID
 10
0.992321
 20
5.0
 30
0.572917
 70
    64
  0
VERTEX
  8
LIQUID
 10
0.744241
 20
5.0
 30
0.429687
 70
    64
  0
VERTEX
  8
LIQUID
 10
0.49616
 20
5.0
 30
0.286458
 70
    64
  0
VERTEX
  8
LIQUID
 10
0.24808
 20
5.0
 30
0.143229
 70
    64
  0
VERTEX
  8
LIQUID
 10
0.0
 20
5.0
 30
0.0
 70
    64
  0
SEQEND
  8
LIQUID
  0
POLYLINE
  8
LIQUID
 66
     1
 10
0.0
 20
0.0
 30
0.0
 70
    17
 71
    12
 72
     7
  0
VERTEX
  8
LIQUID
 10
0.0
 20
3.28125
 30
0.0
 70
    64
  0
VERTEX
  8
LIQUID
 10
0.0
 20
3.567708
 30
0.0
 70
    64
  0
VERTEX
  8
LIQUID
 10
0.0
 20
3.854167
 30
0.0
 70
    64
  0
VERTEX
  8
LIQUID
 10
0.0
 20
4.140625
 30
0.0
 70
    64
  0
VERTEX
  8
LIQUID
 10
0.0
 20
4.427083
 30
0.0
 70
    64
  0
VERTEX
  8
LIQUID
 10
0.0
 20
4.713542
 30
0.0
 70
    64
  0
VERTEX
  8
LIQUID
 10
0.0
 20
5.0
 30
0.0
 70
    64
  0
VERTEX
  8
LIQUID
 10
0.0
 20
3.28125
 30
0.0
 70
    64
  0
VERTEX
  8
LIQUID
 10
0.0
 20
3.567708
 30
0.0
 70
    64
  0
VERTEX
  8
LIQUID
 10
0.0
 20
3.854167
 30
0.0
 70
    64
  0
VERTEX
  8
LIQUID
 10
0.0
 20
4.140625
 30
0.0
 70
    64
  0
VERTEX
  8
LIQUID
 10
0.0
 20
4.427083
 30
0.0
 70
    64
  0
VERTEX
  8
LIQUID
 10
0.0
 20
4.713542
 30
0.0
 70
    64
  0
VERTEX
  8
LIQUID
 10
0.0
 20
5.0
 30
0.0
 70
    64
  0
VERTEX
  8
LIQUID
 10
0.0
 20
3.28125
 30
0.0
 70
    64
  0
VERTEX
  8
LIQUID
 10
0.0
 20
3.567708
 30
0.0
 70
    64
  0
VERTEX
  8
LIQUID
 10
0.0
 20
3.854167
 30
0.0
 70
    64
  0
VERTEX
  8
LIQUID
 10
0.0
 20
4.140625
 30
0.0
 70
    64
  0
VERTEX
  8
LIQUID
 10
0.0
 20
4.427083
 30
0.0
 70
    64
  0
VERTEX
  8
LIQUID
 10
0.0
 20
4.713542
 30
0.0
 70
    64
  0
VERTEX
  8
LIQUID
 10
0.0
 20
5.0
 30
0.0
 70
    64
  0
VERTEX
  8
LIQUID
 10
0.0
 20
3.28125
 30
0.0
 70
    64
  0
VERTEX
  8
LIQUID
 10
0.0
 20
3.567708
 30
0.0
 70
    64
  0
VERTEX
  8
LIQUID
 10
0.0
 20
3.854167
 30
0.0
 70
    64
  0
VERTEX
  8
LIQUID
 10
0.0
 20
4.140625
 30
0.0
 70
    64
  0
VERTEX
  8
LIQUID
 10
0.0
 20
4.427083
 30
0.0
 70
    64
  0
VERTEX
  8
LIQUID
 10
0.0
 20
4.713542
 30
0.0
 70
    64
  0
VERTEX
  8
LIQUID
 10
0.0
 20
5.0
 30
0.0
 70
    64
  0
VERTEX
  8
LIQUID
 10
0.0
 20
3.28125
 30
0.0
 70
    64
  0
VERTEX
  8
LIQUID
 10
0.0
 20
3.567708
 30
0.0
 70
    64
  0
VERTEX
  8
LIQUID
 10
0.0
 20
3.854167
 30
0.0
 70
    64
  0
VERTEX
  8
LIQUID
 10
0.0
 20
4.140625
 30
0.0
 70
    64
  0
VERTEX
  8
LIQUID
 10
0.0
 20
4.427083
 30
0.0
 70
    64
  0
VERTEX
  8
LIQUID
 10
0.0
 20
4.713542
 30
0.0
 70
    64
  0
VERTEX
  8
LIQUID
 10
0.0
 20
5.0
 30
0.0
 70
    64
  0
VERTEX
  8
LIQUID
 10
0.0
 20
3.28125
 30
0.0
 70
    64
  0
VERTEX
  8
LIQUID
 10
0.0
 20
3.567708
 30
0.0
 70
    64
  0
VERTEX
  8
LIQUID
 10
0.0
 20
3.854167
 30
0.0
 70
    64
  0
VERTEX
  8
LIQUID
 10
0.0
 20
4.140625
 30
0.0
 70
    64
  0
VERTEX
  8
LIQUID
 10
0.0
 20
4.427083
 30
0.0
 70
    64
  0
VERTEX
  8
LIQUID
 10
0.0
 20
4.713542
 30
0.0
 70
    64
  0
VERTEX
  8
LIQUID
 10
0.0
 20
5.0
 30
0.0
 70
    64
  0
VERTEX
  8
LIQUID
 10
0.0
 20
3.28125
 30
0.0
 70
    64
  0
VERTEX
  8
LIQUID
 10
0.0
 20
3.567708
 30
0.0
 70
    64
  0
VERTEX
  8
LIQUID
 10
0.0
 20
3.854167
 30
0.0
 70
    64
  0
VERTEX
  8
LIQUID
 10
0.0
 20
4.140625
 30
0.0
 70
    64
  0
VERTEX
  8
LIQUID
 10
0.0
 20
4.427083
 30
0.0
 70
    64
  0
VERTEX
  8
LIQUID
 10
0.0
 20
4.713542
 30
0.0
 70
    64
  0
VERTEX
  8
LIQUID
 10
0.0
 20
5.0
 30
0.0
 70
    64
  0
VERTEX
  8
LIQUID
 10
0.0
 20
3.28125
 30
0.0
 70
    64
  0
VERTEX
  8
LIQUID
 10
0.0
 20
3.567708
 30
0.0
 70
    64
  0
VERTEX
  8
LIQUID
 10
0.0
 20
3.854167
 30
0.0
 70
    64
  0
VERTEX
  8
LIQUID
 10
0.0
 20
4.140625
 30
0.0
 70
    64
  0
VERTEX
  8
LIQUID
 10
0.0
 20
4.427083
 30
0.0
 70
    64
  0
VERTEX
  8
LIQUID
 10
0.0
 20
4.713542
 30
0.0
 70
    64
  0
VERTEX
  8
LIQUID
 10
0.0
 20
5.0
 30
0.0
 70
    64
  0
VERTEX
  8
LIQUID
 10
0.0
 20
3.28125
 30
0.0
 70
    64
  0
VERTEX
  8
LIQUID
 10
0.0
 20
3.567708
 30
0.0
 70
    64
  0
VERTEX
  8
LIQUID
 10
0.0
 20
3.854167
 30
0.0
 70
    64
  0
VERTEX
  8
LIQUID
 10
0.0
 20
4.140625
 30
0.0
 70
    64
  0
VERTEX
  8
LIQUID
 10
0.0
 20
4.427083
 30
0.0
 70
    64
  0
VERTEX
  8
LIQUID
 10
0.0
 20
4.713542
 30
0.0
 70
    64
  0
VERTEX
  8
LIQUID
 10
0.0
 20
5.0
 30
0.0
 70
    64
  0
VERTEX
  8
LIQUID
 10
0.0
 20
3.28125
 30
0.0
 70
    64
  0
VERTEX
  8
LIQUID
 10
0.0
 20
3.567708
 30
0.0
 70
    64
  0
VERTEX
  8
LIQUID
 10
0.0
 20
3.854167
 30
0.0
 70
    64
  0
VERTEX
  8
LIQUID
 10
0.0
 20
4.140625
 30
0.0
 70
    64
  0
VERTEX
  8
LIQUID
 10
0.0
 20
4.427083
 30
0.0
 70
    64
  0
VERTEX
  8
LIQUID
 10
0.0
 20
4.713542
 30
0.0
 70
    64
  0
VERTEX
  8
LIQUID
 10
0.0
 20
5.0
 30
0.0
 70
    64
  0
VERTEX
  8
LIQUID
 10
0.0
 20
3.28125
 30
0.0
 70
    64
  0
VERTEX
  8
LIQUID
 10
0.0
 20
3.567708
 30
0.0
 70
    64
  0
VERTEX
  8
LIQUID
 10
0.0
 20
3.854167
 30
0.0
 70
    64
  0
VERTEX
  8
LIQUID
 10
0.0
 20
4.140625
 30
0.0
 70
    64
  0
VERTEX
  8
LIQUID
 10
0.0
 20
4.427083
 30
0.0
 70
    64
  0
VERTEX
  8
LIQUID
 10
0.0
 20
4.713542
 30
0.0
 70
    64
  0
VERTEX
  8
LIQUID
 10
0.0
 20
5.0
 30
0.0
 70
    64
  0
VERTEX
  8
LIQUID
 10
0.0
 20
3.28125
 30
0.0
 70
    64
  0
VERTEX
  8
LIQUID
 10
0.0
 20
3.567708
 30
0.0
 70
    64
  0
VERTEX
  8
LIQUID
 10
0.0
 20
3.854167
 30
0.0
 70
    64
  0
VERTEX
  8
LIQUID
 10
0.0
 20
4.140625
 30
0.0
 70
    64
  0
VERTEX
  8
LIQUID
 10
0.0
 20
4.427083
 30
0.0
 70
    64
  0
VERTEX
  8
LIQUID
 10
0.0
 20
4.713542
 30
0.0
 70
    64
  0
VERTEX
  8
LIQUID
 10
0.0
 20
5.0
 30
0.0
 70
    64
  0
SEQEND
  8
LIQUID
  0
POLYLINE
  8
LIQUID
 66
     1
 10
0.0
 20
0.0
 30
0.0
 70
    17
 71
    12
 72
     7
  0
VERTEX
  8
LIQUID
 10
1.71875
 20
5.0
 30
0.0
 70
    64
  0
VERTEX
  8
LIQUID
 10
1.660185
 20
4.555155
 30
0.0
 70
    64
  0
VERTEX
  8
LIQUID
 10
1.488481
 20
4.140625
 30
0.0
 70
    64
  0
VERTEX
  8
LIQUID
 10
1.21534
 20
3.78466
 30
0.0
 70
    64
  0
VERTEX
  8
LIQUID
 10
0.859375
 20
3.511519
 30
0.0
 70
    64
  0
VERTEX
  8
LIQUID
 10
0.444845
 20
3.339815
 30
0.0
 70
    64
  0
VERTEX
  8
LIQUID
 10
0.0
 20
3.28125
 30
0.0
 70
    64
  0
VERTEX
  8
LIQUID
 10
1.488481
 20
5.0
 30
-0.859375
 70
    64
  0
VERTEX
  8
LIQUID
 10
1.437762
 20
4.555155
 30
-0.830093
 70
    64
  0
VERTEX
  8
LIQUID
 10
1.289063
 20
4.140625
 30
-0.744241
 70
    64
  0
VERTEX
  8
LIQUID
 10
1.052515
 20
3.78466
 30
-0.60767
 70
    64
  0
VERTEX
  8
LIQUID
 10
0.744241
 20
3.511519
 30
-0.429687
 70
    64
  0
VERTEX
  8
LIQUID
 10
0.385247
 20
3.339815
 30
-0.222423
 70
    64
  0
VERTEX
  8
LIQUID
 10
0.0
 20
3.28125
 30
0.0
 70
    64
  0
VERTEX
  8
LIQUID
 10
0.859375
 20
5.0
 30
-1.488481
 70
    64
  0
VERTEX
  8
LIQUID
 10
0.830093
 20
4.555155
 30
-1.437762
 70
    64
  0
VERTEX
  8
LIQUID
 10
0.744241
 20
4.140625
 30
-1.289063
 70
    64
  0
VERTEX
  8
LIQUID
 10
0.60767
 20
3.78466
 30
-1.052515
 70
    64
  0
VERTEX
  8
LIQUID
 10
0.429687
 20
3.511519
 30
-0.744241
 70
    64
  0
VERTEX
  8
LIQUID
 10
0.222423
 20
3.339815
 30
-0.385247
 70
    64
  0
VERTEX
  8
LIQUID
 10
0.0
 20
3.28125
 30
0.0
 70
    64
  0
VERTEX
  8
LIQUID
 10
0.0
 20
5.0
 30
-1.71875
 70
    64
  0
VERTEX
  8
LIQUID
 10
0.0
 20
4.555155
 30
-1.660185
 70
    64
  0
VERTEX
  8
LIQUID
 10
0.0
 20
4.140625
 30
-1.488481
 70
    64
  0
VERTEX
  8
LIQUID
 10
0.0
 20
3.78466
 30
-1.21534
 70
    64
  0
VERTEX
  8
LIQUID
 10
0.0
 20
3.511519
 30
-0.859375
 70
    64
  0
VERTEX
  8
LIQUID
 10
0.0
 20
3.339815
 30
-0.444845
 70
    64
  0
VERTEX
  8
LIQUID
 10
0.0
 20
3.28125
 30
0.0
 70
    64
  0
VERTEX
  8
LIQUID
 10
-0.859375
 20
5.0
 30
-1.488481
 70
    64
  0
VERTEX
  8
LIQUID
 10
-0.830093
 20
4.555155
 30
-1.437762
 70
    64
  0
VERTEX
  8
LIQUID
 10
-0.744241
 20
4.140625
 30
-1.289063
 70
    64
  0
VERTEX
  8
LIQUID
 10
-0.60767
 20
3.78466
 30
-1.052515
 70
    64
  0
VERTEX
  8
LIQUID
 10
-0.429687
 20
3.511519
 30
-0.744241
 70
    64
  0
VERTEX
  8
LIQUID
 10
-0.222423
 20
3.339815
 30
-0.385247
 70
    64
  0
VERTEX
  8
LIQUID
 10
0.0
 20
3.28125
 30
0.0
 70
    64
  0
VERTEX
  8
LIQUID
 10
-1.488481
 20
5.0
 30
-0.859375
 70
    64
  0
VERTEX
  8
LIQUID
 10
-1.437762
 20
4.555155
 30
-0.830093
 70
    64
  0
VERTEX
  8
LIQUID
 10
-1.289063
 20
4.140625
 30
-0.744241
 70
    64
  0
VERTEX
  8
LIQUID
 10
-1.052515
 20
3.78466
 30
-0.60767
 70
    64
  0
VERTEX
  8
LIQUID
 10
-0.744241
 20
3.511519
 30
-0.429687
 70
    64
  0
VERTEX
  8
LIQUID
 10
-0.385247
 20
3.339815
 30
-0.222423
 70
    64
  0
VERTEX
  8
LIQUID
 10
0.0
 20
3.28125
 30
0.0
 70
    64
  0
VERTEX
  8
LIQUID
 10
-1.71875
 20
5.0
 30
-0.0
 70
    64
  0
VERTEX
  8
LIQUID
 10
-1.660185
 20
4.555155
 30
-0.0
 70
    64
  0
VERTEX
  8
LIQUID
 10
-1.488481
 20
4.140625
 30
-0.0
 70
    64
  0
VERTEX
  8
LIQUID
 10
-1.21534
 20
3.78466
 30
-0.0
 70
    64
  0
VERTEX
  8
LIQUID
 10
-0.859375
 20
3.511519
 30
-0.0
 70
    64
  0
VERTEX
  8
LIQUID
 10
-0.444845
 20
3.339815
 30
-0.0
 70
    64
  0
VERTEX
  8
LIQUID
 10
0.0
 20
3.28125
 30
0.0
 70
    64
  0
VERTEX
  8
LIQUID
 10
-1.488481
 20
5.0
 30
0.859375
 70
    64
  0
VERTEX
  8
LIQUID
 10
-1.437762
 20
4.555155
 30
0.830093
 70
    64
  0
VERTEX
  8
LIQUID
 10
-1.289063
 20
4.140625
 30
0.744241
 70
    64
  0
VERTEX
  8
LIQUID
 10
-1.052515
 20
3.78466
 30
0.60767
 70
    64
  0
VERTEX
  8
LIQUID
 10
-0.744241
 20
3.511519
 30
0.429687
 70
    64
  0
VERTEX
  8
LIQUID
 10
-0.385247
 20
3.339815
 30
0.222423
 70
    64
  0
VERTEX
  8
LIQUID
 10
0.0
 20
3.28125
 30
0.0
 70
    64
  0
VERTEX
  8
LIQUID
 10
-0.859375
 20
5.0
 30
1.488481
 70
    64
  0
VERTEX
  8
LIQUID
 10
-0.830093
 20
4.555155
 30
1.437762
 70
    64
  0
VERTEX
  8
LIQUID
 10
-0.744241
 20
4.140625
 30
1.289063
 70
    64
  0
VERTEX
  8
LIQUID
 10
-0.60767
 20
3.78466
 30
1.052515
 70
    64
  0
VERTEX
  8
LIQUID
 10
-0.429687
 20
3.511519
 30
0.744241
 70
    64
  0
VERTEX
  8
LIQUID
 10
-0.222423
 20
3.339815
 30
0.385247
 70
    64
  0
VERTEX
  8
LIQUID
 10
0.0
 20
3.28125
 30
0.0
 70
    64
  0
VERTEX
  8
LIQUID
 10
0.0
 20
5.0
 30
1.71875
 70
    64
  0
VERTEX
  8
LIQUID
 10
0.0
 20
4.555155
 30
1.660185
 70
    64
  0
VERTEX
  8
LIQUID
 10
0.0
 20
4.140625
 30
1.488481
 70
    64
  0
VERTEX
  8
LIQUID
 10
0.0
 20
3.78466
 30
1.21534
 70
    64
  0
VERTEX
  8
LIQUID
 10
0.0
 20
3.511519
 30
0.859375
 70
    64
  0
VERTEX
  8
LIQUID
 10
0.0
 20
3.339815
 30
0.444845
 70
    64
  0
VERTEX
  8
LIQUID
 10
0.0
 20
3.28125
 30
0.0
 70
    64
  0
VERTEX
  8
LIQUID
 10
0.859375
 20
5.0
 30
1.488481
 70
    64
  0
VERTEX
  8
LIQUID
 10
0.830093
 20
4.555155
 30
1.437762
 70
    64
  0
VERTEX
  8
LIQUID
 10
0.744241
 20
4.140625
 30
1.289063
 70
    64
  0
VERTEX
  8
LIQUID
 10
0.60767
 20
3.78466
 30
1.052515
 70
    64
  0
VERTEX
  8
LIQUID
 10
0.429687
 20
3.511519
 30
0.744241
 70
    64
  0
VERTEX
  8
LIQUID
 10
0.222423
 20
3.339815
 30
0.385247
 70
    64
  0
VERTEX
  8
LIQUID
 10
0.0
 20
3.28125
 30
0.0
 70
    64
  0
VERTEX
  8
LIQUID
 10
1.488481
 20
5.0
 30
0.859375
 70
    64
  0
VERTEX
  8
LIQUID
 10
1.437762
 20
4.555155
 30
0.830093
 70
    64
  0
VERTEX
  8
LIQUID
 10
1.289063
 20
4.140625
 30
0.744241
 70
    64
  0
VERTEX
  8
LIQUID
 10
1.052515
 20
3.78466
 30
0.60767
 70
    64
  0
VERTEX
  8
LIQUID
 10
0.744241
 20
3.511519
 30
0.429687
 70
    64
  0
VERTEX
  8
LIQUID
 10
0.385247
 20
3.339815
 30
0.222423
 70
    64
  0
VERTEX
  8
LIQUID
 10
0.0
 20
3.28125
 30
0.0
 70
    64
  0
SEQEND
  8
LIQUID
  0
ENDBLK
  8
LIQUID
  0
BLOCK
  8
BASE
  2
PEPSICAN
 70
    64
 10
0.0
 20
0.0
 30
0.0
  0
INSERT
  8
CAN-SIDE1
  2
CANBOT
 10
0.0
 20
0.0
 30
0.0
210
0.0
220
-1.0
230
-0.0000000000000002
  0
INSERT
  8
CAN-SIDE1
  2
CANTOP
 10
0.0
 20
0.0
 30
0.0
210
0.0
220
-1.0
230
-0.0000000000000002
  0
ARC
  8
CAN-SIDE2
 10
4.125
 20
4.21967
 30
-0.0
 40
0.125
 50
0.0
 51
26.525352
  0
INSERT
  8
CAN-SIDE2
  2
CANSIDE1
 10
0.0
 20
0.0
 30
0.0
210
0.0
220
-1.0
230
-0.0000000000000002
  0
INSERT
  8
CAN-SIDE2
  2
CANSIDE2
 10
0.0
 20
0.0
 30
0.0
210
0.0
220
-1.0
230
-0.0000000000000002
  0
ENDBLK
  8
BASE
  0
BLOCK
  8
CAN-TOP
  2
CANTOP
 70
    64
 10
0.0
 20
0.0
 30
0.0
  0
ARC
  8
CAN-TOP
 10
1.138793
 20
4.734375
 30
-0.0
 40
0.015625
 50
90.0
 51
172.874984
  0
ARC
  8
CAN-TOP
 10
1.140625
 20
4.734375
 30
-0.0
 40
0.015625
 50
0.0
 51
90.0
  0
ARC
  8
CAN-TOP
 10
0.982451
 20
4.5625
 30
-0.0
 40
0.0625
 50
14.036243
 51
90.0
  0
LINE
  8
CAN-TOP
 10
0.982451
 20
4.625
 30
-0.0
 11
0.0
 21
4.625
 31
-0.0
  0
LINE
  8
CAN-TOP
 10
1.0625
 20
4.5
 30
-0.0
 11
1.043085
 21
4.577658
 31
-0.0
  0
LINE
  8
CAN-TOP
 10
1.09375
 20
4.5
 30
-0.0
 11
1.0625
 21
4.5
 31
-0.0
  0
LINE
  8
CAN-TOP
 10
1.123289
 20
4.736313
 30
-0.0
 11
1.09375
 21
4.5
 31
-0.0
  0
LINE
  8
CAN-TOP
 10
1.140625
 20
4.75
 30
-0.0
 11
1.138793
 21
4.75
 31
-0.0
  0
LINE
  8
CAN-TOP
 10
1.15625
 20
4.65625
 30
-0.0
 11
1.15625
 21
4.734375
 31
-0.0
  0
LINE
  8
CAN-TOP
 10
1.125
 20
4.65625
 30
-0.0
 11
1.15625
 21
4.65625
 31
-0.0
  0
ATTDEF
  8
CAN-TOP
 10
0.0
 20
0.0
 30
0.0
 40
0.2
  1
0.0
  3

  2
REVANG
 70
     3
  0
POLYLINE
  8
CAN-TOP
 66
     1
 10
0.0
 20
0.0
 30
0.0
 70
    17
 71
     6
 72
     4
  0
VERTEX
  8
CAN-TOP
 10
1.138793
 20
4.75
 30
-0.0
 70
    64
  0
VERTEX
  8
CAN-TOP
 10
1.131548
 20
4.748219
 30
-0.0
 70
    64
  0
VERTEX
  8
CAN-TOP
 10
1.125955
 20
4.743281
 30
0.0
 70
    64
  0
VERTEX
  8
CAN-TOP
 10
1.123289
 20
4.736313
 30
-0.0
 70
    64
  0
VERTEX
  8
CAN-TOP
 10
0.569397
 20
4.75
 30
-0.986224
 70
    64
  0
VERTEX
  8
CAN-TOP
 10
0.565774
 20
4.748219
 30
-0.97995
 70
    64
  0
VERTEX
  8
CAN-TOP
 10
0.562978
 20
4.743281
 30
-0.975106
 70
    64
  0
VERTEX
  8
CAN-TOP
 10
0.561645
 20
4.736313
 30
-0.972797
 70
    64
  0
VERTEX
  8
CAN-TOP
 10
-0.569397
 20
4.75
 30
-0.986224
 70
    64
  0
VERTEX
  8
CAN-TOP
 10
-0.565774
 20
4.748219
 30
-0.97995
 70
    64
  0
VERTEX
  8
CAN-TOP
 10
-0.562978
 20
4.743281
 30
-0.975106
 70
    64
  0
VERTEX
  8
CAN-TOP
 10
-0.561645
 20
4.736313
 30
-0.972797
 70
    64
  0
VERTEX
  8
CAN-TOP
 10
-1.138793
 20
4.75
 30
-0.0
 70
    64
  0
VERTEX
  8
CAN-TOP
 10
-1.131548
 20
4.748219
 30
-0.0
 70
    64
  0
VERTEX
  8
CAN-TOP
 10
-1.125955
 20
4.743281
 30
-0.0
 70
    64
  0
VERTEX
  8
CAN-TOP
 10
-1.123289
 20
4.736313
 30
-0.0
 70
    64
  0
VERTEX
  8
CAN-TOP
 10
-0.569397
 20
4.75
 30
0.986224
 70
    64
  0
VERTEX
  8
CAN-TOP
 10
-0.565774
 20
4.748219
 30
0.97995
 70
    64
  0
VERTEX
  8
CAN-TOP
 10
-0.562978
 20
4.743281
 30
0.975106
 70
    64
  0
VERTEX
  8
CAN-TOP
 10
-0.561645
 20
4.736313
 30
0.972797
 70
    64
  0
VERTEX
  8
CAN-TOP
 10
0.569397
 20
4.75
 30
0.986224
 70
    64
  0
VERTEX
  8
CAN-TOP
 10
0.565774
 20
4.748219
 30
0.97995
 70
    64
  0
VERTEX
  8
CAN-TOP
 10
0.562978
 20
4.743281
 30
0.975106
 70
    64
  0
VERTEX
  8
CAN-TOP
 10
0.561645
 20
4.736313
 30
0.972797
 70
    64
  0
SEQEND
  8
CAN-TOP
  0
POLYLINE
  8
CAN-TOP
 66
     1
 10
0.0
 20
0.0
 30
0.0
 70
    17
 71
     6
 72
     4
  0
VERTEX
  8
CAN-TOP
 10
1.140625
 20
4.75
 30
-0.0
 70
    64
  0
VERTEX
  8
CAN-TOP
 10
1.148438
 20
4.747907
 30
-0.0
 70
    64
  0
VERTEX
  8
CAN-TOP
 10
1.154157
 20
4.742188
 30
-0.0
 70
    64
  0
VERTEX
  8
CAN-TOP
 10
1.15625
 20
4.734375
 30
-0.0
 70
    64
  0
VERTEX
  8
CAN-TOP
 10
0.570313
 20
4.75
 30
-0.98781
 70
    64
  0
VERTEX
  8
CAN-TOP
 10
0.574219
 20
4.747907
 30
-0.994576
 70
    64
  0
VERTEX
  8
CAN-TOP
 10
0.577078
 20
4.742188
 30
-0.999529
 70
    64
  0
VERTEX
  8
CAN-TOP
 10
0.578125
 20
4.734375
 30
-1.001342
 70
    64
  0
VERTEX
  8
CAN-TOP
 10
-0.570312
 20
4.75
 30
-0.98781
 70
    64
  0
VERTEX
  8
CAN-TOP
 10
-0.574219
 20
4.747907
 30
-0.994576
 70
    64
  0
VERTEX
  8
CAN-TOP
 10
-0.577078
 20
4.742188
 30
-0.999529
 70
    64
  0
VERTEX
  8
CAN-TOP
 10
-0.578125
 20
4.734375
 30
-1.001342
 70
    64
  0
VERTEX
  8
CAN-TOP
 10
-1.140625
 20
4.75
 30
-0.0
 70
    64
  0
VERTEX
  8
CAN-TOP
 10
-1.148438
 20
4.747907
 30
-0.0
 70
    64
  0
VERTEX
  8
CAN-TOP
 10
-1.154157
 20
4.742188
 30
-0.0
 70
    64
  0
VERTEX
  8
CAN-TOP
 10
-1.15625
 20
4.734375
 30
-0.0
 70
    64
  0
VERTEX
  8
CAN-TOP
 10
-0.570313
 20
4.75
 30
0.98781
 70
    64
  0
VERTEX
  8
CAN-TOP
 10
-0.574219
 20
4.747907
 30
0.994576
 70
    64
  0
VERTEX
  8
CAN-TOP
 10
-0.577078
 20
4.742188
 30
0.999529
 70
    64
  0
VERTEX
  8
CAN-TOP
 10
-0.578125
 20
4.734375
 30
1.001342
 70
    64
  0
VERTEX
  8
CAN-TOP
 10
0.570312
 20
4.75
 30
0.98781
 70
    64
  0
VERTEX
  8
CAN-TOP
 10
0.574219
 20
4.747907
 30
0.994576
 70
    64
  0
VERTEX
  8
CAN-TOP
 10
0.577078
 20
4.742188
 30
0.999529
 70
    64
  0
VERTEX
  8
CAN-TOP
 10
0.578125
 20
4.734375
 30
1.001342
 70
    64
  0
SEQEND
  8
CAN-TOP
  0
POLYLINE
  8
CAN-TOP
 66
     1
 10
0.0
 20
0.0
 30
0.0
 70
    17
 71
     6
 72
     4
  0
VERTEX
  8
CAN-TOP
 10
0.982451
 20
4.625
 30
-0.0
 70
    64
  0
VERTEX
  8
CAN-TOP
 10
1.009182
 20
4.618995
 30
0.0
 70
    64
  0
VERTEX
  8
CAN-TOP
 10
1.030777
 20
4.602135
 30
-0.0
 70
    64
  0
VERTEX
  8
CAN-TOP
 10
1.043085
 20
4.577658
 30
-0.0
 70
    64
  0
VERTEX
  8
CAN-TOP
 10
0.491226
 20
4.625
 30
-0.850828
 70
    64
  0
VERTEX
  8
CAN-TOP
 10
0.504591
 20
4.618995
 30
-0.873978
 70
    64
  0
VERTEX
  8
CAN-TOP
 10
0.515388
 20
4.602135
 30
-0.892679
 70
    64
  0
VERTEX
  8
CAN-TOP
 10
0.521543
 20
4.577658
 30
-0.903338
 70
    64
  0
VERTEX
  8
CAN-TOP
 10
-0.491226
 20
4.625
 30
-0.850828
 70
    64
  0
VERTEX
  8
CAN-TOP
 10
-0.504591
 20
4.618995
 30
-0.873978
 70
    64
  0
VERTEX
  8
CAN-TOP
 10
-0.515388
 20
4.602135
 30
-0.892679
 70
    64
  0
VERTEX
  8
CAN-TOP
 10
-0.521543
 20
4.577658
 30
-0.903338
 70
    64
  0
VERTEX
  8
CAN-TOP
 10
-0.982451
 20
4.625
 30
-0.0
 70
    64
  0
VERTEX
  8
CAN-TOP
 10
-1.009182
 20
4.618995
 30
-0.0
 70
    64
  0
VERTEX
  8
CAN-TOP
 10
-1.030777
 20
4.602135
 30
-0.0
 70
    64
  0
VERTEX
  8
CAN-TOP
 10
-1.043085
 20
4.577658
 30
-0.0
 70
    64
  0
VERTEX
  8
CAN-TOP
 10
-0.491226
 20
4.625
 30
0.850828
 70
    64
  0
VERTEX
  8
CAN-TOP
 10
-0.504591
 20
4.618995
 30
0.873978
 70
    64
  0
VERTEX
  8
CAN-TOP
 10
-0.515388
 20
4.602135
 30
0.892679
 70
    64
  0
VERTEX
  8
CAN-TOP
 10
-0.521543
 20
4.577658
 30
0.903338
 70
    64
  0
VERTEX
  8
CAN-TOP
 10
0.491226
 20
4.625
 30
0.850828
 70
    64
  0
VERTEX
  8
CAN-TOP
 10
0.504591
 20
4.618995
 30
0.873978
 70
    64
  0
VERTEX
  8
CAN-TOP
 10
0.515388
 20
4.602135
 30
0.892679
 70
    64
  0
VERTEX
  8
CAN-TOP
 10
0.521543
 20
4.577658
 30
0.903338
 70
    64
  0
SEQEND
  8
CAN-TOP
  0
POLYLINE
  8
CAN-TOP
 66
     1
 10
0.0
 20
0.0
 30
0.0
 70
    17
 71
     6
 72
     4
  0
VERTEX
  8
CAN-TOP
 10
0.982451
 20
4.625
 30
-0.0
 70
    64
  0
VERTEX
  8
CAN-TOP
 10
0.654968
 20
4.625
 30
-0.0
 70
    64
  0
VERTEX
  8
CAN-TOP
 10
0.327484
 20
4.625
 30
-0.0
 70
    64
  0
VERTEX
  8
CAN-TOP
 10
0.0
 20
4.625
 30
-0.0
 70
    64
  0
VERTEX
  8
CAN-TOP
 10
0.491226
 20
4.625
 30
-0.850828
 70
    64
  0
VERTEX
  8
CAN-TOP
 10
0.327484
 20
4.625
 30
-0.567219
 70
    64
  0
VERTEX
  8
CAN-TOP
 10
0.163742
 20
4.625
 30
-0.283609
 70
    64
  0
VERTEX
  8
CAN-TOP
 10
-0.0
 20
4.625
 30
-0.0
 70
    64
  0
VERTEX
  8
CAN-TOP
 10
-0.491226
 20
4.625
 30
-0.850828
 70
    64
  0
VERTEX
  8
CAN-TOP
 10
-0.327484
 20
4.625
 30
-0.567219
 70
    64
  0
VERTEX
  8
CAN-TOP
 10
-0.163742
 20
4.625
 30
-0.283609
 70
    64
  0
VERTEX
  8
CAN-TOP
 10
-0.0
 20
4.625
 30
0.0
 70
    64
  0
VERTEX
  8
CAN-TOP
 10
-0.982451
 20
4.625
 30
-0.0
 70
    64
  0
VERTEX
  8
CAN-TOP
 10
-0.654968
 20
4.625
 30
-0.0
 70
    64
  0
VERTEX
  8
CAN-TOP
 10
-0.327484
 20
4.625
 30
-0.0
 70
    64
  0
VERTEX
  8
CAN-TOP
 10
-0.0
 20
4.625
 30
-0.0
 70
    64
  0
VERTEX
  8
CAN-TOP
 10
-0.491226
 20
4.625
 30
0.850828
 70
    64
  0
VERTEX
  8
CAN-TOP
 10
-0.327484
 20
4.625
 30
0.567219
 70
    64
  0
VERTEX
  8
CAN-TOP
 10
-0.163742
 20
4.625
 30
0.283609
 70
    64
  0
VERTEX
  8
CAN-TOP
 10
-0.0
 20
4.625
 30
-0.0
 70
    64
  0
VERTEX
  8
CAN-TOP
 10
0.491226
 20
4.625
 30
0.850828
 70
    64
  0
VERTEX
  8
CAN-TOP
 10
0.327484
 20
4.625
 30
0.567219
 70
    64
  0
VERTEX
  8
CAN-TOP
 10
0.163742
 20
4.625
 30
0.283609
 70
    64
  0
VERTEX
  8
CAN-TOP
 10
-0.0
 20
4.625
 30
-0.0
 70
    64
  0
SEQEND
  8
CAN-TOP
  0
POLYLINE
  8
CAN-TOP
 66
     1
 10
0.0
 20
0.0
 30
0.0
 70
    17
 71
     6
 72
     4
  0
VERTEX
  8
CAN-TOP
 10
1.0625
 20
4.5
 30
-0.0
 70
    64
  0
VERTEX
  8
CAN-TOP
 10
1.056028
 20
4.525886
 30
0.0
 70
    64
  0
VERTEX
  8
CAN-TOP
 10
1.049557
 20
4.551772
 30
-0.0
 70
    64
  0
VERTEX
  8
CAN-TOP
 10
1.043085
 20
4.577658
 30
-0.0
 70
    64
  0
VERTEX
  8
CAN-TOP
 10
0.53125
 20
4.5
 30
-0.920152
 70
    64
  0
VERTEX
  8
CAN-TOP
 10
0.528014
 20
4.525886
 30
-0.914547
 70
    64
  0
VERTEX
  8
CAN-TOP
 10
0.524778
 20
4.551772
 30
-0.908943
 70
    64
  0
VERTEX
  8
CAN-TOP
 10
0.521543
 20
4.577658
 30
-0.903338
 70
    64
  0
VERTEX
  8
CAN-TOP
 10
-0.53125
 20
4.5
 30
-0.920152
 70
    64
  0
VERTEX
  8
CAN-TOP
 10
-0.528014
 20
4.525886
 30
-0.914547
 70
    64
  0
VERTEX
  8
CAN-TOP
 10
-0.524778
 20
4.551772
 30
-0.908943
 70
    64
  0
VERTEX
  8
CAN-TOP
 10
-0.521543
 20
4.577658
 30
-0.903338
 70
    64
  0
VERTEX
  8
CAN-TOP
 10
-1.0625
 20
4.5
 30
-0.0
 70
    64
  0
VERTEX
  8
CAN-TOP
 10
-1.056028
 20
4.525886
 30
-0.0
 70
    64
  0
VERTEX
  8
CAN-TOP
 10
-1.049557
 20
4.551772
 30
-0.0
 70
    64
  0
VERTEX
  8
CAN-TOP
 10
-1.043085
 20
4.577658
 30
-0.0
 70
    64
  0
VERTEX
  8
CAN-TOP
 10
-0.53125
 20
4.5
 30
0.920152
 70
    64
  0
VERTEX
  8
CAN-TOP
 10
-0.528014
 20
4.525886
 30
0.914547
 70
    64
  0
VERTEX
  8
CAN-TOP
 10
-0.524778
 20
4.551772
 30
0.908943
 70
    64
  0
VERTEX
  8
CAN-TOP
 10
-0.521543
 20
4.577658
 30
0.903338
 70
    64
  0
VERTEX
  8
CAN-TOP
 10
0.53125
 20
4.5
 30
0.920152
 70
    64
  0
VERTEX
  8
CAN-TOP
 10
0.528014
 20
4.525886
 30
0.914547
 70
    64
  0
VERTEX
  8
CAN-TOP
 10
0.524778
 20
4.551772
 30
0.908943
 70
    64
  0
VERTEX
  8
CAN-TOP
 10
0.521543
 20
4.577658
 30
0.903338
 70
    64
  0
SEQEND
  8
CAN-TOP
  0
POLYLINE
  8
CAN-TOP
 66
     1
 10
0.0
 20
0.0
 30
0.0
 70
    17
 71
     6
 72
     4
  0
VERTEX
  8
CAN-TOP
 10
1.09375
 20
4.5
 30
-0.0
 70
    64
  0
VERTEX
  8
CAN-TOP
 10
1.083333
 20
4.5
 30
-0.0
 70
    64
  0
VERTEX
  8
CAN-TOP
 10
1.072917
 20
4.5
 30
-0.0
 70
    64
  0
VERTEX
  8
CAN-TOP
 10
1.0625
 20
4.5
 30
-0.0
 70
    64
  0
VERTEX
  8
CAN-TOP
 10
0.546875
 20
4.5
 30
-0.947215
 70
    64
  0
VERTEX
  8
CAN-TOP
 10
0.541667
 20
4.5
 30
-0.938194
 70
    64
  0
VERTEX
  8
CAN-TOP
 10
0.536458
 20
4.5
 30
-0.929173
 70
    64
  0
VERTEX
  8
CAN-TOP
 10
0.53125
 20
4.5
 30
-0.920152
 70
    64
  0
VERTEX
  8
CAN-TOP
 10
-0.546875
 20
4.5
 30
-0.947215
 70
    64
  0
VERTEX
  8
CAN-TOP
 10
-0.541667
 20
4.5
 30
-0.938194
 70
    64
  0
VERTEX
  8
CAN-TOP
 10
-0.536458
 20
4.5
 30
-0.929173
 70
    64
  0
VERTEX
  8
CAN-TOP
 10
-0.53125
 20
4.5
 30
-0.920152
 70
    64
  0
VERTEX
  8
CAN-TOP
 10
-1.09375
 20
4.5
 30
-0.0
 70
    64
  0
VERTEX
  8
CAN-TOP
 10
-1.083333
 20
4.5
 30
-0.0
 70
    64
  0
VERTEX
  8
CAN-TOP
 10
-1.072917
 20
4.5
 30
-0.0
 70
    64
  0
VERTEX
  8
CAN-TOP
 10
-1.0625
 20
4.5
 30
-0.0
 70
    64
  0
VERTEX
  8
CAN-TOP
 10
-0.546875
 20
4.5
 30
0.947215
 70
    64
  0
VERTEX
  8
CAN-TOP
 10
-0.541667
 20
4.5
 30
0.938194
 70
    64
  0
VERTEX
  8
CAN-TOP
 10
-0.536458
 20
4.5
 30
0.929173
 70
    64
  0
VERTEX
  8
CAN-TOP
 10
-0.53125
 20
4.5
 30
0.920152
 70
    64
  0
VERTEX
  8
CAN-TOP
 10
0.546875
 20
4.5
 30
0.947215
 70
    64
  0
VERTEX
  8
CAN-TOP
 10
0.541667
 20
4.5
 30
0.938194
 70
    64
  0
VERTEX
  8
CAN-TOP
 10
0.536458
 20
4.5
 30
0.929173
 70
    64
  0
VERTEX
  8
CAN-TOP
 10
0.53125
 20
4.5
 30
0.920152
 70
    64
  0
SEQEND
  8
CAN-TOP
  0
POLYLINE
  8
CAN-TOP
 66
     1
 10
0.0
 20
0.0
 30
0.0
 70
    17
 71
     6
 72
     4
  0
VERTEX
  8
CAN-TOP
 10
1.09375
 20
4.5
 30
-0.0
 70
    64
  0
VERTEX
  8
CAN-TOP
 10
1.103596
 20
4.578771
 30
0.0
 70
    64
  0
VERTEX
  8
CAN-TOP
 10
1.113443
 20
4.657542
 30
-0.0
 70
    64
  0
VERTEX
  8
CAN-TOP
 10
1.123289
 20
4.736313
 30
-0.0
 70
    64
  0
VERTEX
  8
CAN-TOP
 10
0.546875
 20
4.5
 30
-0.947215
 70
    64
  0
VERTEX
  8
CAN-TOP
 10
0.551798
 20
4.578771
 30
-0.955742
 70
    64
  0
VERTEX
  8
CAN-TOP
 10
0.556721
 20
4.657542
 30
-0.96427
 70
    64
  0
VERTEX
  8
CAN-TOP
 10
0.561645
 20
4.736313
 30
-0.972797
 70
    64
  0
VERTEX
  8
CAN-TOP
 10
-0.546875
 20
4.5
 30
-0.947215
 70
    64
  0
VERTEX
  8
CAN-TOP
 10
-0.551798
 20
4.578771
 30
-0.955742
 70
    64
  0
VERTEX
  8
CAN-TOP
 10
-0.556721
 20
4.657542
 30
-0.96427
 70
    64
  0
VERTEX
  8
CAN-TOP
 10
-0.561645
 20
4.736313
 30
-0.972797
 70
    64
  0
VERTEX
  8
CAN-TOP
 10
-1.09375
 20
4.5
 30
-0.0
 70
    64
  0
VERTEX
  8
CAN-TOP
 10
-1.103596
 20
4.578771
 30
-0.0
 70
    64
  0
VERTEX
  8
CAN-TOP
 10
-1.113443
 20
4.657542
 30
-0.0
 70
    64
  0
VERTEX
  8
CAN-TOP
 10
-1.123289
 20
4.736313
 30
-0.0
 70
    64
  0
VERTEX
  8
CAN-TOP
 10
-0.546875
 20
4.5
 30
0.947215
 70
    64
  0
VERTEX
  8
CAN-TOP
 10
-0.551798
 20
4.578771
 30
0.955742
 70
    64
  0
VERTEX
  8
CAN-TOP
 10
-0.556721
 20
4.657542
 30
0.96427
 70
    64
  0
VERTEX
  8
CAN-TOP
 10
-0.561645
 20
4.736313
 30
0.972797
 70
    64
  0
VERTEX
  8
CAN-TOP
 10
0.546875
 20
4.5
 30
0.947215
 70
    64
  0
VERTEX
  8
CAN-TOP
 10
0.551798
 20
4.578771
 30
0.955742
 70
    64
  0
VERTEX
  8
CAN-TOP
 10
0.556721
 20
4.657542
 30
0.96427
 70
    64
  0
VERTEX
  8
CAN-TOP
 10
0.561645
 20
4.736313
 30
0.972797
 70
    64
  0
SEQEND
  8
CAN-TOP
  0
POLYLINE
  8
CAN-TOP
 66
     1
 10
0.0
 20
0.0
 30
0.0
 70
    17
 71
     6
 72
     4
  0
VERTEX
  8
CAN-TOP
 10
1.140625
 20
4.75
 30
-0.0
 70
    64
  0
VERTEX
  8
CAN-TOP
 10
1.140014
 20
4.75
 30
-0.0
 70
    64
  0
VERTEX
  8
CAN-TOP
 10
1.139404
 20
4.75
 30
-0.0
 70
    64
  0
VERTEX
  8
CAN-TOP
 10
1.138793
 20
4.75
 30
-0.0
 70
    64
  0
VERTEX
  8
CAN-TOP
 10
0.570313
 20
4.75
 30
-0.98781
 70
    64
  0
VERTEX
  8
CAN-TOP
 10
0.570007
 20
4.75
 30
-0.987282
 70
    64
  0
VERTEX
  8
CAN-TOP
 10
0.569702
 20
4.75
 30
-0.986753
 70
    64
  0
VERTEX
  8
CAN-TOP
 10
0.569397
 20
4.75
 30
-0.986224
 70
    64
  0
VERTEX
  8
CAN-TOP
 10
-0.570312
 20
4.75
 30
-0.98781
 70
    64
  0
VERTEX
  8
CAN-TOP
 10
-0.570007
 20
4.75
 30
-0.987282
 70
    64
  0
VERTEX
  8
CAN-TOP
 10
-0.569702
 20
4.75
 30
-0.986753
 70
    64
  0
VERTEX
  8
CAN-TOP
 10
-0.569397
 20
4.75
 30
-0.986224
 70
    64
  0
VERTEX
  8
CAN-TOP
 10
-1.140625
 20
4.75
 30
-0.0
 70
    64
  0
VERTEX
  8
CAN-TOP
 10
-1.140014
 20
4.75
 30
-0.0
 70
    64
  0
VERTEX
  8
CAN-TOP
 10
-1.139404
 20
4.75
 30
-0.0
 70
    64
  0
VERTEX
  8
CAN-TOP
 10
-1.138793
 20
4.75
 30
-0.0
 70
    64
  0
VERTEX
  8
CAN-TOP
 10
-0.570313
 20
4.75
 30
0.98781
 70
    64
  0
VERTEX
  8
CAN-TOP
 10
-0.570007
 20
4.75
 30
0.987282
 70
    64
  0
VERTEX
  8
CAN-TOP
 10
-0.569702
 20
4.75
 30
0.986753
 70
    64
  0
VERTEX
  8
CAN-TOP
 10
-0.569397
 20
4.75
 30
0.986224
 70
    64
  0
VERTEX
  8
CAN-TOP
 10
0.570312
 20
4.75
 30
0.98781
 70
    64
  0
VERTEX
  8
CAN-TOP
 10
0.570007
 20
4.75
 30
0.987282
 70
    64
  0
VERTEX
  8
CAN-TOP
 10
0.569702
 20
4.75
 30
0.986753
 70
    64
  0
VERTEX
  8
CAN-TOP
 10
0.569397
 20
4.75
 30
0.986224
 70
    64
  0
SEQEND
  8
CAN-TOP
  0
POLYLINE
  8
CAN-TOP
 66
     1
 10
0.0
 20
0.0
 30
0.0
 70
    17
 71
     6
 72
     4
  0
VERTEX
  8
CAN-TOP
 10
1.15625
 20
4.65625
 30
-0.0
 70
    64
  0
VERTEX
  8
CAN-TOP
 10
1.15625
 20
4.682292
 30
0.0
 70
    64
  0
VERTEX
  8
CAN-TOP
 10
1.15625
 20
4.708333
 30
-0.0
 70
    64
  0
VERTEX
  8
CAN-TOP
 10
1.15625
 20
4.734375
 30
-0.0
 70
    64
  0
VERTEX
  8
CAN-TOP
 10
0.578125
 20
4.65625
 30
-1.001342
 70
    64
  0
VERTEX
  8
CAN-TOP
 10
0.578125
 20
4.682292
 30
-1.001342
 70
    64
  0
VERTEX
  8
CAN-TOP
 10
0.578125
 20
4.708333
 30
-1.001342
 70
    64
  0
VERTEX
  8
CAN-TOP
 10
0.578125
 20
4.734375
 30
-1.001342
 70
    64
  0
VERTEX
  8
CAN-TOP
 10
-0.578125
 20
4.65625
 30
-1.001342
 70
    64
  0
VERTEX
  8
CAN-TOP
 10
-0.578125
 20
4.682292
 30
-1.001342
 70
    64
  0
VERTEX
  8
CAN-TOP
 10
-0.578125
 20
4.708333
 30
-1.001342
 70
    64
  0
VERTEX
  8
CAN-TOP
 10
-0.578125
 20
4.734375
 30
-1.001342
 70
    64
  0
VERTEX
  8
CAN-TOP
 10
-1.15625
 20
4.65625
 30
-0.0
 70
    64
  0
VERTEX
  8
CAN-TOP
 10
-1.15625
 20
4.682292
 30
-0.0
 70
    64
  0
VERTEX
  8
CAN-TOP
 10
-1.15625
 20
4.708333
 30
-0.0
 70
    64
  0
VERTEX
  8
CAN-TOP
 10
-1.15625
 20
4.734375
 30
-0.0
 70
    64
  0
VERTEX
  8
CAN-TOP
 10
-0.578125
 20
4.65625
 30
1.001342
 70
    64
  0
VERTEX
  8
CAN-TOP
 10
-0.578125
 20
4.682292
 30
1.001342
 70
    64
  0
VERTEX
  8
CAN-TOP
 10
-0.578125
 20
4.708333
 30
1.001342
 70
    64
  0
VERTEX
  8
CAN-TOP
 10
-0.578125
 20
4.734375
 30
1.001342
 70
    64
  0
VERTEX
  8
CAN-TOP
 10
0.578125
 20
4.65625
 30
1.001342
 70
    64
  0
VERTEX
  8
CAN-TOP
 10
0.578125
 20
4.682292
 30
1.001342
 70
    64
  0
VERTEX
  8
CAN-TOP
 10
0.578125
 20
4.708333
 30
1.001342
 70
    64
  0
VERTEX
  8
CAN-TOP
 10
0.578125
 20
4.734375
 30
1.001342
 70
    64
  0
SEQEND
  8
CAN-TOP
  0
POLYLINE
  8
CAN-TOP
 66
     1
 10
0.0
 20
0.0
 30
0.0
 70
    17
 71
     6
 72
     4
  0
VERTEX
  8
CAN-TOP
 10
1.125
 20
4.65625
 30
-0.0
 70
    64
  0
VERTEX
  8
CAN-TOP
 10
1.135417
 20
4.65625
 30
-0.0
 70
    64
  0
VERTEX
  8
CAN-TOP
 10
1.145833
 20
4.65625
 30
-0.0
 70
    64
  0
VERTEX
  8
CAN-TOP
 10
1.15625
 20
4.65625
 30
-0.0
 70
    64
  0
VERTEX
  8
CAN-TOP
 10
0.5625
 20
4.65625
 30
-0.974279
 70
    64
  0
VERTEX
  8
CAN-TOP
 10
0.567708
 20
4.65625
 30
-0.9833
 70
    64
  0
VERTEX
  8
CAN-TOP
 10
0.572917
 20
4.65625
 30
-0.992321
 70
    64
  0
VERTEX
  8
CAN-TOP
 10
0.578125
 20
4.65625
 30
-1.001342
 70
    64
  0
VERTEX
  8
CAN-TOP
 10
-0.5625
 20
4.65625
 30
-0.974279
 70
    64
  0
VERTEX
  8
CAN-TOP
 10
-0.567708
 20
4.65625
 30
-0.9833
 70
    64
  0
VERTEX
  8
CAN-TOP
 10
-0.572917
 20
4.65625
 30
-0.992321
 70
    64
  0
VERTEX
  8
CAN-TOP
 10
-0.578125
 20
4.65625
 30
-1.001342
 70
    64
  0
VERTEX
  8
CAN-TOP
 10
-1.125
 20
4.65625
 30
-0.0
 70
    64
  0
VERTEX
  8
CAN-TOP
 10
-1.135417
 20
4.65625
 30
-0.0
 70
    64
  0
VERTEX
  8
CAN-TOP
 10
-1.145833
 20
4.65625
 30
-0.0
 70
    64
  0
VERTEX
  8
CAN-TOP
 10
-1.15625
 20
4.65625
 30
-0.0
 70
    64
  0
VERTEX
  8
CAN-TOP
 10
-0.5625
 20
4.65625
 30
0.974279
 70
    64
  0
VERTEX
  8
CAN-TOP
 10
-0.567708
 20
4.65625
 30
0.9833
 70
    64
  0
VERTEX
  8
CAN-TOP
 10
-0.572917
 20
4.65625
 30
0.992321
 70
    64
  0
VERTEX
  8
CAN-TOP
 10
-0.578125
 20
4.65625
 30
1.001342
 70
    64
  0
VERTEX
  8
CAN-TOP
 10
0.5625
 20
4.65625
 30
0.974279
 70
    64
  0
VERTEX
  8
CAN-TOP
 10
0.567708
 20
4.65625
 30
0.9833
 70
    64
  0
VERTEX
  8
CAN-TOP
 10
0.572917
 20
4.65625
 30
0.992321
 70
    64
  0
VERTEX
  8
CAN-TOP
 10
0.578125
 20
4.65625
 30
1.001342
 70
    64
  0
SEQEND
  8
CAN-TOP
  0
ENDBLK
  8
CAN-TOP
  0
BLOCK
  8
CAN-BOTTOM
  2
CANBOT
 70
    64
 10
0.0
 20
0.0
 30
0.0
  0
ARC
  8
CAN-BOTTOM
 10
0.0
 20
-3.035156
 30
0.0
 40
3.347656
 50
74.293373
 51
90.0
  0
ARC
  8
CAN-BOTTOM
 10
1.111911
 20
0.138089
 30
0.0
 40
0.0625
 50
108.434949
 51
161.565051
  0
ARC
  8
CAN-BOTTOM
 10
0.980012
 20
0.015625
 30
0.0
 40
0.015625
 50
198.434949
 51
270.0
  0
ARC
  8
CAN-BOTTOM
 10
0.988738
 20
0.015625
 30
0.0
 40
0.015625
 50
270.0
 51
341.565051
  0
LINE
  8
CAN-BOTTOM
 10
0.965189
 20
0.010684
 30
0.0
 11
0.90625
 21
0.1875
 31
0.0
  0
LINE
  8
CAN-BOTTOM
 10
0.988738
 20
0.0
 30
0.0
 11
0.980012
 21
0.0
 31
0.0
  0
LINE
  8
CAN-BOTTOM
 10
1.052618
 20
0.157854
 30
0.0
 11
1.003561
 21
0.010684
 31
0.0
  0
ARC
  8
CAN-BOTTOM
 10
1.125
 20
0.340095
 30
0.0
 40
0.125
 50
288.434949
 51
0.0
  0
LINE
  8
CAN-BOTTOM
 10
1.092146
 20
0.197382
 30
0.0
 11
1.164528
 21
0.221509
 31
-0.0
  0
ATTDEF
  8
CAN-BOTTOM
 10
0.0
 20
0.0
 30
0.0
 40
0.2
  1
0.0
  3

  2
REVANG
 70
     3
  0
POLYLINE
  8
CAN-BOTTOM
 66
     1
 10
0.0
 20
0.0
 30
0.0
 70
    17
 71
     6
 72
     4
  0
VERTEX
  8
CAN-BOTTOM
 10
-0.0
 20
0.3125
 30
0.0
 70
    64
  0
VERTEX
  8
CAN-BOTTOM
 10
0.305475
 20
0.298534
 30
0.0
 70
    64
  0
VERTEX
  8
CAN-BOTTOM
 10
0.608401
 20
0.256751
 30
0.0
 70
    64
  0
VERTEX
  8
CAN-BOTTOM
 10
0.90625
 20
0.1875
 30
0.0
 70
    64
  0
VERTEX
  8
CAN-BOTTOM
 10
-0.0
 20
0.3125
 30
0.0
 70
    64
  0
VERTEX
  8
CAN-BOTTOM
 10
0.152737
 20
0.298534
 30
-0.264549
 70
    64
  0
VERTEX
  8
CAN-BOTTOM
 10
0.3042
 20
0.256751
 30
-0.52689
 70
    64
  0
VERTEX
  8
CAN-BOTTOM
 10
0.453125
 20
0.1875
 30
-0.784836
 70
    64
  0
VERTEX
  8
CAN-BOTTOM
 10
0.0
 20
0.3125
 30
0.0
 70
    64
  0
VERTEX
  8
CAN-BOTTOM
 10
-0.152737
 20
0.298534
 30
-0.264549
 70
    64
  0
VERTEX
  8
CAN-BOTTOM
 10
-0.3042
 20
0.256751
 30
-0.52689
 70
    64
  0
VERTEX
  8
CAN-BOTTOM
 10
-0.453125
 20
0.1875
 30
-0.784836
 70
    64
  0
VERTEX
  8
CAN-BOTTOM
 10
0.0
 20
0.3125
 30
0.0
 70
    64
  0
VERTEX
  8
CAN-BOTTOM
 10
-0.305475
 20
0.298534
 30
-0.0
 70
    64
  0
VERTEX
  8
CAN-BOTTOM
 10
-0.608401
 20
0.256751
 30
-0.0
 70
    64
  0
VERTEX
  8
CAN-BOTTOM
 10
-0.90625
 20
0.1875
 30
-0.0
 70
    64
  0
VERTEX
  8
CAN-BOTTOM
 10
0.0
 20
0.3125
 30
-0.0
 70
    64
  0
VERTEX
  8
CAN-BOTTOM
 10
-0.152737
 20
0.298534
 30
0.264549
 70
    64
  0
VERTEX
  8
CAN-BOTTOM
 10
-0.3042
 20
0.256751
 30
0.52689
 70
    64
  0
VERTEX
  8
CAN-BOTTOM
 10
-0.453125
 20
0.1875
 30
0.784836
 70
    64
  0
VERTEX
  8
CAN-BOTTOM
 10
-0.0
 20
0.3125
 30
-0.0
 70
    64
  0
VERTEX
  8
CAN-BOTTOM
 10
0.152737
 20
0.298534
 30
0.264549
 70
    64
  0
VERTEX
  8
CAN-BOTTOM
 10
0.3042
 20
0.256751
 30
0.52689
 70
    64
  0
VERTEX
  8
CAN-BOTTOM
 10
0.453125
 20
0.1875
 30
0.784836
 70
    64
  0
SEQEND
  8
CAN-BOTTOM
  0
POLYLINE
  8
CAN-BOTTOM
 66
     1
 10
0.0
 20
0.0
 30
0.0
 70
    17
 71
     6
 72
     4
  0
VERTEX
  8
CAN-BOTTOM
 10
1.092146
 20
0.197382
 30
0.0
 70
    64
  0
VERTEX
  8
CAN-BOTTOM
 10
1.075046
 20
0.18856
 30
0.0
 70
    64
  0
VERTEX
  8
CAN-BOTTOM
 10
1.06144
 20
0.174954
 30
0.0
 70
    64
  0
VERTEX
  8
CAN-BOTTOM
 10
1.052618
 20
0.157854
 30
0.0
 70
    64
  0
VERTEX
  8
CAN-BOTTOM
 10
0.546073
 20
0.197382
 30
-0.945826
 70
    64
  0
VERTEX
  8
CAN-BOTTOM
 10
0.537523
 20
0.18856
 30
-0.931017
 70
    64
  0
VERTEX
  8
CAN-BOTTOM
 10
0.53072
 20
0.174954
 30
-0.919234
 70
    64
  0
VERTEX
  8
CAN-BOTTOM
 10
0.526309
 20
0.157854
 30
-0.911594
 70
    64
  0
VERTEX
  8
CAN-BOTTOM
 10
-0.546073
 20
0.197382
 30
-0.945826
 70
    64
  0
VERTEX
  8
CAN-BOTTOM
 10
-0.537523
 20
0.18856
 30
-0.931017
 70
    64
  0
VERTEX
  8
CAN-BOTTOM
 10
-0.53072
 20
0.174954
 30
-0.919234
 70
    64
  0
VERTEX
  8
CAN-BOTTOM
 10
-0.526309
 20
0.157854
 30
-0.911594
 70
    64
  0
VERTEX
  8
CAN-BOTTOM
 10
-1.092146
 20
0.197382
 30
-0.0
 70
    64
  0
VERTEX
  8
CAN-BOTTOM
 10
-1.075046
 20
0.18856
 30
-0.0
 70
    64
  0
VERTEX
  8
CAN-BOTTOM
 10
-1.06144
 20
0.174954
 30
-0.0
 70
    64
  0
VERTEX
  8
CAN-BOTTOM
 10
-1.052618
 20
0.157854
 30
-0.0
 70
    64
  0
VERTEX
  8
CAN-BOTTOM
 10
-0.546073
 20
0.197382
 30
0.945826
 70
    64
  0
VERTEX
  8
CAN-BOTTOM
 10
-0.537523
 20
0.18856
 30
0.931017
 70
    64
  0
VERTEX
  8
CAN-BOTTOM
 10
-0.53072
 20
0.174954
 30
0.919234
 70
    64
  0
VERTEX
  8
CAN-BOTTOM
 10
-0.526309
 20
0.157854
 30
0.911594
 70
    64
  0
VERTEX
  8
CAN-BOTTOM
 10
0.546073
 20
0.197382
 30
0.945826
 70
    64
  0
VERTEX
  8
CAN-BOTTOM
 10
0.537523
 20
0.18856
 30
0.931017
 70
    64
  0
VERTEX
  8
CAN-BOTTOM
 10
0.53072
 20
0.174954
 30
0.919234
 70
    64
  0
VERTEX
  8
CAN-BOTTOM
 10
0.526309
 20
0.157854
 30
0.911594
 70
    64
  0
SEQEND
  8
CAN-BOTTOM
  0
POLYLINE
  8
CAN-BOTTOM
 66
     1
 10
0.0
 20
0.0
 30
0.0
 70
    17
 71
     6
 72
     4
  0
VERTEX
  8
CAN-BOTTOM
 10
0.965189
 20
0.010684
 30
-0.0
 70
    64
  0
VERTEX
  8
CAN-BOTTOM
 10
0.968453
 20
0.005111
 30
0.0
 70
    64
  0
VERTEX
  8
CAN-BOTTOM
 10
0.973693
 20
0.001335
 30
0.0
 70
    64
  0
VERTEX
  8
CAN-BOTTOM
 10
0.980012
 20
0.0
 30
0.0
 70
    64
  0
VERTEX
  8
CAN-BOTTOM
 10
0.482594
 20
0.010684
 30
-0.835878
 70
    64
  0
VERTEX
  8
CAN-BOTTOM
 10
0.484227
 20
0.005111
 30
-0.838705
 70
    64
  0
VERTEX
  8
CAN-BOTTOM
 10
0.486846
 20
0.001335
 30
-0.843243
 70
    64
  0
VERTEX
  8
CAN-BOTTOM
 10
0.490006
 20
-0.0
 30
-0.848715
 70
    64
  0
VERTEX
  8
CAN-BOTTOM
 10
-0.482594
 20
0.010684
 30
-0.835878
 70
    64
  0
VERTEX
  8
CAN-BOTTOM
 10
-0.484227
 20
0.005111
 30
-0.838705
 70
    64
  0
VERTEX
  8
CAN-BOTTOM
 10
-0.486846
 20
0.001335
 30
-0.843243
 70
    64
  0
VERTEX
  8
CAN-BOTTOM
 10
-0.490006
 20
-0.0
 30
-0.848715
 70
    64
  0
VERTEX
  8
CAN-BOTTOM
 10
-0.965189
 20
0.010684
 30
-0.0
 70
    64
  0
VERTEX
  8
CAN-BOTTOM
 10
-0.968453
 20
0.005111
 30
-0.0
 70
    64
  0
VERTEX
  8
CAN-BOTTOM
 10
-0.973693
 20
0.001335
 30
-0.0
 70
    64
  0
VERTEX
  8
CAN-BOTTOM
 10
-0.980012
 20
-0.0
 30
-0.0
 70
    64
  0
VERTEX
  8
CAN-BOTTOM
 10
-0.482594
 20
0.010684
 30
0.835878
 70
    64
  0
VERTEX
  8
CAN-BOTTOM
 10
-0.484227
 20
0.005111
 30
0.838705
 70
    64
  0
VERTEX
  8
CAN-BOTTOM
 10
-0.486846
 20
0.001335
 30
0.843243
 70
    64
  0
VERTEX
  8
CAN-BOTTOM
 10
-0.490006
 20
0.0
 30
0.848715
 70
    64
  0
VERTEX
  8
CAN-BOTTOM
 10
0.482594
 20
0.010684
 30
0.835878
 70
    64
  0
VERTEX
  8
CAN-BOTTOM
 10
0.484227
 20
0.005111
 30
0.838705
 70
    64
  0
VERTEX
  8
CAN-BOTTOM
 10
0.486846
 20
0.001335
 30
0.843243
 70
    64
  0
VERTEX
  8
CAN-BOTTOM
 10
0.490006
 20
0.0
 30
0.848715
 70
    64
  0
SEQEND
  8
CAN-BOTTOM
  0
POLYLINE
  8
CAN-BOTTOM
 66
     1
 10
0.0
 20
0.0
 30
0.0
 70
    17
 71
     6
 72
     4
  0
VERTEX
  8
CAN-BOTTOM
 10
1.003561
 20
0.010684
 30
0.0
 70
    64
  0
VERTEX
  8
CAN-BOTTOM
 10
1.000297
 20
0.005111
 30
0.0
 70
    64
  0
VERTEX
  8
CAN-BOTTOM
 10
0.995057
 20
0.001335
 30
0.0
 70
    64
  0
VERTEX
  8
CAN-BOTTOM
 10
0.988738
 20
0.0
 30
0.0
 70
    64
  0
VERTEX
  8
CAN-BOTTOM
 10
0.501781
 20
0.010684
 30
-0.86911
 70
    64
  0
VERTEX
  8
CAN-BOTTOM
 10
0.500148
 20
0.005111
 30
-0.866282
 70
    64
  0
VERTEX
  8
CAN-BOTTOM
 10
0.497529
 20
0.001335
 30
-0.861745
 70
    64
  0
VERTEX
  8
CAN-BOTTOM
 10
0.494369
 20
-0.0
 30
-0.856272
 70
    64
  0
VERTEX
  8
CAN-BOTTOM
 10
-0.501781
 20
0.010684
 30
-0.86911
 70
    64
  0
VERTEX
  8
CAN-BOTTOM
 10
-0.500148
 20
0.005111
 30
-0.866282
 70
    64
  0
VERTEX
  8
CAN-BOTTOM
 10
-0.497529
 20
0.001335
 30
-0.861745
 70
    64
  0
VERTEX
  8
CAN-BOTTOM
 10
-0.494369
 20
-0.0
 30
-0.856272
 70
    64
  0
VERTEX
  8
CAN-BOTTOM
 10
-1.003561
 20
0.010684
 30
-0.0
 70
    64
  0
VERTEX
  8
CAN-BOTTOM
 10
-1.000297
 20
0.005111
 30
-0.0
 70
    64
  0
VERTEX
  8
CAN-BOTTOM
 10
-0.995057
 20
0.001335
 30
-0.0
 70
    64
  0
VERTEX
  8
CAN-BOTTOM
 10
-0.988738
 20
0.0
 30
-0.0
 70
    64
  0
VERTEX
  8
CAN-BOTTOM
 10
-0.501781
 20
0.010684
 30
0.86911
 70
    64
  0
VERTEX
  8
CAN-BOTTOM
 10
-0.500148
 20
0.005111
 30
0.866282
 70
    64
  0
VERTEX
  8
CAN-BOTTOM
 10
-0.497529
 20
0.001335
 30
0.861745
 70
    64
  0
VERTEX
  8
CAN-BOTTOM
 10
-0.494369
 20
0.0
 30
0.856272
 70
    64
  0
VERTEX
  8
CAN-BOTTOM
 10
0.501781
 20
0.010684
 30
0.86911
 70
    64
  0
VERTEX
  8
CAN-BOTTOM
 10
0.500148
 20
0.005111
 30
0.866282
 70
    64
  0
VERTEX
  8
CAN-BOTTOM
 10
0.497529
 20
0.001335
 30
0.861745
 70
    64
  0
VERTEX
  8
CAN-BOTTOM
 10
0.494369
 20
0.0
 30
0.856272
 70
    64
  0
SEQEND
  8
CAN-BOTTOM
  0
POLYLINE
  8
CAN-BOTTOM
 66
     1
 10
0.0
 20
0.0
 30
0.0
 70
    17
 71
     6
 72
     4
  0
VERTEX
  8
CAN-BOTTOM
 10
0.965189
 20
0.010684
 30
0.0
 70
    64
  0
VERTEX
  8
CAN-BOTTOM
 10
0.945542
 20
0.069623
 30
0.0
 70
    64
  0
VERTEX
  8
CAN-BOTTOM
 10
0.925896
 20
0.128561
 30
0.0
 70
    64
  0
VERTEX
  8
CAN-BOTTOM
 10
0.90625
 20
0.1875
 30
0.0
 70
    64
  0
VERTEX
  8
CAN-BOTTOM
 10
0.482594
 20
0.010684
 30
-0.835878
 70
    64
  0
VERTEX
  8
CAN-BOTTOM
 10
0.472771
 20
0.069623
 30
-0.818864
 70
    64
  0
VERTEX
  8
CAN-BOTTOM
 10
0.462948
 20
0.128561
 30
-0.80185
 70
    64
  0
VERTEX
  8
CAN-BOTTOM
 10
0.453125
 20
0.1875
 30
-0.784836
 70
    64
  0
VERTEX
  8
CAN-BOTTOM
 10
-0.482594
 20
0.010684
 30
-0.835878
 70
    64
  0
VERTEX
  8
CAN-BOTTOM
 10
-0.472771
 20
0.069623
 30
-0.818864
 70
    64
  0
VERTEX
  8
CAN-BOTTOM
 10
-0.462948
 20
0.128561
 30
-0.80185
 70
    64
  0
VERTEX
  8
CAN-BOTTOM
 10
-0.453125
 20
0.1875
 30
-0.784836
 70
    64
  0
VERTEX
  8
CAN-BOTTOM
 10
-0.965189
 20
0.010684
 30
-0.0
 70
    64
  0
VERTEX
  8
CAN-BOTTOM
 10
-0.945542
 20
0.069623
 30
-0.0
 70
    64
  0
VERTEX
  8
CAN-BOTTOM
 10
-0.925896
 20
0.128561
 30
-0.0
 70
    64
  0
VERTEX
  8
CAN-BOTTOM
 10
-0.90625
 20
0.1875
 30
-0.0
 70
    64
  0
VERTEX
  8
CAN-BOTTOM
 10
-0.482594
 20
0.010684
 30
0.835878
 70
    64
  0
VERTEX
  8
CAN-BOTTOM
 10
-0.472771
 20
0.069623
 30
0.818864
 70
    64
  0
VERTEX
  8
CAN-BOTTOM
 10
-0.462948
 20
0.128561
 30
0.80185
 70
    64
  0
VERTEX
  8
CAN-BOTTOM
 10
-0.453125
 20
0.1875
 30
0.784836
 70
    64
  0
VERTEX
  8
CAN-BOTTOM
 10
0.482594
 20
0.010684
 30
0.835878
 70
    64
  0
VERTEX
  8
CAN-BOTTOM
 10
0.472771
 20
0.069623
 30
0.818864
 70
    64
  0
VERTEX
  8
CAN-BOTTOM
 10
0.462948
 20
0.128561
 30
0.80185
 70
    64
  0
VERTEX
  8
CAN-BOTTOM
 10
0.453125
 20
0.1875
 30
0.784836
 70
    64
  0
SEQEND
  8
CAN-BOTTOM
  0
POLYLINE
  8
CAN-BOTTOM
 66
     1
 10
0.0
 20
0.0
 30
0.0
 70
    17
 71
     6
 72
     4
  0
VERTEX
  8
CAN-BOTTOM
 10
0.988738
 20
0.0
 30
0.0
 70
    64
  0
VERTEX
  8
CAN-BOTTOM
 10
0.985829
 20
0.0
 30
0.0
 70
    64
  0
VERTEX
  8
CAN-BOTTOM
 10
0.982921
 20
0.0
 30
0.0
 70
    64
  0
VERTEX
  8
CAN-BOTTOM
 10
0.980012
 20
0.0
 30
0.0
 70
    64
  0
VERTEX
  8
CAN-BOTTOM
 10
0.494369
 20
-0.0
 30
-0.856272
 70
    64
  0
VERTEX
  8
CAN-BOTTOM
 10
0.492915
 20
-0.0
 30
-0.853753
 70
    64
  0
VERTEX
  8
CAN-BOTTOM
 10
0.49146
 20
0.0
 30
-0.851234
 70
    64
  0
VERTEX
  8
CAN-BOTTOM
 10
0.490006
 20
-0.0
 30
-0.848715
 70
    64
  0
VERTEX
  8
CAN-BOTTOM
 10
-0.494369
 20
-0.0
 30
-0.856272
 70
    64
  0
VERTEX
  8
CAN-BOTTOM
 10
-0.492915
 20
-0.0
 30
-0.853753
 70
    64
  0
VERTEX
  8
CAN-BOTTOM
 10
-0.49146
 20
0.0
 30
-0.851234
 70
    64
  0
VERTEX
  8
CAN-BOTTOM
 10
-0.490006
 20
-0.0
 30
-0.848715
 70
    64
  0
VERTEX
  8
CAN-BOTTOM
 10
-0.988738
 20
0.0
 30
-0.0
 70
    64
  0
VERTEX
  8
CAN-BOTTOM
 10
-0.985829
 20
-0.0
 30
-0.0
 70
    64
  0
VERTEX
  8
CAN-BOTTOM
 10
-0.982921
 20
0.0
 30
-0.0
 70
    64
  0
VERTEX
  8
CAN-BOTTOM
 10
-0.980012
 20
-0.0
 30
-0.0
 70
    64
  0
VERTEX
  8
CAN-BOTTOM
 10
-0.494369
 20
0.0
 30
0.856272
 70
    64
  0
VERTEX
  8
CAN-BOTTOM
 10
-0.492915
 20
-0.0
 30
0.853753
 70
    64
  0
VERTEX
  8
CAN-BOTTOM
 10
-0.49146
 20
0.0
 30
0.851234
 70
    64
  0
VERTEX
  8
CAN-BOTTOM
 10
-0.490006
 20
0.0
 30
0.848715
 70
    64
  0
VERTEX
  8
CAN-BOTTOM
 10
0.494369
 20
0.0
 30
0.856272
 70
    64
  0
VERTEX
  8
CAN-BOTTOM
 10
0.492915
 20
0.0
 30
0.853753
 70
    64
  0
VERTEX
  8
CAN-BOTTOM
 10
0.49146
 20
0.0
 30
0.851234
 70
    64
  0
VERTEX
  8
CAN-BOTTOM
 10
0.490006
 20
0.0
 30
0.848715
 70
    64
  0
SEQEND
  8
CAN-BOTTOM
  0
POLYLINE
  8
CAN-BOTTOM
 66
     1
 10
0.0
 20
0.0
 30
0.0
 70
    17
 71
     6
 72
     4
  0
VERTEX
  8
CAN-BOTTOM
 10
1.003561
 20
0.010684
 30
0.0
 70
    64
  0
VERTEX
  8
CAN-BOTTOM
 10
1.019914
 20
0.059741
 30
0.0
 70
    64
  0
VERTEX
  8
CAN-BOTTOM
 10
1.036266
 20
0.108797
 30
0.0
 70
    64
  0
VERTEX
  8
CAN-BOTTOM
 10
1.052618
 20
0.157854
 30
0.0
 70
    64
  0
VERTEX
  8
CAN-BOTTOM
 10
0.501781
 20
0.010684
 30
-0.86911
 70
    64
  0
VERTEX
  8
CAN-BOTTOM
 10
0.509957
 20
0.059741
 30
-0.883271
 70
    64
  0
VERTEX
  8
CAN-BOTTOM
 10
0.518133
 20
0.108797
 30
-0.897432
 70
    64
  0
VERTEX
  8
CAN-BOTTOM
 10
0.526309
 20
0.157854
 30
-0.911594
 70
    64
  0
VERTEX
  8
CAN-BOTTOM
 10
-0.501781
 20
0.010684
 30
-0.86911
 70
    64
  0
VERTEX
  8
CAN-BOTTOM
 10
-0.509957
 20
0.059741
 30
-0.883271
 70
    64
  0
VERTEX
  8
CAN-BOTTOM
 10
-0.518133
 20
0.108797
 30
-0.897432
 70
    64
  0
VERTEX
  8
CAN-BOTTOM
 10
-0.526309
 20
0.157854
 30
-0.911594
 70
    64
  0
VERTEX
  8
CAN-BOTTOM
 10
-1.003561
 20
0.010684
 30
-0.0
 70
    64
  0
VERTEX
  8
CAN-BOTTOM
 10
-1.019914
 20
0.059741
 30
-0.0
 70
    64
  0
VERTEX
  8
CAN-BOTTOM
 10
-1.036266
 20
0.108797
 30
-0.0
 70
    64
  0
VERTEX
  8
CAN-BOTTOM
 10
-1.052618
 20
0.157854
 30
-0.0
 70
    64
  0
VERTEX
  8
CAN-BOTTOM
 10
-0.501781
 20
0.010684
 30
0.86911
 70
    64
  0
VERTEX
  8
CAN-BOTTOM
 10
-0.509957
 20
0.059741
 30
0.883271
 70
    64
  0
VERTEX
  8
CAN-BOTTOM
 10
-0.518133
 20
0.108797
 30
0.897432
 70
    64
  0
VERTEX
  8
CAN-BOTTOM
 10
-0.526309
 20
0.157854
 30
0.911594
 70
    64
  0
VERTEX
  8
CAN-BOTTOM
 10
0.501781
 20
0.010684
 30
0.86911
 70
    64
  0
VERTEX
  8
CAN-BOTTOM
 10
0.509957
 20
0.059741
 30
0.883271
 70
    64
  0
VERTEX
  8
CAN-BOTTOM
 10
0.518133
 20
0.108797
 30
0.897432
 70
    64
  0
VERTEX
  8
CAN-BOTTOM
 10
0.526309
 20
0.157854
 30
0.911594
 70
    64
  0
SEQEND
  8
CAN-BOTTOM
  0
POLYLINE
  8
CAN-BOTTOM
 66
     1
 10
0.0
 20
0.0
 30
0.0
 70
    17
 71
     6
 72
     4
  0
VERTEX
  8
CAN-BOTTOM
 10
1.164528
 20
0.221509
 30
0.0
 70
    64
  0
VERTEX
  8
CAN-BOTTOM
 10
1.20911
 20
0.247626
 30
0.0
 70
    64
  0
VERTEX
  8
CAN-BOTTOM
 10
1.239321
 20
0.289542
 30
0.0
 70
    64
  0
VERTEX
  8
CAN-BOTTOM
 10
1.25
 20
0.340095
 30
-0.0
 70
    64
  0
VERTEX
  8
CAN-BOTTOM
 10
0.582264
 20
0.221509
 30
-1.008511
 70
    64
  0
VERTEX
  8
CAN-BOTTOM
 10
0.604555
 20
0.247626
 30
-1.04712
 70
    64
  0
VERTEX
  8
CAN-BOTTOM
 10
0.619661
 20
0.289542
 30
-1.073284
 70
    64
  0
VERTEX
  8
CAN-BOTTOM
 10
0.625
 20
0.340095
 30
-1.082532
 70
    64
  0
VERTEX
  8
CAN-BOTTOM
 10
-0.582264
 20
0.221509
 30
-1.008511
 70
    64
  0
VERTEX
  8
CAN-BOTTOM
 10
-0.604555
 20
0.247626
 30
-1.04712
 70
    64
  0
VERTEX
  8
CAN-BOTTOM
 10
-0.619661
 20
0.289542
 30
-1.073284
 70
    64
  0
VERTEX
  8
CAN-BOTTOM
 10
-0.625
 20
0.340095
 30
-1.082532
 70
    64
  0
VERTEX
  8
CAN-BOTTOM
 10
-1.164528
 20
0.221509
 30
-0.0
 70
    64
  0
VERTEX
  8
CAN-BOTTOM
 10
-1.20911
 20
0.247626
 30
-0.0
 70
    64
  0
VERTEX
  8
CAN-BOTTOM
 10
-1.239321
 20
0.289542
 30
-0.0
 70
    64
  0
VERTEX
  8
CAN-BOTTOM
 10
-1.25
 20
0.340095
 30
-0.0
 70
    64
  0
VERTEX
  8
CAN-BOTTOM
 10
-0.582264
 20
0.221509
 30
1.008511
 70
    64
  0
VERTEX
  8
CAN-BOTTOM
 10
-0.604555
 20
0.247626
 30
1.04712
 70
    64
  0
VERTEX
  8
CAN-BOTTOM
 10
-0.619661
 20
0.289542
 30
1.073284
 70
    64
  0
VERTEX
  8
CAN-BOTTOM
 10
-0.625
 20
0.340095
 30
1.082532
 70
    64
  0
VERTEX
  8
CAN-BOTTOM
 10
0.582264
 20
0.221509
 30
1.008511
 70
    64
  0
VERTEX
  8
CAN-BOTTOM
 10
0.604555
 20
0.247626
 30
1.04712
 70
    64
  0
VERTEX
  8
CAN-BOTTOM
 10
0.619661
 20
0.289542
 30
1.073284
 70
    64
  0
VERTEX
  8
CAN-BOTTOM
 10
0.625
 20
0.340095
 30
1.082532
 70
    64
  0
SEQEND
  8
CAN-BOTTOM
  0
POLYLINE
  8
CAN-BOTTOM
 66
     1
 10
0.0
 20
0.0
 30
0.0
 70
    17
 71
     6
 72
     4
  0
VERTEX
  8
CAN-BOTTOM
 10
1.092146
 20
0.197382
 30
0.0
 70
    64
  0
VERTEX
  8
CAN-BOTTOM
 10
1.116274
 20
0.205425
 30
0.0
 70
    64
  0
VERTEX
  8
CAN-BOTTOM
 10
1.140401
 20
0.213467
 30
0.0
 70
    64
  0
VERTEX
  8
CAN-BOTTOM
 10
1.164528
 20
0.221509
 30
-0.0
 70
    64
  0
VERTEX
  8
CAN-BOTTOM
 10
0.546073
 20
0.197382
 30
-0.945826
 70
    64
  0
VERTEX
  8
CAN-BOTTOM
 10
0.558137
 20
0.205425
 30
-0.966721
 70
    64
  0
VERTEX
  8
CAN-BOTTOM
 10
0.570201
 20
0.213467
 30
-0.987616
 70
    64
  0
VERTEX
  8
CAN-BOTTOM
 10
0.582264
 20
0.221509
 30
-1.008511
 70
    64
  0
VERTEX
  8
CAN-BOTTOM
 10
-0.546073
 20
0.197382
 30
-0.945826
 70
    64
  0
VERTEX
  8
CAN-BOTTOM
 10
-0.558137
 20
0.205425
 30
-0.966721
 70
    64
  0
VERTEX
  8
CAN-BOTTOM
 10
-0.570201
 20
0.213467
 30
-0.987616
 70
    64
  0
VERTEX
  8
CAN-BOTTOM
 10
-0.582264
 20
0.221509
 30
-1.008511
 70
    64
  0
VERTEX
  8
CAN-BOTTOM
 10
-1.092146
 20
0.197382
 30
-0.0
 70
    64
  0
VERTEX
  8
CAN-BOTTOM
 10
-1.116274
 20
0.205425
 30
-0.0
 70
    64
  0
VERTEX
  8
CAN-BOTTOM
 10
-1.140401
 20
0.213467
 30
-0.0
 70
    64
  0
VERTEX
  8
CAN-BOTTOM
 10
-1.164528
 20
0.221509
 30
-0.0
 70
    64
  0
VERTEX
  8
CAN-BOTTOM
 10
-0.546073
 20
0.197382
 30
0.945826
 70
    64
  0
VERTEX
  8
CAN-BOTTOM
 10
-0.558137
 20
0.205425
 30
0.966721
 70
    64
  0
VERTEX
  8
CAN-BOTTOM
 10
-0.570201
 20
0.213467
 30
0.987616
 70
    64
  0
VERTEX
  8
CAN-BOTTOM
 10
-0.582264
 20
0.221509
 30
1.008511
 70
    64
  0
VERTEX
  8
CAN-BOTTOM
 10
0.546073
 20
0.197382
 30
0.945826
 70
    64
  0
VERTEX
  8
CAN-BOTTOM
 10
0.558137
 20
0.205425
 30
0.966721
 70
    64
  0
VERTEX
  8
CAN-BOTTOM
 10
0.570201
 20
0.213467
 30
0.987616
 70
    64
  0
VERTEX
  8
CAN-BOTTOM
 10
0.582264
 20
0.221509
 30
1.008511
 70
    64
  0
SEQEND
  8
CAN-BOTTOM
  0
ENDBLK
  8
CAN-BOTTOM
  0
BLOCK
  8
CAN-SIDE1
  2
CANSIDE1
 70
    64
 10
0.0
 20
0.0
 30
0.0
  0
LINE
  8
CAN-SIDE1
 10
1.25
 20
4.25
 30
-0.0
 11
1.25
 21
0.375
 31
0.0
  0
ATTDEF
  8
CAN-SIDE1
 10
0.0
 20
0.0
 30
0.0
 40
0.2
  1
0.0
  3

  2
REVANG
 70
     3
  0
POLYLINE
  8
CAN-SIDE1
 66
     1
 10
0.0
 20
0.0
 30
0.0
 70
    17
 71
     6
 72
     4
  0
VERTEX
  8
CAN-SIDE1
 10
1.25
 20
0.375
 30
0.0
 70
    64
  0
VERTEX
  8
CAN-SIDE1
 10
1.25
 20
1.666667
 30
-0.0
 70
    64
  0
VERTEX
  8
CAN-SIDE1
 10
1.25
 20
2.958333
 30
-0.0
 70
    64
  0
VERTEX
  8
CAN-SIDE1
 10
1.25
 20
4.25
 30
-0.0
 70
    64
  0
VERTEX
  8
CAN-SIDE1
 10
0.625
 20
0.375
 30
-1.082532
 70
    64
  0
VERTEX
  8
CAN-SIDE1
 10
0.625
 20
1.666667
 30
-1.082532
 70
    64
  0
VERTEX
  8
CAN-SIDE1
 10
0.625
 20
2.958333
 30
-1.082532
 70
    64
  0
VERTEX
  8
CAN-SIDE1
 10
0.625
 20
4.25
 30
-1.082532
 70
    64
  0
VERTEX
  8
CAN-SIDE1
 10
-0.625
 20
0.375
 30
-1.082532
 70
    64
  0
VERTEX
  8
CAN-SIDE1
 10
-0.625
 20
1.666667
 30
-1.082532
 70
    64
  0
VERTEX
  8
CAN-SIDE1
 10
-0.625
 20
2.958333
 30
-1.082532
 70
    64
  0
VERTEX
  8
CAN-SIDE1
 10
-0.625
 20
4.25
 30
-1.082532
 70
    64
  0
VERTEX
  8
CAN-SIDE1
 10
-1.25
 20
0.375
 30
-0.0
 70
    64
  0
VERTEX
  8
CAN-SIDE1
 10
-1.25
 20
1.666667
 30
-0.0
 70
    64
  0
VERTEX
  8
CAN-SIDE1
 10
-1.25
 20
2.958333
 30
-0.0
 70
    64
  0
VERTEX
  8
CAN-SIDE1
 10
-1.25
 20
4.25
 30
-0.0
 70
    64
  0
VERTEX
  8
CAN-SIDE1
 10
-0.625
 20
0.375
 30
1.082532
 70
    64
  0
VERTEX
  8
CAN-SIDE1
 10
-0.625
 20
1.666667
 30
1.082532
 70
    64
  0
VERTEX
  8
CAN-SIDE1
 10
-0.625
 20
2.958333
 30
1.082532
 70
    64
  0
VERTEX
  8
CAN-SIDE1
 10
-0.625
 20
4.25
 30
1.082532
 70
    64
  0
VERTEX
  8
CAN-SIDE1
 10
0.625
 20
0.375
 30
1.082532
 70
    64
  0
VERTEX
  8
CAN-SIDE1
 10
0.625
 20
1.666667
 30
1.082532
 70
    64
  0
VERTEX
  8
CAN-SIDE1
 10
0.625
 20
2.958333
 30
1.082532
 70
    64
  0
VERTEX
  8
CAN-SIDE1
 10
0.625
 20
4.25
 30
1.082532
 70
    64
  0
SEQEND
  8
CAN-SIDE1
  0
ENDBLK
  8
CAN-SIDE1
  0
BLOCK
  8
CAN-SIDE2
  2
CANSIDE2
 70
    64
 10
0.0
 20
0.0
 30
0.0
  0
ARC
  8
CAN-SIDE2
 10
2.1875
 20
4.75
 30
-0.0
 40
1.0625
 50
185.042451
 51
206.525352
  0
ATTDEF
  8
CAN-SIDE2
 10
0.0
 20
0.0
 30
0.0
 40
0.2
  1
0.0
  3

  2
REVANG
 70
     3
  0
POLYLINE
  8
CAN-SIDE2
 66
     1
 10
0.0
 20
0.0
 30
0.0
 70
    17
 71
     6
 72
     4
  0
VERTEX
  8
CAN-SIDE2
 10
1.129112
 20
4.656613
 30
0.0
 70
    64
  0
VERTEX
  8
CAN-SIDE2
 10
1.149009
 20
4.525405
 30
-0.0
 70
    64
  0
VERTEX
  8
CAN-SIDE2
 10
1.185107
 20
4.397702
 30
-0.0
 70
    64
  0
VERTEX
  8
CAN-SIDE2
 10
1.236842
 20
4.275494
 30
-0.0
 70
    64
  0
VERTEX
  8
CAN-SIDE2
 10
0.564556
 20
4.656613
 30
-0.97784
 70
    64
  0
VERTEX
  8
CAN-SIDE2
 10
0.574505
 20
4.525405
 30
-0.995071
 70
    64
  0
VERTEX
  8
CAN-SIDE2
 10
0.592553
 20
4.397702
 30
-1.026333
 70
    64
  0
VERTEX
  8
CAN-SIDE2
 10
0.618421
 20
4.275494
 30
-1.071137
 70
    64
  0
VERTEX
  8
CAN-SIDE2
 10
-0.564556
 20
4.656613
 30
-0.97784
 70
    64
  0
VERTEX
  8
CAN-SIDE2
 10
-0.574505
 20
4.525405
 30
-0.995071
 70
    64
  0
VERTEX
  8
CAN-SIDE2
 10
-0.592553
 20
4.397702
 30
-1.026333
 70
    64
  0
VERTEX
  8
CAN-SIDE2
 10
-0.618421
 20
4.275494
 30
-1.071137
 70
    64
  0
VERTEX
  8
CAN-SIDE2
 10
-1.129112
 20
4.656613
 30
-0.0
 70
    64
  0
VERTEX
  8
CAN-SIDE2
 10
-1.149009
 20
4.525405
 30
-0.0
 70
    64
  0
VERTEX
  8
CAN-SIDE2
 10
-1.185107
 20
4.397702
 30
-0.0
 70
    64
  0
VERTEX
  8
CAN-SIDE2
 10
-1.236842
 20
4.275494
 30
-0.0
 70
    64
  0
VERTEX
  8
CAN-SIDE2
 10
-0.564556
 20
4.656613
 30
0.97784
 70
    64
  0
VERTEX
  8
CAN-SIDE2
 10
-0.574505
 20
4.525405
 30
0.995071
 70
    64
  0
VERTEX
  8
CAN-SIDE2
 10
-0.592553
 20
4.397702
 30
1.026333
 70
    64
  0
VERTEX
  8
CAN-SIDE2
 10
-0.618421
 20
4.275494
 30
1.071137
 70
    64
  0
VERTEX
  8
CAN-SIDE2
 10
0.564556
 20
4.656613
 30
0.97784
 70
    64
  0
VERTEX
  8
CAN-SIDE2
 10
0.574505
 20
4.525405
 30
0.995071
 70
    64
  0
VERTEX
  8
CAN-SIDE2
 10
0.592553
 20
4.397702
 30
1.026333
 70
    64
  0
VERTEX
  8
CAN-SIDE2
 10
0.618421
 20
4.275494
 30
1.071137
 70
    64
  0
SEQEND
  8
CAN-SIDE2
  0
ENDBLK
  8
CAN-SIDE2
  0
ENDSEC
  0
SECTION
  2
ENTITIES
  0
INSERT
  8
BASE
  2
CUP
 10
-3.0
 20
-2.0
 30
0.0
  0
INSERT
  8
BASE
  2
PEPSICAN
 10
2.0
 20
2.0
 30
0.0
  0
LINE
  8
BASE
 10
-12.0
 20
-12.0
 30
0.0
 11
12.0
 21
-12.0
 31
0.0
  0
LINE
  8
BASE
 10
12.0
 20
-12.0
 30
0.0
 11
12.0
 21
12.0
 31
0.0
  0
LINE
  8
BASE
 10
12.0
 20
12.0
 30
0.0
 11
-12.0
 21
12.0
 31
0.0
  0
LINE
  8
BASE
 10
-12.0
 20
12.0
 30
0.0
 11
-12.0
 21
-12.0
 31
0.0
  0
ENDSEC
  0
EOF
