  0
SECTION
  2
HEADER
  9
$ACADVER
  1
AC1012
  9
$DWGCODEPAGE
  3
ansi_1252
  9
$INSBASE
 10
0.0
 20
0.0
 30
0.0
  9
$EXTMIN
 10
6.2277
 20
1.7951
 30
0.0
  9
$EXTMAX
 10
13.7658
 20
4.4921
 30
0.0
  9
$LIMMIN
 10
0.0
 20
0.0
  9
$LIMMAX
 10
12.0
 20
9.0
  9
$ORTHOMODE
 70
     0
  9
$REGENMODE
 70
     1
  9
$FILLMODE
 70
     1
  9
$QTEXTMODE
 70
     0
  9
$MIRRTEXT
 70
     1
  9
$DRAGMODE
 70
     2
  9
$LTSCALE
 40
1.0
  9
$OSMODE
 70
     0
  9
$ATTMODE
 70
     1
  9
$TEXTSIZE
 40
0.2
  9
$TRACEWID
 40
0.05
  9
$TEXTSTYLE
  7
STANDARD
  9
$CLAYER
  8
FLAMECUT
  9
$CELTYPE
  6
BYLAYER
  9
$CECOLOR
 62
     5
  9
$CELTSCALE
 40
1.0
  9
$DELOBJ
 70
     1
  9
$DISPSILH
 70
     0
  9
$DIMSCALE
 40
1.0
  9
$DIMASZ
 40
0.18
  9
$DIMEXO
 40
0.0625
  9
$DIMDLI
 40
0.38
  9
$DIMRND
 40
0.0
  9
$DIMDLE
 40
0.0
  9
$DIMEXE
 40
0.18
  9
$DIMTP
 40
0.0
  9
$DIMTM
 40
0.0
  9
$DIMTXT
 40
0.18
  9
$DIMCEN
 40
0.09
  9
$DIMTSZ
 40
0.0
  9
$DIMTOL
 70
     0
  9
$DIMLIM
 70
     0
  9
$DIMTIH
 70
     1
  9
$DIMTOH
 70
     1
  9
$DIMSE1
 70
     0
  9
$DIMSE2
 70
     0
  9
$DIMTAD
 70
     0
  9
$DIMZIN
 70
     0
  9
$DIMBLK
  1

  9
$DIMASO
 70
     1
  9
$DIMSHO
 70
     1
  9
$DIMPOST
  1

  9
$DIMAPOST
  1

  9
$DIMALT
 70
     0
  9
$DIMALTD
 70
     2
  9
$DIMALTF
 40
25.4
  9
$DIMLFAC
 40
1.0
  9
$DIMTOFL
 70
     0
  9
$DIMTVP
 40
0.0
  9
$DIMTIX
 70
     0
  9
$DIMSOXD
 70
     0
  9
$DIMSAH
 70
     0
  9
$DIMBLK1
  1

  9
$DIMBLK2
  1

  9
$DIMSTYLE
  2
STANDARD
  9
$DIMCLRD
 70
     0
  9
$DIMCLRE
 70
     0
  9
$DIMCLRT
 70
     0
  9
$DIMTFAC
 40
1.0
  9
$DIMGAP
 40
0.09
  9
$DIMJUST
 70
     0
  9
$DIMSD1
 70
     0
  9
$DIMSD2
 70
     0
  9
$DIMTOLJ
 70
     1
  9
$DIMTZIN
 70
     0
  9
$DIMALTZ
 70
     0
  9
$DIMALTTZ
 70
     0
  9
$DIMFIT
 70
     3
  9
$DIMUPT
 70
     0
  9
$DIMUNIT
 70
     2
  9
$DIMDEC
 70
     4
  9
$DIMTDEC
 70
     4
  9
$DIMALTU
 70
     2
  9
$DIMALTTD
 70
     2
  9
$DIMTXSTY
  7
STANDARD
  9
$DIMAUNIT
 70
     0
  9
$LUNITS
 70
     2
  9
$LUPREC
 70
     4
  9
$SKETCHINC
 40
0.1
  9
$FILLETRAD
 40
0.6
  9
$AUNITS
 70
     0
  9
$AUPREC
 70
     0
  9
$MENU
  1
acad
  9
$ELEVATION
 40
0.0
  9
$PELEVATION
 40
0.0
  9
$THICKNESS
 40
0.0
  9
$LIMCHECK
 70
     0
  9
$BLIPMODE
 70
     0
  9
$CHAMFERA
 40
0.0
  9
$CHAMFERB
 40
0.0
  9
$CHAMFERC
 40
0.0
  9
$CHAMFERD
 40
0.0
  9
$SKPOLY
 70
     0
  9
$TDCREATE
 40
2450420.771734259
  9
$TDUPDATE
 40
2450420.771734259
  9
$TDINDWG
 40
0.0000000000
  9
$TDUSRTIMER
 40
0.0000000000
  9
$USRTIMER
 70
     1
  9
$ANGBASE
 50
0.0
  9
$ANGDIR
 70
     0
  9
$PDMODE
 70
     0
  9
$PDSIZE
 40
0.0
  9
$PLINEWID
 40
0.0
  9
$COORDS
 70
     1
  9
$SPLFRAME
 70
     0
  9
$SPLINETYPE
 70
     6
  9
$SPLINESEGS
 70
     8
  9
$ATTDIA
 70
     0
  9
$ATTREQ
 70
     1
  9
$HANDLING
 70
     1
  9
$HANDSEED
  5
69
  9
$SURFTAB1
 70
     6
  9
$SURFTAB2
 70
     6
  9
$SURFTYPE
 70
     6
  9
$SURFU
 70
     6
  9
$SURFV
 70
     6
  9
$UCSNAME
  2

  9
$UCSORG
 10
6.758048065766914
 20
2.967971834157456
 30
0.0
  9
$UCSXDIR
 10
1.0
 20
0.0
 30
0.0
  9
$UCSYDIR
 10
0.0
 20
1.0
 30
0.0
  9
$PUCSNAME
  2

  9
$PUCSORG
 10
0.0
 20
0.0
 30
0.0
  9
$PUCSXDIR
 10
1.0
 20
0.0
 30
0.0
  9
$PUCSYDIR
 10
0.0
 20
1.0
 30
0.0
  9
$USERI1
 70
     0
  9
$USERI2
 70
     0
  9
$USERI3
 70
     0
  9
$USERI4
 70
     0
  9
$USERI5
 70
     0
  9
$USERR1
 40
0.0
  9
$USERR2
 40
0.0
  9
$USERR3
 40
0.0
  9
$USERR4
 40
0.0
  9
$USERR5
 40
0.0
  9
$WORLDVIEW
 70
     1
  9
$SHADEDGE
 70
     3
  9
$SHADEDIF
 70
    70
  9
$TILEMODE
 70
     1
  9
$MAXACTVP
 70
    16
  9
$PINSBASE
 10
0.0
 20
0.0
 30
0.0
  9
$PLIMCHECK
 70
     0
  9
$PEXTMIN
 10
1.0000E+20
 20
1.0000E+20
 30
1.0000E+20
  9
$PEXTMAX
 10
-1.0000E+20
 20
-1.0000E+20
 30
-1.0000E+20
  9
$PLIMMIN
 10
0.0
 20
0.0
  9
$PLIMMAX
 10
12.0
 20
9.0
  9
$UNITMODE
 70
     0
  9
$VISRETAIN
 70
     0
  9
$PLINEGEN
 70
     0
  9
$PSLTSCALE
 70
     1
  9
$TREEDEPTH
 70
  3020
  9
$PICKSTYLE
 70
     1
  9
$CMLSTYLE
  2
STANDARD
  9
$CMLJUST
 70
     0
  9
$CMLSCALE
 40
1.0
  9
$SAVEIMAGES
 70
     0
  0
ENDSEC
  0
SECTION
  2
CLASSES
  0
ENDSEC
  0
SECTION
  2
TABLES
  0
TABLE
  2
VPORT
  5
8
100
AcDbSymbolTable
 70
     2
  0
VPORT
  5
68
100
AcDbSymbolTableRecord
100
AcDbViewportTableRecord
  2
*ACTIVE
 70
     0
 10
0.0
 20
0.0
 11
1.0
 21
1.0
 12
10.0847
 22
3.5029
 13
0.0
 23
0.0
 14
1.0
 24
1.0
 15
0.0
 25
0.0
 16
0.0
 26
0.0
 36
1.0
 17
0.0
 27
0.0
 37
0.0
 40
5.5422
 41
1.7634
 42
50.0
 43
0.0
 44
0.0
 50
0.0
 51
0.0
 71
     0
 72
   100
 73
     1
 74
     1
 75
     0
 76
     0
 77
     0
 78
     0
  0
ENDTAB
  0
TABLE
  2
LTYPE
  5
5
100
AcDbSymbolTable
 70
     1
  0
LTYPE
  5
14
100
AcDbSymbolTableRecord
100
AcDbLinetypeTableRecord
  2
BYBLOCK
 70
     0
  3

 72
    65
 73
     0
 40
0.0
  0
LTYPE
  5
15
100
AcDbSymbolTableRecord
100
AcDbLinetypeTableRecord
  2
BYLAYER
 70
     0
  3

 72
    65
 73
     0
 40
0.0
  0
LTYPE
  5
16
100
AcDbSymbolTableRecord
100
AcDbLinetypeTableRecord
  2
CONTINUOUS
 70
    64
  3
Solid line
 72
    65
 73
     0
 40
0.0
  0
ENDTAB
  0
TABLE
  2
LAYER
  5
2
100
AcDbSymbolTable
 70
     2
  0
LAYER
  5
F
100
AcDbSymbolTableRecord
100
AcDbLayerTableRecord
  2
0
 70
     0
 62
     7
  6
CONTINUOUS
  0
LAYER
  5
28
100
AcDbSymbolTableRecord
100
AcDbLayerTableRecord
  2
FLAMECUT
 70
    64
 62
     4
  6
CONTINUOUS
  0
ENDTAB
  0
TABLE
  2
STYLE
  5
3
100
AcDbSymbolTable
 70
     1
  0
STYLE
  5
10
100
AcDbSymbolTableRecord
100
AcDbTextStyleTableRecord
  2
STANDARD
 70
     0
 40
0.0
 41
1.0
 50
0.0
 71
     0
 42
0.2
  3
txt
  4

  0
ENDTAB
  0
TABLE
  2
VIEW
  5
6
100
AcDbSymbolTable
 70
     0
  0
ENDTAB
  0
TABLE
  2
UCS
  5
7
100
AcDbSymbolTable
 70
     0
  0
ENDTAB
  0
TABLE
  2
APPID
  5
9
100
AcDbSymbolTable
 70
     1
  0
APPID
  5
11
100
AcDbSymbolTableRecord
100
AcDbRegAppTableRecord
  2
ACAD
 70
     0
  0
ENDTAB
  0
TABLE
  2
DIMSTYLE
  5
A
100
AcDbSymbolTable
 70
     1
  0
DIMSTYLE
105
1D
100
AcDbSymbolTableRecord
100
AcDbDimStyleTableRecord
  2
STANDARD
 70
     0
  3

  4

  5

  6

  7

 40
1.0
 41
0.18
 42
0.0625
 43
0.38
 44
0.18
 45
0.0
 46
0.0
 47
0.0
 48
0.0
140
0.18
141
0.09
142
0.0
143
25.4
144
1.0
145
0.0
146
1.0
147
0.09
 71
     0
 72
     0
 73
     1
 74
     1
 75
     0
 76
     0
 77
     0
 78
     0
170
     0
171
     2
172
     0
173
     0
174
     0
175
     0
176
     0
177
     0
178
     0
270
     2
271
     4
272
     4
273
     2
274
     2
340
10
275
     0
280
     0
281
     0
282
     0
283
     1
284
     0
285
     0
286
     0
287
     3
288
     0
  0
ENDTAB
  0
TABLE
  2
BLOCK_RECORD
  5
1
100
AcDbSymbolTable
 70
     0
  0
BLOCK_RECORD
  5
1A
100
AcDbSymbolTableRecord
100
AcDbBlockTableRecord
  2
*MODEL_SPACE
  0
BLOCK_RECORD
  5
17
100
AcDbSymbolTableRecord
100
AcDbBlockTableRecord
  2
*PAPER_SPACE
  0
ENDTAB
  0
ENDSEC
  0
SECTION
  2
BLOCKS
  0
BLOCK
  5
1B
100
AcDbEntity
  8
0
100
AcDbBlockBegin
  2
*MODEL_SPACE
 70
     0
 10
0.0
 20
0.0
 30
0.0
  3
*MODEL_SPACE
  1

  0
ENDBLK
  5
1C
100
AcDbEntity
  8
0
100
AcDbBlockEnd
  0
BLOCK
  5
18
100
AcDbEntity
 67
     1
  8
0
100
AcDbBlockBegin
  2
*PAPER_SPACE
 70
     0
 10
0.0
 20
0.0
 30
0.0
  3
*PAPER_SPACE
  1

  0
ENDBLK
  5
19
100
AcDbEntity
 67
     1
  8
0
100
AcDbBlockEnd
  0
ENDSEC
  0
SECTION
  2
ENTITIES
  0
LINE
  5
29
100
AcDbEntity
  8
FLAMECUT
 62
     5
100
AcDbLine
 10
9.0687
 20
2.968
 30
0.0
 11
8.5031
 21
2.968
 31
0.0
  0
LINE
  5
2A
100
AcDbEntity
  8
FLAMECUT
 62
     5
100
AcDbLine
 10
6.758
 20
2.968
 30
0.0
 11
6.758
 21
3.7678
 31
0.0
  0
LINE
  5
2B
100
AcDbEntity
  8
FLAMECUT
 62
     5
100
AcDbLine
 10
7.358
 20
4.3678
 30
0.0
 11
9.902
 21
4.3678
 31
0.0
  0
LINE
  5
2C
100
AcDbEntity
  8
FLAMECUT
 62
     5
100
AcDbLine
 10
9.902
 20
4.3678
 30
0.0
 11
10.9248
 21
3.7246
 31
0.0
  0
LINE
  5
2D
100
AcDbEntity
  8
FLAMECUT
 62
     5
100
AcDbLine
 10
10.9248
 20
3.7246
 30
0.0
 11
13.2733
 21
3.4976
 31
0.0
  0
LINE
  5
2E
100
AcDbEntity
  8
FLAMECUT
 62
     5
100
AcDbLine
 10
13.2733
 20
3.4976
 30
0.0
 11
13.6757
 21
2.6629
 31
0.0
  0
LINE
  5
2F
100
AcDbEntity
  8
FLAMECUT
 62
     5
100
AcDbLine
 10
13.5759
 20
2.3929
 30
0.0
 11
12.5775
 21
1.9551
 31
0.0
  0
LINE
  5
30
100
AcDbEntity
  8
FLAMECUT
 62
     5
100
AcDbLine
 10
11.8652
 20
1.9898
 30
0.0
 11
10.6596
 21
2.6653
 31
0.0
  0
LINE
  5
31
100
AcDbEntity
  8
FLAMECUT
 62
     5
100
AcDbLine
 10
10.6596
 20
2.6653
 30
0.0
 11
9.0687
 21
2.968
 31
0.0
  0
ARC
  5
32
100
AcDbEntity
  8
FLAMECUT
 62
     5
100
AcDbCircle
 10
13.4956
 20
2.576
 30
0.0
 40
0.2
100
AcDbArc
 50
293.677
 51
25.7372
  0
ARC
  5
33
100
AcDbEntity
  8
FLAMECUT
 62
     5
100
AcDbCircle
 10
12.2562
 20
2.6878
 30
0.0
 40
0.8
100
AcDbArc
 50
240.7384
 51
293.677
  0
LINE
  5
34
100
AcDbEntity
  8
FLAMECUT
 62
     5
100
AcDbLine
 10
11.6381
 20
3.0615
 30
0.0
 11
11.6279
 21
3.047
 31
0.0
  0
LINE
  5
35
100
AcDbEntity
  8
FLAMECUT
 62
     5
100
AcDbLine
 10
11.7047
 20
2.7522
 30
0.0
 11
12.4251
 21
2.404
 31
0.0
  0
LINE
  5
36
100
AcDbEntity
  8
FLAMECUT
 62
     5
100
AcDbLine
 10
12.8099
 20
2.515
 30
0.0
 11
12.8301
 21
2.5472
 31
0.0
  0
LINE
  5
37
100
AcDbEntity
  8
FLAMECUT
 62
     5
100
AcDbLine
 10
12.6525
 20
2.9964
 30
0.0
 11
11.9604
 21
3.1793
 31
0.0
  0
ARC
  5
38
100
AcDbEntity
  8
FLAMECUT
 62
     5
100
AcDbCircle
 10
11.8837
 20
2.8893
 30
0.0
 40
0.3
100
AcDbArc
 50
75.1908
 51
144.9752
  0
ARC
  5
39
100
AcDbEntity
  8
FLAMECUT
 62
     5
100
AcDbCircle
 10
12.5758
 20
2.7063
 30
0.0
 40
0.3
100
AcDbArc
 50
327.9633
 51
75.1908
  0
ARC
  5
3A
100
AcDbEntity
  8
FLAMECUT
 62
     5
100
AcDbCircle
 10
12.5556
 20
2.6741
 30
0.0
 40
0.3
100
AcDbArc
 50
244.2063
 51
327.9633
  0
ARC
  5
3B
100
AcDbEntity
  8
FLAMECUT
 62
     5
100
AcDbCircle
 10
11.7917
 20
2.9322
 30
0.0
 40
0.2
100
AcDbArc
 50
144.9752
 51
244.2063
  0
LINE
  5
3C
100
AcDbEntity
  8
FLAMECUT
 62
     5
100
AcDbLine
 10
6.758
 20
2.968
 30
0.0
 11
6.2277
 21
2.4005
 31
0.0
  0
ARC
  5
3D
100
AcDbEntity
  8
FLAMECUT
 62
     5
100
AcDbCircle
 10
7.358
 20
3.7678
 30
0.0
 40
0.6
100
AcDbArc
 50
90.0
 51
180.0
  0
LINE
  5
56
100
AcDbEntity
  8
FLAMECUT
 62
     5
100
AcDbLine
 10
6.9389
 20
2.968
 30
0.0
 11
7.0793
 21
3.268
 31
0.0
  0
LINE
  5
57
100
AcDbEntity
  8
FLAMECUT
 62
     5
100
AcDbLine
 10
7.0793
 20
3.268
 30
0.0
 11
7.1996
 21
2.968
 31
0.0
  0
LINE
  5
58
100
AcDbEntity
  8
FLAMECUT
 62
     5
100
AcDbLine
 10
7.1996
 20
2.968
 30
0.0
 11
7.34
 21
3.268
 31
0.0
  0
LINE
  5
59
100
AcDbEntity
  8
FLAMECUT
 62
     5
100
AcDbLine
 10
7.34
 20
3.268
 30
0.0
 11
7.4603
 21
2.968
 31
0.0
  0
LINE
  5
5A
100
AcDbEntity
  8
FLAMECUT
 62
     5
100
AcDbLine
 10
7.4603
 20
2.968
 30
0.0
 11
7.6007
 21
3.268
 31
0.0
  0
LINE
  5
5B
100
AcDbEntity
  8
FLAMECUT
 62
     5
100
AcDbLine
 10
7.6007
 20
3.268
 30
0.0
 11
7.721
 21
2.968
 31
0.0
  0
LINE
  5
5C
100
AcDbEntity
  8
FLAMECUT
 62
     5
100
AcDbLine
 10
7.721
 20
2.968
 30
0.0
 11
7.8614
 21
3.268
 31
0.0
  0
LINE
  5
5D
100
AcDbEntity
  8
FLAMECUT
 62
     5
100
AcDbLine
 10
7.8614
 20
3.268
 30
0.0
 11
7.9817
 21
2.968
 31
0.0
  0
LINE
  5
5E
100
AcDbEntity
  8
FLAMECUT
 62
     5
100
AcDbLine
 10
7.9817
 20
2.968
 30
0.0
 11
8.1221
 21
3.268
 31
0.0
  0
LINE
  5
5F
100
AcDbEntity
  8
FLAMECUT
 62
     5
100
AcDbLine
 10
8.1221
 20
3.268
 30
0.0
 11
8.2424
 21
2.968
 31
0.0
  0
LINE
  5
60
100
AcDbEntity
  8
FLAMECUT
 62
     5
100
AcDbLine
 10
8.2424
 20
2.968
 30
0.0
 11
8.3828
 21
3.268
 31
0.0
  0
LINE
  5
61
100
AcDbEntity
  8
FLAMECUT
 62
     5
100
AcDbLine
 10
8.3828
 20
3.268
 30
0.0
 11
8.5031
 21
2.968
 31
0.0
  0
LINE
  5
62
100
AcDbEntity
  8
FLAMECUT
 62
     5
100
AcDbLine
 10
6.9389
 20
2.968
 30
0.0
 11
6.758
 21
2.968
 31
0.0
  0
LINE
  5
63
100
AcDbEntity
  8
FLAMECUT
 62
     5
100
AcDbLine
 10
7.1996
 20
2.968
 30
0.0
 11
7.1996
 21
2.968
 31
0.0
  0
LINE
  5
64
100
AcDbEntity
  8
FLAMECUT
 62
     5
100
AcDbLine
 10
7.4603
 20
2.968
 30
0.0
 11
7.4603
 21
2.968
 31
0.0
  0
LINE
  5
65
100
AcDbEntity
  8
FLAMECUT
 62
     5
100
AcDbLine
 10
7.721
 20
2.968
 30
0.0
 11
7.721
 21
2.968
 31
0.0
  0
LINE
  5
66
100
AcDbEntity
  8
FLAMECUT
 62
     5
100
AcDbLine
 10
7.9817
 20
2.968
 30
0.0
 11
7.9817
 21
2.968
 31
0.0
  0
LINE
  5
67
100
AcDbEntity
  8
FLAMECUT
 62
     5
100
AcDbLine
 10
8.2424
 20
2.968
 30
0.0
 11
8.2424
 21
2.968
 31
0.0
  0
ENDSEC
  0
SECTION
  2
OBJECTS
  0
DICTIONARY
  5
C
100
AcDbDictionary
  3
ACAD_GROUP
350
D
  3
ACAD_MLINESTYLE
350
E
  0
DICTIONARY
  5
D
102
{ACAD_REACTORS
330
C
102
}
100
AcDbDictionary
  0
DICTIONARY
  5
E
102
{ACAD_REACTORS
330
C
102
}
100
AcDbDictionary
  3
STANDARD
350
13
  0
MLINESTYLE
  5
13
102
{ACAD_REACTORS
330
E
102
}
100
AcDbMlineStyle
  2
STANDARD
 70
     0
  3

 62
     0
 51
90.0
 52
90.0
 71
     2
 49
0.5
 62
   256
  6
BYLAYER
 49
-0.5
 62
   256
  6
BYLAYER
  0
ENDSEC
  0
EOF
