  0
SECTION
  2
ENTITIES
  0
POINT
 8
0
 10
0.000000
 20
0.000000
  0
POINT
 8
0
 10
-0.315000
 20
0.000000
  0
POINT
 8
0
 10
-0.315000
 20
0.590600
  0
POINT
 8
0
 10
0.000000
 20
0.590600
  0
POINT
 8
0
 10
-0.235700
 20
2.194600
  0
POINT
 8
0
 10
-0.252900
 20
2.113600
  0
POINT
 8
0
 10
-2.126000
 20
0.590600
  0
POINT
 8
0
 10
-0.157500
 20
-0.125000
  0
POINT
 8
0
 10
-0.157500
 20
0.000000
  0
POINT
 8
0
 10
-0.252925
 20
2.113618
  0
POINT
 8
0
 10
-0.278873
 20
1.643215
  0
POINT
 8
0
 10
0.098432
 20
1.858291
  0
POINT
 8
0
 10
-0.448202
 20
1.272299
  0
POINT
 8
0
 10
-0.256500
 20
2.212600
  0
POINT
 8
0
 10
0.354275
 20
1.598388
  0
LINE
  8
0
 10
0.000000
 20
0.590600
 11
0.000000
 21
0.000000
  0
LINE
  8
0
 10
-0.315000
 20
0.000000
 11
-0.315000
 21
0.590600
  0
LINE
  8
0
 10
-0.235700
 20
2.194600
 11
-0.252900
 21
2.113600
  0
LINE
  8
0
 10
-0.256500
 20
2.212600
 11
-0.235700
 21
2.194600
  0
LINE
  8
0
 10
-0.157500
 20
0.000000
 11
-0.315000
 21
0.000000
  0
LINE
  8
0
 10
0.000000
 20
0.000000
 11
-0.157500
 21
0.000000
  0
ARC
  8
0
 10
-2.126
 20
0.5906
 40
2.126
 50
0
 51
29.6773569411814
  0
ARC
  8
0
 10
-2.126
 20
0.5906
 40
1.811
 50
0
 51
22.11219626809
  0
ARC
  8
0
 10
0.0984315018453259
 20
1.85829103852871
 40
0.4343
 50
143.99448372169
 51
209.684525420777
  0
ARC
  8
0
 10
0.354274862265827
 20
1.59838789688725
 40
0.8662
 50
134.839231859252
 51
202.114503154492
  0
ENDSEC
  0
EOF
