  0
SECTION
  2
HEADER
  9
$ACADVER
  1
AC1009
  9
$INSBASE
 10
0.0
 20
0.0
 30
0.0
  9
$EXTMIN
 10
-260.0
 20
-295.0
 30
-75.0
  9
$EXTMAX
 10
265.0
 20
78.264151
 30
819.045895
  9
$LIMMIN
 10
0.0
 20
0.0
  9
$LIMMAX
 10
12.0
 20
9.0
  9
$ORTHOMODE
 70
     0
  9
$REGENMODE
 70
     1
  9
$FILLMODE
 70
     1
  9
$QTEXTMODE
 70
     0
  9
$MIRRTEXT
 70
     1
  9
$DRAGMODE
 70
     2
  9
$LTSCALE
 40
1.0
  9
$OSMODE
 70
     0
  9
$ATTMODE
 70
     1
  9
$TEXTSIZE
 40
0.2
  9
$TRACEWID
 40
0.05
  9
$TEXTSTYLE
  7
STANDARD
  9
$CLAYER
  8
POINTER
  9
$CELTYPE
  6
BYLAYER
  9
$CECOLOR
 62
   256
  9
$DIMSCALE
 40
1.0
  9
$DIMASZ
 40
0.18
  9
$DIMEXO
 40
0.0625
  9
$DIMDLI
 40
0.38
  9
$DIMRND
 40
0.0
  9
$DIMDLE
 40
0.0
  9
$DIMEXE
 40
0.18
  9
$DIMTP
 40
0.0
  9
$DIMTM
 40
0.0
  9
$DIMTXT
 40
0.18
  9
$DIMCEN
 40
0.09
  9
$DIMTSZ
 40
0.0
  9
$DIMTOL
 70
     0
  9
$DIMLIM
 70
     0
  9
$DIMTIH
 70
     1
  9
$DIMTOH
 70
     1
  9
$DIMSE1
 70
     0
  9
$DIMSE2
 70
     0
  9
$DIMTAD
 70
     0
  9
$DIMZIN
 70
     0
  9
$DIMBLK
  1

  9
$DIMASO
 70
     1
  9
$DIMSHO
 70
     1
  9
$DIMPOST
  1

  9
$DIMAPOST
  1

  9
$DIMALT
 70
     0
  9
$DIMALTD
 70
     2
  9
$DIMALTF
 40
25.4
  9
$DIMLFAC
 40
1.0
  9
$DIMTOFL
 70
     0
  9
$DIMTVP
 40
0.0
  9
$DIMTIX
 70
     0
  9
$DIMSOXD
 70
     0
  9
$DIMSAH
 70
     0
  9
$DIMBLK1
  1

  9
$DIMBLK2
  1

  9
$DIMSTYLE
  2
*UNNAMED
  9
$DIMCLRD
 70
     0
  9
$DIMCLRE
 70
     0
  9
$DIMCLRT
 70
     0
  9
$DIMTFAC
 40
1.0
  9
$DIMGAP
 40
0.09
  9
$LUNITS
 70
     2
  9
$LUPREC
 70
     4
  9
$AXISMODE
 70
     0
  9
$AXISUNIT
 10
0.0
 20
0.0
  9
$SKETCHINC
 40
0.1
  9
$FILLETRAD
 40
20.0
  9
$AUNITS
 70
     0
  9
$AUPREC
 70
     0
  9
$MENU
  1
acad
  9
$ELEVATION
 40
0.0
  9
$PELEVATION
 40
0.0
  9
$THICKNESS
 40
0.0
  9
$LIMCHECK
 70
     0
  9
$BLIPMODE
 70
     1
  9
$CHAMFERA
 40
0.0
  9
$CHAMFERB
 40
0.0
  9
$SKPOLY
 70
     0
  9
$TDCREATE
 40
2448971.833015046
  9
$TDUPDATE
 40
2449017.702934027
  9
$TDINDWG
 40
0.3357754630
  9
$TDUSRTIMER
 40
0.3357754630
  9
$USRTIMER
 70
     1
  9
$ANGBASE
 50
0.0
  9
$ANGDIR
 70
     0
  9
$PDMODE
 70
     0
  9
$PDSIZE
 40
0.0
  9
$PLINEWID
 40
0.0
  9
$COORDS
 70
     0
  9
$SPLFRAME
 70
     0
  9
$SPLINETYPE
 70
     6
  9
$SPLINESEGS
 70
     8
  9
$ATTDIA
 70
     0
  9
$ATTREQ
 70
     1
  9
$HANDLING
 70
     0
  9
$HANDSEED
  5
0
  9
$SURFTAB1
 70
     6
  9
$SURFTAB2
 70
     6
  9
$SURFTYPE
 70
     6
  9
$SURFU
 70
     6
  9
$SURFV
 70
     6
  9
$UCSNAME
  2
GOOD_ONE
  9
$UCSORG
 10
0.0
 20
0.0
 30
0.0
  9
$UCSXDIR
 10
-0.9582954245367744
 20
0.1126971900470439
 30
-0.2626199205456119
  9
$UCSYDIR
 10
-0.0508351052642382
 20
0.8370819756872773
 30
0.5447105268417878
  9
$PUCSNAME
  2

  9
$PUCSORG
 10
0.0
 20
0.0
 30
0.0
  9
$PUCSXDIR
 10
1.0
 20
0.0
 30
0.0
  9
$PUCSYDIR
 10
0.0
 20
1.0
 30
0.0
  9
$USERI1
 70
     0
  9
$USERI2
 70
     0
  9
$USERI3
 70
     0
  9
$USERI4
 70
     0
  9
$USERI5
 70
     0
  9
$USERR1
 40
0.0
  9
$USERR2
 40
0.0
  9
$USERR3
 40
0.0
  9
$USERR4
 40
0.0
  9
$USERR5
 40
0.0
  9
$WORLDVIEW
 70
     1
  9
$SHADEDGE
 70
     3
  9
$SHADEDIF
 70
    70
  9
$TILEMODE
 70
     1
  9
$MAXACTVP
 70
    16
  9
$PINSBASE
 10
0.0
 20
0.0
 30
0.0
  9
$PLIMCHECK
 70
     0
  9
$PEXTMIN
 10
1.000000E+20
 20
1.000000E+20
 30
1.000000E+20
  9
$PEXTMAX
 10
-1.000000E+20
 20
-1.000000E+20
 30
-1.000000E+20
  9
$PLIMMIN
 10
0.0
 20
0.0
  9
$PLIMMAX
 10
12.0
 20
9.0
  9
$UNITMODE
 70
     0
  9
$VISRETAIN
 70
     0
  0
ENDSEC
  0
SECTION
  2
TABLES
  0
TABLE
  2
VPORT
 70
     2
  0
VPORT
  2
*ACTIVE
 70
     0
 10
0.0
 20
0.0
 11
1.0
 21
1.0
 12
-143.999998
 22
-366.42424
 13
0.0
 23
0.0
 14
5.0
 24
5.0
 15
5.0
 25
5.0
 16
0.281222
 26
0.535344
 36
-0.796443
 17
-402.844306
 27
286.13148
 37
400.643981
 40
826.137333
 41
1.62531
 42
50.0
 43
0.0
 44
0.0
 50
0.0
 51
25.739994
 71
     0
 72
   100
 73
     1
 74
     1
 75
     1
 76
     0
 77
     0
 78
     0
  0
ENDTAB
  0
TABLE
  2
LTYPE
 70
     1
  0
LTYPE
  2
CONTINUOUS
 70
    64
  3
Solid line
 72
    65
 73
     0
 40
0.0
  0
ENDTAB
  0
TABLE
  2
LAYER
 70
    14
  0
LAYER
  2
0
 70
    64
 62
    -7
  6
CONTINUOUS
  0
LAYER
  2
BODY
 70
    64
 62
    -1
  6
CONTINUOUS
  0
LAYER
  2
ARM1
 70
    64
 62
    -3
  6
CONTINUOUS
  0
LAYER
  2
ARM2
 70
    64
 62
    -6
  6
CONTINUOUS
  0
LAYER
  2
ARM3
 70
    64
 62
  -140
  6
CONTINUOUS
  0
LAYER
  2
ARM4
 70
    64
 62
   -40
  6
CONTINUOUS
  0
LAYER
  2
PIED1
 70
    64
 62
  -173
  6
CONTINUOUS
  0
LAYER
  2
PIED2
 70
    64
 62
   -20
  6
CONTINUOUS
  0
LAYER
  2
PIED3
 70
    64
 62
   -20
  6
CONTINUOUS
  0
LAYER
  2
ARM5
 70
    64
 62
  -202
  6
CONTINUOUS
  0
LAYER
  2
FINGER1
 70
    64
 62
  -202
  6
CONTINUOUS
  0
LAYER
  2
FINGER2
 70
    64
 62
  -202
  6
CONTINUOUS
  0
LAYER
  2
OBJECT
 70
    64
 62
  -173
  6
CONTINUOUS
  0
LAYER
  2
POINTER
 70
    64
 62
   121
  6
CONTINUOUS
  0
ENDTAB
  0
TABLE
  2
STYLE
 70
     1
  0
STYLE
  2
STANDARD
 70
     0
 40
0.0
 41
1.0
 50
0.0
 71
     0
 42
0.2
  3
txt
  4

  0
ENDTAB
  0
TABLE
  2
VIEW
 70
     0
  0
ENDTAB
  0
TABLE
  2
UCS
 70
     5
  0
UCS
  2
SIDE
 70
     0
 10
0.0
 20
0.0
 30
0.0
 11
1.0
 21
0.0
 31
0.0
 12
0.0
 22
-0.0000000000000002
 32
1.0
  0
UCS
  2
FRONT
 70
     0
 10
0.0
 20
0.0
 30
0.0
 11
-0.0000000000000002
 21
0.0
 31
-1.0
 12
0.0
 22
1.0
 32
0.0
  0
UCS
  2
BASE
 70
     0
 10
125.0
 20
-279.9999999999998
 30
685.0000000000001
 11
-0.0000000000000001
 21
-0.0000000000000007
 31
-1.0
 12
1.0
 22
0.0000000000000001
 32
-0.0000000000000001
  0
UCS
  2
THE_VIEW
 70
     0
 10
0.0
 20
0.0
 30
0.0
 11
-0.9582954245367744
 21
0.1126971900470439
 31
-0.2626199205456119
 12
-0.0508351052642382
 22
0.8370819756872773
 32
0.5447105268417878
  0
UCS
  2
GOOD_ONE
 70
     0
 10
0.0
 20
0.0
 30
0.0
 11
-0.9582954245367744
 21
0.1126971900470439
 31
-0.2626199205456119
 12
-0.0508351052642382
 22
0.8370819756872773
 32
0.5447105268417878
  0
ENDTAB
  0
TABLE
  2
APPID
 70
     1
  0
APPID
  2
ACAD
 70
    64
  0
ENDTAB
  0
TABLE
  2
DIMSTYLE
 70
     0
  0
ENDTAB
  0
ENDSEC
  0
SECTION
  2
BLOCKS
  0
ENDSEC
  0
SECTION
  2
ENTITIES
  0
POLYLINE
  8
ARM2
 39
106.0
 66
     1
 10
0.0
 20
0.0
 30
-53.0
 70
     1
210
1.0
220
0.0000000000000002
230
0.0000000000000001
  0
VERTEX
  8
ARM2
 39
106.0
 10
45.0
 20
600.0
 30
-53.0
  0
VERTEX
  8
ARM2
 39
106.0
 10
45.0
 20
350.0
 30
-53.0
 42
-1.0
  0
VERTEX
  8
ARM2
 39
106.0
 10
-45.0
 20
350.0
 30
-53.0
  0
VERTEX
  8
ARM2
 39
106.0
 10
-45.0
 20
600.0
 30
-53.0
 42
-1.0
  0
SEQEND
  8
ARM2
 39
106.0
  0
LINE
  8
0
 10
-45.0
 20
-120.0
 30
0.0
 11
205.0
 21
-120.0
 31
0.0
  0
LINE
  8
0
 10
-45.0
 20
-115.0
 30
0.0
 11
-45.0
 21
-125.0
 31
0.0
  0
LINE
  8
0
 10
-260.0
 20
-115.0
 30
0.0
 11
-260.0
 21
-125.0
 31
0.0
  0
POLYLINE
  8
ARM1
 39
180.0
 66
     1
 10
0.0
 20
0.0
 30
-90.0
210
1.0
220
0.0000000000000002
230
0.0000000000000001
  0
VERTEX
  8
ARM1
 39
180.0
 10
-59.999375
 20
649.61278
 30
-90.0
 42
2.135042
  0
VERTEX
  8
ARM1
 39
180.0
 10
60.0
 20
650.0
 30
-90.0
  0
VERTEX
  8
ARM1
 39
180.0
 10
55.30178
 20
795.644826
 30
-90.0
 42
0.4048
  0
VERTEX
  8
ARM1
 39
180.0
 10
35.312178
 20
815.0
 30
-90.0
  0
VERTEX
  8
ARM1
 39
180.0
 10
-35.312178
 20
815.0
 30
-90.0
 42
0.4048
  0
VERTEX
  8
ARM1
 39
180.0
 10
-55.30178
 20
795.644826
 30
-90.0
  0
VERTEX
  8
ARM1
 39
180.0
 10
-60.0
 20
650.0
 30
-90.0
  0
SEQEND
  8
ARM1
 39
180.0
  0
CIRCLE
  8
ARM1
 39
20.0
 10
0.0
 20
600.0
 30
90.0
 40
60.0
210
1.0
220
0.0000000000000002
230
0.0000000000000001
  0
POLYLINE
  8
ARM3
 39
70.0
 66
     1
 10
0.0
 20
0.0
 30
-35.0
 70
     1
210
1.0
220
0.0000000000000002
230
0.0000000000000001
  0
VERTEX
  8
ARM3
 39
70.0
 10
45.0
 20
350.0
 30
-35.0
  0
VERTEX
  8
ARM3
 39
70.0
 10
45.0
 20
190.0
 30
-35.0
 42
-1.0
  0
VERTEX
  8
ARM3
 39
70.0
 10
-45.0
 20
190.0
 30
-35.0
  0
VERTEX
  8
ARM3
 39
70.0
 10
-45.0
 20
350.0
 30
-35.0
 42
-1.0
  0
SEQEND
  8
ARM3
 39
70.0
  0
POLYLINE
  8
ARM4
 39
34.0
 66
     1
 10
0.0
 20
0.0
 30
-17.0
 70
     1
210
1.0
220
0.0000000000000002
230
0.0000000000000001
  0
VERTEX
  8
ARM4
 39
34.0
 10
39.0
 20
118.0
 30
-17.0
  0
VERTEX
  8
ARM4
 39
34.0
 10
39.0
 20
190.0
 30
-17.0
 42
1.0
  0
VERTEX
  8
ARM4
 39
34.0
 10
-39.0
 20
190.0
 30
-17.0
  0
VERTEX
  8
ARM4
 39
34.0
 10
-39.0
 20
118.0
 30
-17.0
  0
SEQEND
  8
ARM4
 39
34.0
  0
POLYLINE
  8
ARM3
 39
20.0
 66
     1
 10
0.0
 20
0.0
 30
35.0
 70
     1
210
1.0
220
0.0000000000000002
230
0.0000000000000001
  0
VERTEX
  8
ARM3
 39
20.0
 10
39.0
 20
190.0
 30
35.0
  0
VERTEX
  8
ARM3
 39
20.0
 10
39.0
 20
248.0
 30
35.0
 42
1.0
  0
VERTEX
  8
ARM3
 39
20.0
 10
-39.0
 20
248.0
 30
35.0
  0
VERTEX
  8
ARM3
 39
20.0
 10
-39.0
 20
190.0
 30
35.0
 42
1.0
  0
SEQEND
  8
ARM3
 39
20.0
  0
CIRCLE
  8
ARM1
 39
20.0
 10
0.0
 20
600.0
 30
-110.0
 40
60.0
210
1.0
220
0.0000000000000002
230
0.0000000000000001
  0
POLYLINE
  8
ARM3
 39
20.0
 66
     1
 10
0.0
 20
0.0
 30
-55.0
 70
     1
210
1.0
220
0.0000000000000002
230
0.0000000000000001
  0
VERTEX
  8
ARM3
 39
20.0
 10
39.0
 20
190.0
 30
-55.0
  0
VERTEX
  8
ARM3
 39
20.0
 10
39.0
 20
248.0
 30
-55.0
 42
1.0
  0
VERTEX
  8
ARM3
 39
20.0
 10
-39.0
 20
248.0
 30
-55.0
  0
VERTEX
  8
ARM3
 39
20.0
 10
-39.0
 20
190.0
 30
-55.0
 42
1.0
  0
SEQEND
  8
ARM3
 39
20.0
  0
POLYLINE
  8
ARM1
 39
110.0
 66
     1
 10
0.0
 20
0.0
 30
-655.0
 70
     1
210
-0.0000000000000001
220
-0.0000000000000004
230
-1.0
  0
VERTEX
  8
ARM1
 39
110.0
 10
-65.0
 20
-120.0
 30
-655.0
  0
VERTEX
  8
ARM1
 39
110.0
 10
65.0
 20
-120.0
 30
-655.0
  0
VERTEX
  8
ARM1
 39
110.0
 10
85.0
 20
-30.0
 30
-655.0
  0
VERTEX
  8
ARM1
 39
110.0
 10
-85.0
 20
-30.0
 30
-655.0
  0
SEQEND
  8
ARM1
 39
110.0
  0
POINT
  8
PIED1
 10
113.47541
 20
-70.894353
 30
100.0
210
-0.0000000000000001
220
-0.0000000000000004
230
-1.0
 50
90.0
  0
POINT
  8
PIED1
 10
175.0
 20
-287.852192
 30
785.0
210
-0.0000000000000001
220
-0.0000000000000004
230
-1.0
 50
90.0
  0
POINT
  8
PIED1
 10
127.430606
 20
-227.206801
 30
785.0
210
-0.0000000000000001
220
-0.0000000000000004
230
-1.0
 50
90.0
  0
POINT
  8
PIED1
 10
140.0
 20
-55.0
 30
100.0
210
-0.0000000000000001
220
-0.0000000000000004
230
-1.0
 50
90.0
  0
POINT
  8
PIED1
 10
175.0
 20
-67.195445
 30
100.0
210
-0.0000000000000001
220
-0.0000000000000004
230
-1.0
 50
90.0
  0
POINT
  8
PIED1
 10
175.0
 20
-242.195445
 30
785.0
210
-0.0000000000000001
220
-0.0000000000000004
230
-1.0
 50
90.0
  0
POINT
  8
PIED1
 10
135.713671
 20
-229.047482
 30
785.0
210
-0.0000000000000001
220
-0.0000000000000004
230
-1.0
 50
90.0
  0
POLYLINE
  8
PIED1
 39
15.0
 66
     1
 10
0.0
 20
0.0
 30
280.0
 70
     1
210
0.0000000000000001
220
-1.0
230
0.0000000000000004
  0
VERTEX
  8
PIED1
 39
15.0
 10
125.0
 20
685.0
 30
280.0
  0
VERTEX
  8
PIED1
 39
15.0
 10
125.0
 20
515.0
 30
280.0
  0
VERTEX
  8
PIED1
 39
15.0
 10
-125.0
 20
515.0
 30
280.0
  0
VERTEX
  8
PIED1
 39
15.0
 10
-125.0
 20
685.0
 30
280.0
  0
SEQEND
  8
PIED1
 39
15.0
  0
POLYLINE
  8
PIED1
 39
140.0
 66
     1
 10
0.0
 20
0.0
 30
140.0
 70
     1
210
0.0000000000000001
220
-1.0
230
0.0000000000000004
  0
VERTEX
  8
PIED1
 39
140.0
 10
-100.0
 20
665.0
 30
140.0
  0
VERTEX
  8
PIED1
 39
140.0
 10
-110.0
 20
655.0
 30
140.0
  0
VERTEX
  8
PIED1
 39
140.0
 10
-110.0
 20
545.0
 30
140.0
  0
VERTEX
  8
PIED1
 39
140.0
 10
-100.0
 20
535.0
 30
140.0
  0
VERTEX
  8
PIED1
 39
140.0
 10
-85.0
 20
530.0
 30
140.0
  0
VERTEX
  8
PIED1
 39
140.0
 10
85.0
 20
530.0
 30
140.0
  0
VERTEX
  8
PIED1
 39
140.0
 10
100.0
 20
535.0
 30
140.0
  0
VERTEX
  8
PIED1
 39
140.0
 10
110.0
 20
545.0
 30
140.0
  0
VERTEX
  8
PIED1
 39
140.0
 10
110.0
 20
655.0
 30
140.0
  0
VERTEX
  8
PIED1
 39
140.0
 10
100.0
 20
665.0
 30
140.0
  0
VERTEX
  8
PIED1
 39
140.0
 10
85.0
 20
670.0
 30
140.0
  0
VERTEX
  8
PIED1
 39
140.0
 10
-85.0
 20
670.0
 30
140.0
  0
SEQEND
  8
PIED1
 39
140.0
  0
CIRCLE
  8
ARM5
 39
70.0
 10
2.0
 20
0.0
 30
-118.0
 40
40.0
210
-0.0000000000000001
220
-0.0000000000000004
230
-1.0
  0
POLYLINE
  8
FINGER2
 39
50.0
 66
     1
 10
0.0
 20
0.0
 30
-50.0
 70
     1
210
-0.0000000000000001
220
-0.0000000000000004
230
-1.0
  0
VERTEX
  8
FINGER2
 39
50.0
 10
10.0
 20
40.0
 30
-50.0
  0
VERTEX
  8
FINGER2
 39
50.0
 10
-10.0
 20
40.0
 30
-50.0
  0
VERTEX
  8
FINGER2
 39
50.0
 10
-10.0
 20
10.0
 30
-50.0
  0
VERTEX
  8
FINGER2
 39
50.0
 10
10.0
 20
10.0
 30
-50.0
  0
SEQEND
  8
FINGER2
 39
50.0
  0
POLYLINE
  8
FINGER1
 39
50.0
 66
     1
 10
0.0
 20
0.0
 30
-50.0
 70
     1
210
-0.0000000000000001
220
-0.0000000000000004
230
-1.0
  0
VERTEX
  8
FINGER1
 39
50.0
 10
10.0
 20
-10.0
 30
-50.0
  0
VERTEX
  8
FINGER1
 39
50.0
 10
-10.0
 20
-10.0
 30
-50.0
  0
VERTEX
  8
FINGER1
 39
50.0
 10
-10.0
 20
-40.0
 30
-50.0
  0
VERTEX
  8
FINGER1
 39
50.0
 10
10.0
 20
-40.0
 30
-50.0
  0
SEQEND
  8
FINGER1
 39
50.0
  0
CIRCLE
  8
ARM1
 39
20.0
 10
0.0
 20
600.0
 30
-140.0
 40
55.0
210
-0.0000000000000002
220
1.0
230
-0.0000000000000002
  0
POLYLINE
  8
OBJECT
 39
2.0
 66
     1
 10
0.0
 20
0.0
 30
-295.0
 70
     1
210
-0.0000000000000002
220
1.0
230
-0.0000000000000002
  0
VERTEX
  8
OBJECT
 39
2.0
 10
-265.0
 20
255.0
 30
-295.0
  0
VERTEX
  8
OBJECT
 39
2.0
 10
-160.0
 20
255.0
 30
-295.0
  0
VERTEX
  8
OBJECT
 39
2.0
 10
-160.0
 20
150.0
 30
-295.0
  0
SEQEND
  8
OBJECT
 39
2.0
  0
POLYLINE
  8
OBJECT
 62
   173
 39
10.0
 66
     1
 10
0.0
 20
0.0
 30
-293.0
 70
     1
210
-0.0000000000000002
220
1.0
230
-0.0000000000000002
  0
VERTEX
  8
OBJECT
 62
   173
 39
10.0
 10
-185.0
 20
230.0
 30
-293.0
  0
VERTEX
  8
OBJECT
 62
   173
 39
10.0
 10
-195.0
 20
230.0
 30
-293.0
  0
VERTEX
  8
OBJECT
 62
   173
 39
10.0
 10
-195.0
 20
220.0
 30
-293.0
  0
VERTEX
  8
OBJECT
 62
   173
 39
10.0
 10
-185.0
 20
220.0
 30
-293.0
  0
SEQEND
  8
OBJECT
 62
   173
 39
10.0
  0
POLYLINE
  8
POINTER
 39
20.0
 66
     1
 10
0.0
 20
0.0
 30
-10.0
 70
     1
210
0.0000000000000002
220
1.0
230
0.0000000000000006
  0
VERTEX
  8
POINTER
 39
20.0
 10
0.0
 20
-75.0
 30
-10.0
  0
VERTEX
  8
POINTER
 39
20.0
 10
-10.0
 20
0.0
 30
-10.0
  0
VERTEX
  8
POINTER
 39
20.0
 10
10.0
 20
0.0
 30
-10.0
  0
SEQEND
  8
POINTER
 39
20.0
  0
ENDSEC
  0
EOF
