  0
SECTION
  2
HEADER
  9
$LIMMIN
 10
0.0
 20
0.0
  9
$LIMMAX
 10
18.5
 20
10.5
  0
ENDSEC
  0
SECTION
  2
ENTITIES
  0
TEXT
  8
0
 10
13.900000
 20
9.400000
 40
0.250000
  1
Phi[grad]
 41
0.75
 72
5
 11
14.300000
 21
9.400000
  0
TEXT
  8
0
 10
12.400000
 20
0.400000
 40
0.200000
  1
Theta[grad]
 41
0.75
 72
5
 11
13.900000
 21
0.400000
  0
LINE
  8
2
 10
13.6
 20
9.1
 11
13.9
 21
9.1
  0
TEXT
  8
0
 10
13.950000
 20
9.000000
 40
0.200000
  1
0.00
 41
0.75
 72
5
 11
14.250000
 21
9.000000
  0
SOLID
  8
1
 10
1.350000
 20
9.500000
 11
1.450000
 21
9.500000
 12
1.400000
 22
9.800000
 13
1.400000
 23
9.800000
  0
LINE
  8
1
 10
1.400000
 20
0.950000
 11
1.400000
 21
9.500000
  0
SOLID
  8
1
 10
13.900000
 20
0.950000
 11
13.900000
 21
1.050000
 12
14.200000
 22
1.000000
 13
14.200000
 23
1.000000
  0
LINE
  8
1
 10
1.350000
 20
1.000000
 11
13.900000
 21
1.000000
  0
TEXT
  8
0
 10
1.200000
 20
0.650000
 40
0.200000
  1
0
 41
0.75
 72
5
 11
1.600000
 21
0.650000
  0
LINE
  8
1
 10
2.150000
 20
0.950000
 11
2.150000
 21
1.050000
  0
LINE
  8
1
 10
2.900000
 20
0.950000
 11
2.900000
 21
1.050000
  0
LINE
  8
1
 10
3.650000
 20
0.950000
 11
3.650000
 21
1.050000
  0
LINE
  8
1
 10
4.400000
 20
0.950000
 11
4.400000
 21
1.050000
  0
TEXT
  8
0
 10
4.200000
 20
0.650000
 40
0.200000
  1
4
 41
0.75
 72
5
 11
4.600000
 21
0.650000
  0
LINE
  8
1
 10
5.150000
 20
0.950000
 11
5.150000
 21
1.050000
  0
LINE
  8
1
 10
5.900000
 20
0.950000
 11
5.900000
 21
1.050000
  0
LINE
  8
1
 10
6.650000
 20
0.950000
 11
6.650000
 21
1.050000
  0
LINE
  8
1
 10
7.400000
 20
0.950000
 11
7.400000
 21
1.050000
  0
TEXT
  8
0
 10
7.200000
 20
0.650000
 40
0.200000
  1
8
 41
0.75
 72
5
 11
7.600000
 21
0.650000
  0
LINE
  8
1
 10
8.150000
 20
0.950000
 11
8.150000
 21
1.050000
  0
LINE
  8
1
 10
8.900000
 20
0.950000
 11
8.900000
 21
1.050000
  0
LINE
  8
1
 10
9.650000
 20
0.950000
 11
9.650000
 21
1.050000
  0
LINE
  8
1
 10
10.400000
 20
0.950000
 11
10.400000
 21
1.050000
  0
TEXT
  8
0
 10
10.200000
 20
0.650000
 40
0.200000
  1
12
 41
0.75
 72
5
 11
10.599999
 21
0.650000
  0
LINE
  8
1
 10
11.150000
 20
0.950000
 11
11.150000
 21
1.050000
  0
LINE
  8
1
 10
11.900000
 20
0.950000
 11
11.900000
 21
1.050000
  0
LINE
  8
1
 10
12.650000
 20
0.950000
 11
12.650000
 21
1.050000
  0
LINE
  8
1
 10
13.400000
 20
0.950000
 11
13.400000
 21
1.050000
  0
TEXT
  8
0
 10
13.200000
 20
0.650000
 40
0.200000
  1
16
 41
0.75
 72
5
 11
13.599999
 21
0.650000
  0
TEXT
  8
0
 10
0.500000
 20
0.900000
 40
0.200000
  1
1
 41
0.75
 72
5
 11
0.900000
 21
0.900000
  0
LINE
  8
1
 10
1.350000
 20
2.142857
 11
1.450000
 21
2.142857
  0
TEXT
  8
0
 10
0.500000
 20
2.042857
 40
0.200000
  1
2
 41
0.75
 72
5
 11
0.900000
 21
2.042857
  0
LINE
  8
1
 10
1.350000
 20
3.285714
 11
1.450000
 21
3.285714
  0
TEXT
  8
0
 10
0.500000
 20
3.185714
 40
0.200000
  1
3
 41
0.75
 72
5
 11
0.900000
 21
3.185714
  0
LINE
  8
1
 10
1.350000
 20
4.428571
 11
1.450000
 21
4.428571
  0
TEXT
  8
0
 10
0.500000
 20
4.328571
 40
0.200000
  1
4
 41
0.75
 72
5
 11
0.900000
 21
4.328571
  0
LINE
  8
1
 10
1.350000
 20
5.571429
 11
1.450000
 21
5.571429
  0
TEXT
  8
0
 10
0.500000
 20
5.471429
 40
0.200000
  1
5
 41
0.75
 72
5
 11
0.900000
 21
5.471429
  0
LINE
  8
1
 10
1.350000
 20
6.714286
 11
1.450000
 21
6.714286
  0
TEXT
  8
0
 10
0.500000
 20
6.614286
 40
0.200000
  1
6
 41
0.75
 72
5
 11
0.900000
 21
6.614286
  0
LINE
  8
1
 10
1.350000
 20
7.857143
 11
1.450000
 21
7.857143
  0
TEXT
  8
0
 10
0.500000
 20
7.757143
 40
0.200000
  1
7
 41
0.75
 72
5
 11
0.900000
 21
7.757143
  0
LINE
  8
1
 10
1.350000
 20
9.000000
 11
1.450000
 21
9.000000
  0
TEXT
  8
0
 10
0.500000
 20
8.900000
 40
0.200000
  1
8
 41
0.75
 72
5
 11
0.900000
 21
8.900000
  0
TEXT
  8
0
 10
0.000000
 20
9.900000
 40
0.200000
  1
Kontrast
 41
0.75
 72
5
 11
1.500000
 21
9.900000
  0
POLYLINE
  8
2
 66
1
  0
VERTEX
  8
2
 10
1.400000
 20
1.368721
 42
0
  0
VERTEX
  8
2
 10
1.785647
 20
1.645513
 42
0
  0
VERTEX
  8
2
 10
2.170649
 20
1.924556
 42
0
  0
VERTEX
  8
2
 10
2.554360
 20
2.208098
 42
0
  0
VERTEX
  8
2
 10
2.936135
 20
2.498390
 42
0
  0
VERTEX
  8
2
 10
3.315330
 20
2.797681
 42
0
  0
VERTEX
  8
2
 10
3.691298
 20
3.108221
 42
0
  0
VERTEX
  8
2
 10
4.063394
 20
3.432261
 42
0
  0
VERTEX
  8
2
 10
4.430973
 20
3.772049
 42
0
  0
VERTEX
  8
2
 10
4.793390
 20
4.129837
 42
0
  0
VERTEX
  8
2
 10
5.150000
 20
4.507873
 42
0
  0
VERTEX
  8
2
 10
5.521319
 20
4.931109
 42
0
  0
VERTEX
  8
2
 10
5.887592
 20
5.370601
 42
0
  0
VERTEX
  8
2
 10
6.251018
 20
5.817338
 42
0
  0
VERTEX
  8
2
 10
6.613795
 20
6.262312
 42
0
  0
VERTEX
  8
2
 10
6.978123
 20
6.696517
 42
0
  0
VERTEX
  8
2
 10
7.346202
 20
7.110942
 42
0
  0
VERTEX
  8
2
 10
7.720229
 20
7.496580
 42
0
  0
VERTEX
  8
2
 10
8.102407
 20
7.844423
 42
0
  0
VERTEX
  8
2
 10
8.494930
 20
8.145463
 42
0
  0
VERTEX
  8
2
 10
8.900000
 20
8.390691
 42
0
  0
VERTEX
  8
2
 10
9.246174
 20
8.546702
 42
0
  0
VERTEX
  8
2
 10
9.601451
 20
8.662698
 42
0
  0
VERTEX
  8
2
 10
9.964819
 20
8.743124
 42
0
  0
VERTEX
  8
2
 10
10.335267
 20
8.792426
 42
0
  0
VERTEX
  8
2
 10
10.711784
 20
8.815052
 42
0
  0
VERTEX
  8
2
 10
11.093359
 20
8.815447
 42
0
  0
VERTEX
  8
2
 10
11.478979
 20
8.798057
 42
0
  0
VERTEX
  8
2
 10
11.867633
 20
8.767328
 42
0
  0
VERTEX
  8
2
 10
12.258311
 20
8.727708
 42
0
  0
VERTEX
  8
2
 10
12.650000
 20
8.683641
 42
0
  0
SEQEND
  8
2
  0
ENDSEC
  0
EOF
