  0
SECTION
  2
HEADER
  9
$HANDLING
 70
0
  0
ENDSEC
  0
SECTION
  2
TABLES
  0
TABLE
  2
LTYPE
 70
8
  0
LTYPE
  2
CONTINUOUS
 70
64
  3
Solid line
 72
65
 73
0
 40
0.000000
  0
LTYPE
  2
DASHED
 70
64
  3
__ __ __ __
 72
65
 73
2
 40
18.750000
 49
12.500000
 49
-6.250000
  0
LTYPE
  2
HIDDEN
 70
64
  3
_ _ _ _ _ _
 72
65
 73
2
 40
9.375000
 49
6.250000
 49
-3.125000
  0
LTYPE
  2
DASHDOT
 70
64
  3
__.__.__.__
 72
65
 73
4
 40
25.000000
 49
12.500000
 49
-6.250000
 49
0.000000
 49
-6.250000
  0
ENDTAB
  0
TABLE
  2
LAYER
 70
1
  0
LAYER
  2
Layer0
 70
0
 62
8
  6
CONTINUOUS
  0
ENDTAB
  0
TABLE
  2
APPID
 70
1
  0
APPID
  2
smartdraw
 70
0
  0
ENDTAB
  0
TABLE
  2
UCS
 70
1
  0
UCS
  2
UCSENTRY1
 70
0
 10
0.000000
 20
0.000000
 11
1.000000
 21
0.000000
 12
0.000000
 22
1.000000
1093
0
1095
1.000000
1094
0
1096
1.000000
  0
ENDTAB
  0
ENDSEC
  0
SECTION
  2
BLOCKS
  0
BLOCK
  8
Layer0
 70
0
  2
groupobj_0
 10
22.000000
 20
152.000000
1092
34.000000
  0
LINE
 10
48.000000
 20
174.000000
  8
Layer0
 11
50.802921
 21
169.649628
1001
smartdraw
1090
0
1091
250
1092
20.000000
  0
LINE
 10
53.343063
 20
172.401443
  8
Layer0
 11
51.014599
 21
169.226273
1001
smartdraw
1090
0
1091
250
1092
22.000000
  0
LINE
 10
48.000000
 20
174.000000
  8
Layer0
 11
53.343067
 21
172.401459
1001
smartdraw
1090
0
1091
250
1092
21.000000
  0
LINE
 10
62.000000
 20
162.000000
  8
Layer0
 11
52.284672
 21
170.708038
1001
smartdraw
1090
0
1091
250
1092
18.000000
  0
LINE
 10
62.000000
 20
162.000000
  8
Layer0
 11
62.000000
 21
152.000000
1001
smartdraw
1090
0
1091
250
1092
19.000000
  0
LINE
 10
62.000000
 20
202.000000
  8
Layer0
 11
86.000000
 21
202.000000
1001
smartdraw
1090
0
1091
250
1092
17.000000
  0
LINE
 10
48.000000
 20
190.000000
  8
Layer0
 11
62.000000
 21
202.000000
1001
smartdraw
1090
0
1091
250
1092
16.000000
  0
POLYLINE
  8
Layer0
 62
8
 66
1
 70
1
  0
VERTEX
  8
Layer0
 62
8
 10
46.000000
 20
168.000000
  0
VERTEX
  8
Layer0
 62
8
 10
46.000000
 20
196.000000
  0
VERTEX
  8
Layer0
 62
8
 10
48.000000
 20
196.000000
  0
VERTEX
  8
Layer0
 62
8
 10
48.000000
 20
168.000000
  0
VERTEX
  8
Layer0
 62
8
 10
46.000000
 20
168.000000
  0
SEQEND
1001
smartdraw
1090
0
1091
250
1092
14.000000
  0
CIRCLE
 10
56.000000
 20
182.000000
  8
Layer0
 40
22.000000
1001
smartdraw
1090
0
1091
250
1092
4.000000
  0
POLYLINE
  8
Layer0
 62
8
 66
1
 70
1
  0
VERTEX
  8
Layer0
 62
8
 10
22.000000
 20
181.153290
  0
VERTEX
  8
Layer0
 62
8
 10
22.000000
 20
183.153290
  0
VERTEX
  8
Layer0
 62
8
 10
46.000000
 20
183.153290
  0
VERTEX
  8
Layer0
 62
8
 10
46.000000
 20
181.153290
  0
VERTEX
  8
Layer0
 62
8
 10
22.000000
 20
181.153290
  0
SEQEND
1001
smartdraw
1090
0
1091
250
1092
8.000000
  0
ENDBLK
  0
ENDSEC
  0
SECTION
  2
ENTITIES
  0
INSERT
  8
Layer0
  2
groupobj_0
 10
22.000000
 20
152.000000
  0
ENDSEC
  0
EOF
