  0
SECTION
  2
HEADER
  9
$HANDLING
 70
0
  0
ENDSEC
  0
SECTION
  2
TABLES
  0
TABLE
  2
LTYPE
 70
8
  0
LTYPE
  2
CONTINUOUS
 70
64
  3
Solid line
 72
65
 73
0
 40
0.000000
  0
LTYPE
  2
DASHED
 70
64
  3
__ __ __ __
 72
65
 73
2
 40
18.750000
 49
12.500000
 49
-6.250000
  0
LTYPE
  2
HIDDEN
 70
64
  3
_ _ _ _ _ _
 72
65
 73
2
 40
9.375000
 49
6.250000
 49
-3.125000
  0
LTYPE
  2
DASHDOT
 70
64
  3
__.__.__.__
 72
65
 73
4
 40
25.000000
 49
12.500000
 49
-6.250000
 49
0.000000
 49
-6.250000
  0
ENDTAB
  0
TABLE
  2
LAYER
 70
1
  0
LAYER
  2
Layer0
 70
0
 62
8
  6
CONTINUOUS
  0
ENDTAB
  0
TABLE
  2
APPID
 70
1
  0
APPID
  2
smartdraw
 70
0
  0
ENDTAB
  0
TABLE
  2
UCS
 70
1
  0
UCS
  2
UCSENTRY1
 70
0
 10
0.000000
 20
0.000000
 11
1.000000
 21
0.000000
 12
0.000000
 22
1.000000
  0
ENDTAB
  0
ENDSEC
  0
SECTION
  2
BLOCKS
  0
BLOCK
 70
0
  2
none
 10
0
 20
0
  0
ENDBLK
  0
BLOCK
  8
Layer0
 70
0
  2
groupobj_0
 10
31.855877
 20
199.495178
  0
LINE
 10
32.283718
 20
199.536606
  8
Layer0
 11
32.283718
 21
204.523911
  0
LINE
 10
32.283718
 20
204.523911
  8
Layer0
 11
34.750202
 21
204.523911
  0
LINE
 10
34.750202
 20
204.523911
  8
Layer0
 11
35.618282
 21
203.739288
  0
LINE
 10
35.618282
 20
202.817337
  8
Layer0
 11
34.750202
 21
202.096466
  0
LINE
 10
34.750202
 20
202.096466
  8
Layer0
 11
32.283718
 21
202.096466
  0
LINE
 10
33.082912
 20
202.096466
  8
Layer0
 11
35.687183
 21
199.536606
  0
POINT
 10
31.855877
 20
199.495178
  8
Layer0

  0
LINE
 10
35.618282
 20
203.739288
  8
Layer0
 11
35.618282
 21
202.817337
  0
ENDBLK
  0
BLOCK
  8
Layer0
 70
0
  2
groupobj_1
 10
60.019325
 20
199.854080
  0
LINE
 10
60.429718
 20
204.777634
  8
Layer0
 11
60.429718
 21
199.854080
  0
LINE
 10
60.429718
 20
199.854080
  8
Layer0
 11
63.970978
 21
199.854080
  0
POINT
 10
60.019325
 20
199.871964
  8
Layer0

  0
ENDBLK
  0
BLOCK
  8
Layer0
 70
0
  2
groupobj_2
 10
26.000000
 20
197.527863
  0
CIRCLE
 10
34.000000
 20
202.000000
  8
Layer0
 40
4.472136
  0
CIRCLE
 10
62.000000
 20
202.000000
  8
Layer0
 40
4.472136
  0
POINT
 10
52.000000
 20
204.000000
  8
Layer0

  0
ARC
 10
47.916264
 20
206.018921
  8
Layer0
 40
13.916276
 50
0.077901
 51
180.077893
  0
LINE
 10
66.000000
 20
202.000000
  8
Layer0
 11
70.000000
 21
202.000000
  0
LINE
 10
26.000000
 20
202.000000
  8
Layer0
 11
30.000000
 21
202.000000
  0
INSERT
  8
Layer0
  2
groupobj_0
 10
31.855877
 20
199.495178
  0
INSERT
  8
Layer0
  2
groupobj_1
 10
60.019325
 20
199.854080
  0
ENDBLK
  0
ENDSEC
  0
SECTION
  2
ENTITIES
  0
INSERT
  8
Layer0
  2
groupobj_2
 10
26.000000
 20
197.527863
  0
POINT
 10
72.000000
 20
232.000000
  8
Layer0

  0
ENDSEC
  0
EOF
