0
SECTION
2
TABLES
0
TABLE
2
LAYER
70
6
0
LAYER
2
0
70
64
62
7
6
CONTINUOUS
0
LAYER
2
V_F
70
64
62
7
6
CONTINUOUS
0
ENDTAB
0
ENDSEC
0
SECTION
2
ENTITIES
0
POLYLINE
8
V_F
10
0.0
20
0.0
30
0.0
70
9
66
1
0
VERTEX
8
0
10
52.2164
20
0
30
47.5617
0
VERTEX
8
0
10
52.5512
20
0
30
47.4913
0
VERTEX
8
0
10
58.4406
20
0
30
46.5564
0
SEQEND
0
POLYLINE
8
V_F
10
0.0
20
0.0
30
0.0
70
9
66
1
0
VERTEX
8
0
10
72.1152
20
0
30
16.4599
0
VERTEX
8
0
10
66.6111
20
0
30
2.86729
0
VERTEX
8
0
10
14.1152
20
0
30
-135.133
0
SEQEND
0
POLYLINE
8
V_F
10
0.0
20
0.0
30
0.0
70
9
66
1
0
VERTEX
8
0
10
-37.8585
20
0
30
47.1815
0
VERTEX
8
0
10
-29.1069
20
0
30
48
0
VERTEX
8
0
10
-29.1069
20
0
30
54
0
SEQEND
0
POLYLINE
8
V_F
10
0.0
20
0.0
30
0.0
70
9
66
1
0
VERTEX
8
0
10
-92.4649
20
0
30
24.3638
0
VERTEX
8
0
10
-88.2608
20
0
30
13.9742
0
VERTEX
8
0
10
2.44425
20
0
30
-192
0
SEQEND
0
POLYLINE
8
V_F
10
0.0
20
0.0
30
0.0
70
9
66
1
0
VERTEX
8
0
10
115.853
20
0
30
46.7283
0
VERTEX
8
0
10
122.726
20
0
30
48
0
VERTEX
8
0
10
122.726
20
0
30
54
0
SEQEND
0
POLYLINE
8
V_F
10
0.0
20
0.0
30
0.0
70
9
66
1
0
VERTEX
8
0
10
51.8087
20
0
30
47.6419
0
VERTEX
8
0
10
52.2164
20
0
30
47.5617
0
VERTEX
8
0
10
58.4406
20
0
30
46.5564
0
SEQEND
0
POLYLINE
8
V_F
10
0.0
20
0.0
30
0.0
70
9
66
1
0
VERTEX
8
0
10
-42.9232
20
0
30
46.1513
0
VERTEX
8
0
10
-37.8585
20
0
30
47.1815
0
VERTEX
8
0
10
-29.1069
20
0
30
54
0
SEQEND
0
POLYLINE
8
V_F
10
0.0
20
0.0
30
0.0
70
9
66
1
0
VERTEX
8
0
10
-94.1544
20
0
30
28.2871
0
VERTEX
8
0
10
-92.4649
20
0
30
24.3638
0
VERTEX
8
0
10
2.44425
20
0
30
-192
0
SEQEND
0
POLYLINE
8
V_F
10
0.0
20
0.0
30
0.0
70
9
66
1
0
VERTEX
8
0
10
112.24
20
0
30
45.7715
0
VERTEX
8
0
10
115.853
20
0
30
46.7283
0
VERTEX
8
0
10
122.726
20
0
30
54
0
SEQEND
0
POLYLINE
8
V_F
10
0.0
20
0.0
30
0.0
70
9
66
1
0
VERTEX
8
0
10
51.33
20
0
30
47.7256
0
VERTEX
8
0
10
51.8087
20
0
30
47.6419
0
VERTEX
8
0
10
58.4406
20
0
30
46.5564
0
SEQEND
0
POLYLINE
8
V_F
10
0.0
20
0.0
30
0.0
70
9
66
1
0
VERTEX
8
0
10
-47.7918
20
0
30
44.0267
0
VERTEX
8
0
10
-42.9232
20
0
30
46.1513
0
VERTEX
8
0
10
-29.1069
20
0
30
54
0
SEQEND
0
POLYLINE
8
V_F
10
0.0
20
0.0
30
0.0
70
9
66
1
0
VERTEX
8
0
10
-94.1544
20
0
30
28.2871
0
VERTEX
8
0
10
2.44425
20
0
30
-192
0
VERTEX
8
0
10
9.09401
20
0
30
-192
0
SEQEND
0
POLYLINE
8
V_F
10
0.0
20
0.0
30
0.0
70
9
66
1
0
VERTEX
8
0
10
109.112
20
0
30
44.3282
0
VERTEX
8
0
10
112.24
20
0
30
45.7715
0
VERTEX
8
0
10
122.726
20
0
30
54
0
SEQEND
0
POLYLINE
8
V_F
10
0.0
20
0.0
30
0.0
70
9
66
1
0
VERTEX
8
0
10
-47.7918
20
0
30
44.0267
0
VERTEX
8
0
10
-29.1069
20
0
30
54
0
VERTEX
8
0
10
-126.039
20
0
30
54
0
SEQEND
0
POLYLINE
8
V_F
10
0.0
20
0.0
30
0.0
70
9
66
1
0
VERTEX
8
0
10
109.112
20
0
30
44.3282
0
VERTEX
8
0
10
122.726
20
0
30
54
0
VERTEX
8
0
10
49.5512
20
0
30
54
0
SEQEND
0
POLYLINE
8
V_F
10
0.0
20
0.0
30
0.0
70
9
66
1
0
VERTEX
8
0
10
-52.4643
20
0
30
40.8076
0
VERTEX
8
0
10
-47.7918
20
0
30
44.0267
0
VERTEX
8
0
10
-126.039
20
0
30
54
0
SEQEND
0
POLYLINE
8
V_F
10
0.0
20
0.0
30
0.0
70
9
66
1
0
VERTEX
8
0
10
14.1152
20
0
30
-135.133
0
VERTEX
8
0
10
-94.1544
20
0
30
28.2871
0
VERTEX
8
0
10
9.09401
20
0
30
-192
0
SEQEND
0
POLYLINE
8
V_F
10
0.0
20
0.0
30
0.0
70
9
66
1
0
VERTEX
8
0
10
-95.7005
20
0
30
31.3513
0
VERTEX
8
0
10
-94.1544
20
0
30
28.2871
0
VERTEX
8
0
10
14.1152
20
0
30
-135.133
0
SEQEND
0
POLYLINE
8
V_F
10
0.0
20
0.0
30
0.0
70
9
66
1
0
VERTEX
8
0
10
106.471
20
0
30
42.3983
0
VERTEX
8
0
10
109.112
20
0
30
44.3282
0
VERTEX
8
0
10
49.5512
20
0
30
54
0
SEQEND
0
POLYLINE
8
V_F
10
0.0
20
0.0
30
0.0
70
9
66
1
0
VERTEX
8
0
10
-54.1224
20
0
30
38.7392
0
VERTEX
8
0
10
-52.4643
20
0
30
40.8076
0
VERTEX
8
0
10
-126.039
20
0
30
54
0
SEQEND
0
POLYLINE
8
V_F
10
0.0
20
0.0
30
0.0
70
9
66
1
0
VERTEX
8
0
10
72.1152
20
0
30
16.4599
0
VERTEX
8
0
10
14.1152
20
0
30
-135.133
0
VERTEX
8
0
10
9.09401
20
0
30
-192
0
SEQEND
0
POLYLINE
8
V_F
10
0.0
20
0.0
30
0.0
70
9
66
1
0
VERTEX
8
0
10
-97.1029
20
0
30
33.5564
0
VERTEX
8
0
10
-95.7005
20
0
30
31.3513
0
VERTEX
8
0
10
14.1152
20
0
30
-135.133
0
SEQEND
0
POLYLINE
8
V_F
10
0.0
20
0.0
30
0.0
70
9
66
1
0
VERTEX
8
0
10
103.551
20
0
30
39.7521
0
VERTEX
8
0
10
106.471
20
0
30
42.3983
0
VERTEX
8
0
10
49.5512
20
0
30
54
0
SEQEND
0
POLYLINE
8
V_F
10
0.0
20
0.0
30
0.0
70
9
66
1
0
VERTEX
8
0
10
-55.1172
20
0
30
35.8104
0
VERTEX
8
0
10
-54.1224
20
0
30
38.7392
0
VERTEX
8
0
10
-126.039
20
0
30
54
0
SEQEND
0
POLYLINE
8
V_F
10
0.0
20
0.0
30
0.0
70
9
66
1
0
VERTEX
8
0
10
73.6441
20
0
30
21.1103
0
VERTEX
8
0
10
72.1152
20
0
30
16.4599
0
VERTEX
8
0
10
9.09401
20
0
30
-192
0
SEQEND
0
POLYLINE
8
V_F
10
0.0
20
0.0
30
0.0
70
9
66
1
0
VERTEX
8
0
10
-97.1029
20
0
30
33.5564
0
VERTEX
8
0
10
14.1152
20
0
30
-135.133
0
VERTEX
8
0
10
-47.3889
20
0
30
4.59817
0
SEQEND
0
POLYLINE
8
V_F
10
0.0
20
0.0
30
0.0
70
9
66
1
0
VERTEX
8
0
10
99.446
20
0
30
35.8549
0
VERTEX
8
0
10
103.551
20
0
30
39.7521
0
VERTEX
8
0
10
49.5512
20
0
30
54
0
SEQEND
0
POLYLINE
8
V_F
10
0.0
20
0.0
30
0.0
70
9
66
1
0
VERTEX
8
0
10
-55.4488
20
0
30
32.0212
0
VERTEX
8
0
10
-55.1172
20
0
30
35.8104
0
VERTEX
8
0
10
-126.039
20
0
30
54
0
SEQEND
0
POLYLINE
8
V_F
10
0.0
20
0.0
30
0.0
70
9
66
1
0
VERTEX
8
0
10
73.6441
20
0
30
21.1103
0
VERTEX
8
0
10
9.09401
20
0
30
-192
0
VERTEX
8
0
10
87.047
20
0
30
12.8461
0
SEQEND
0
POLYLINE
8
V_F
10
0.0
20
0.0
30
0.0
70
9
66
1
0
VERTEX
8
0
10
-99.3422
20
0
30
36.5381
0
VERTEX
8
0
10
-97.1029
20
0
30
33.5564
0
VERTEX
8
0
10
-47.3889
20
0
30
4.59817
0
SEQEND
0
POLYLINE
8
V_F
10
0.0
20
0.0
30
0.0
70
9
66
1
0
VERTEX
8
0
10
96.2064
20
0
30
32.2135
0
VERTEX
8
0
10
99.446
20
0
30
35.8549
0
VERTEX
8
0
10
49.5512
20
0
30
54
0
SEQEND
0
POLYLINE
8
V_F
10
0.0
20
0.0
30
0.0
70
9
66
1
0
VERTEX
8
0
10
-55.1503
20
0
30
26.4607
0
VERTEX
8
0
10
-55.4488
20
0
30
32.0212
0
VERTEX
8
0
10
-126.039
20
0
30
54
0
SEQEND
0
POLYLINE
8
V_F
10
0.0
20
0.0
30
0.0
70
9
66
1
0
VERTEX
8
0
10
74.5615
20
0
30
25.9997
0
VERTEX
8
0
10
73.6441
20
0
30
21.1103
0
VERTEX
8
0
10
87.047
20
0
30
12.8461
0
SEQEND
0
POLYLINE
8
V_F
10
0.0
20
0.0
30
0.0
70
9
66
1
0
VERTEX
8
0
10
-101.678
20
0
30
39.0894
0
VERTEX
8
0
10
-99.3422
20
0
30
36.5381
0
VERTEX
8
0
10
-47.3889
20
0
30
4.59817
0
SEQEND
0
POLYLINE
8
V_F
10
0.0
20
0.0
30
0.0
70
9
66
1
0
VERTEX
8
0
10
93.39
20
0
30
27.8425
0
VERTEX
8
0
10
96.2064
20
0
30
32.2135
0
VERTEX
8
0
10
49.5512
20
0
30
54
0
SEQEND
0
POLYLINE
8
V_F
10
0.0
20
0.0
30
0.0
70
9
66
1
0
VERTEX
8
0
10
-54.2548
20
0
30
21.466
0
VERTEX
8
0
10
-55.1503
20
0
30
26.4607
0
VERTEX
8
0
10
-126.039
20
0
30
54
0
SEQEND
0
POLYLINE
8
V_F
10
0.0
20
0.0
30
0.0
70
9
66
1
0
VERTEX
8
0
10
74.8673
20
0
30
31.1281
0
VERTEX
8
0
10
74.5615
20
0
30
25.9997
0
VERTEX
8
0
10
87.047
20
0
30
12.8461
0
SEQEND
0
POLYLINE
8
V_F
10
0.0
20
0.0
30
0.0
70
9
66
1
0
VERTEX
8
0
10
-104.714
20
0
30
41.4553
0
VERTEX
8
0
10
-101.678
20
0
30
39.0894
0
VERTEX
8
0
10
-47.3889
20
0
30
4.59817
0
SEQEND
0
POLYLINE
8
V_F
10
0.0
20
0.0
30
0.0
70
9
66
1
0
VERTEX
8
0
10
-52.7622
20
0
30
17.0369
0
VERTEX
8
0
10
-54.2548
20
0
30
21.466
0
VERTEX
8
0
10
-126.039
20
0
30
54
0
SEQEND
0
POLYLINE
8
V_F
10
0.0
20
0.0
30
0.0
70
9
66
1
0
VERTEX
8
0
10
70.592
20
0
30
40.1548
0
VERTEX
8
0
10
90.9968
20
0
30
22.7418
0
VERTEX
8
0
10
93.39
20
0
30
27.8425
0
SEQEND
0
POLYLINE
8
V_F
10
0.0
20
0.0
30
0.0
70
9
66
1
0
VERTEX
8
0
10
74.8673
20
0
30
32.919
0
VERTEX
8
0
10
74.8673
20
0
30
31.1281
0
VERTEX
8
0
10
87.047
20
0
30
12.8461
0
SEQEND
0
POLYLINE
8
V_F
10
0.0
20
0.0
30
0.0
70
9
66
1
0
VERTEX
8
0
10
-104.714
20
0
30
41.4553
0
VERTEX
8
0
10
-47.3889
20
0
30
4.59817
0
VERTEX
8
0
10
-52.7622
20
0
30
17.0369
0
SEQEND
0
POLYLINE
8
V_F
10
0.0
20
0.0
30
0.0
70
9
66
1
0
VERTEX
8
0
10
66.6197
20
0
30
43.2702
0
VERTEX
8
0
10
70.592
20
0
30
40.1548
0
VERTEX
8
0
10
93.39
20
0
30
27.8425
0
SEQEND
0
POLYLINE
8
V_F
10
0.0
20
0.0
30
0.0
70
9
66
1
0
VERTEX
8
0
10
74.3923
20
0
30
35.1968
0
VERTEX
8
0
10
74.8673
20
0
30
32.919
0
VERTEX
8
0
10
87.047
20
0
30
12.8461
0
SEQEND
0
POLYLINE
8
V_F
10
0.0
20
0.0
30
0.0
70
9
66
1
0
VERTEX
8
0
10
-108.449
20
0
30
43.6356
0
VERTEX
8
0
10
-104.714
20
0
30
41.4553
0
VERTEX
8
0
10
-52.7622
20
0
30
17.0369
0
SEQEND
0
POLYLINE
8
V_F
10
0.0
20
0.0
30
0.0
70
9
66
1
0
VERTEX
8
0
10
66.6197
20
0
30
43.2702
0
VERTEX
8
0
10
93.39
20
0
30
27.8425
0
VERTEX
8
0
10
49.5512
20
0
30
54
0
SEQEND
0
POLYLINE
8
V_F
10
0.0
20
0.0
30
0.0
70
9
66
1
0
VERTEX
8
0
10
74.3923
20
0
30
35.1968
0
VERTEX
8
0
10
87.047
20
0
30
12.8461
0
VERTEX
8
0
10
90.9968
20
0
30
22.7418
0
SEQEND
0
POLYLINE
8
V_F
10
0.0
20
0.0
30
0.0
70
9
66
1
0
VERTEX
8
0
10
-108.449
20
0
30
43.6356
0
VERTEX
8
0
10
-52.7622
20
0
30
17.0369
0
VERTEX
8
0
10
-126.039
20
0
30
54
0
SEQEND
0
POLYLINE
8
V_F
10
0.0
20
0.0
30
0.0
70
9
66
1
0
VERTEX
8
0
10
62.5692
20
0
30
45.4041
0
VERTEX
8
0
10
66.6197
20
0
30
43.2702
0
VERTEX
8
0
10
49.5512
20
0
30
54
0
SEQEND
0
POLYLINE
8
V_F
10
0.0
20
0.0
30
0.0
70
9
66
1
0
VERTEX
8
0
10
90.9968
20
0
30
22.7418
0
VERTEX
8
0
10
70.592
20
0
30
40.1548
0
VERTEX
8
0
10
72.9672
20
0
30
37.6087
0
SEQEND
0
POLYLINE
8
V_F
10
0.0
20
0.0
30
0.0
70
9
66
1
0
VERTEX
8
0
10
72.9672
20
0
30
37.6087
0
VERTEX
8
0
10
74.3923
20
0
30
35.1968
0
VERTEX
8
0
10
90.9968
20
0
30
22.7418
0
SEQEND
0
POLYLINE
8
V_F
10
0.0
20
0.0
30
0.0
70
9
66
1
0
VERTEX
8
0
10
-112.83
20
0
30
45.5982
0
VERTEX
8
0
10
-108.449
20
0
30
43.6356
0
VERTEX
8
0
10
-126.039
20
0
30
54
0
SEQEND
0
POLYLINE
8
V_F
10
0.0
20
0.0
30
0.0
70
9
66
1
0
VERTEX
8
0
10
58.4406
20
0
30
46.5564
0
VERTEX
8
0
10
62.5692
20
0
30
45.4041
0
VERTEX
8
0
10
49.5512
20
0
30
54
0
SEQEND
0
POLYLINE
8
V_F
10
0.0
20
0.0
30
0.0
70
9
66
1
0
VERTEX
8
0
10
-117.016
20
0
30
46.9093
0
VERTEX
8
0
10
-112.83
20
0
30
45.5982
0
VERTEX
8
0
10
-126.039
20
0
30
54
0
SEQEND
0
POLYLINE
8
V_F
10
0.0
20
0.0
30
0.0
70
9
66
1
0
VERTEX
8
0
10
51.33
20
0
30
47.7256
0
VERTEX
8
0
10
58.4406
20
0
30
46.5564
0
VERTEX
8
0
10
49.5512
20
0
30
54
0
SEQEND
0
POLYLINE
8
V_F
10
0.0
20
0.0
30
0.0
70
9
66
1
0
VERTEX
8
0
10
-126.039
20
0
30
54
0
VERTEX
8
0
10
-126.039
20
0
30
48
0
VERTEX
8
0
10
-121.008
20
0
30
47.5688
0
SEQEND
0
POLYLINE
8
V_F
10
0.0
20
0.0
30
0.0
70
9
66
1
0
VERTEX
8
0
10
-121.008
20
0
30
47.5688
0
VERTEX
8
0
10
-117.016
20
0
30
46.9093
0
VERTEX
8
0
10
-126.039
20
0
30
54
0
SEQEND
0
POLYLINE
8
V_F
10
0.0
20
0.0
30
0.0
70
9
66
1
0
VERTEX
8
0
10
49.5512
20
0
30
54
0
VERTEX
8
0
10
49.5512
20
0
30
48
0
VERTEX
8
0
10
50.7803
20
0
30
47.8129
0
SEQEND
0
POLYLINE
8
V_F
10
0.0
20
0.0
30
0.0
70
9
66
1
0
VERTEX
8
0
10
50.7803
20
0
30
47.8129
0
VERTEX
8
0
10
51.33
20
0
30
47.7256
0
VERTEX
8
0
10
49.5512
20
0
30
54
0
SEQEND
0
ENDSEC
0
EOF
