  0
SECTION
  2
HEADER
  9
$ACADVER
  1
AC1006
  9
$EXTMIN
 10
-3.277165
 20
2.991909
  9
$EXTMAX
 10
3.215976
 20
4.871654
  9
$LTSCALE
 40
0.000394
  9
$PDMODE
 70
    35
  9
$PDSIZE
 40
0.000315
  0
ENDSEC
  0
SECTION
  2
TABLES
  0
TABLE
  2
LTYPE
 70
     9
  0
LTYPE
  2
CONTINUOUS
 70
    64
  3
Solid line
 72
    65
 73
     0
 40
0.000000
  0
LTYPE
  2
DASHED
 70
    64
  3
__ __ __ __ __ __ __ __ __ __ __ __ __ __ __
 72
    65
 73
     2
 40
0.000003
 49
0.000002
 49
-0.000001
  0
LTYPE
  2
HIDDEN
 70
    64
  3
 _ _ _ _ _ _ _ _ _ _ _ _ _ _ _ _ _ _ _ _ _ _
 72
    65
 73
     2
 40
0.000001
 49
0.000001
 49
-0.000000
  0
LTYPE
  2
CENTER
 70
    64
  3
____ _ ____ _ ____ _ ____ _ ____ _ ____ _ ____
 72
    65
 73
     4
 40
0.000008
 49
0.000005
 49
-0.000001
 49
0.000001
 49
-0.000001
  0
LTYPE
  2
PHANTOM
 70
    64
  3
_____ _ _ _____ _ _ _____ _ _ _____ _ _ ____
 72
    65
 73
     6
 40
0.000010
 49
0.000005
 49
-0.000001
 49
0.000001
 49
-0.000001
 49
0.000001
 49
-0.000001
  0
LTYPE
  2
DOT
 70
    64
  3
...............................................
 72
    65
 73
     2
 40
0.000001
 49
0.000000
 49
-0.000001
  0
LTYPE
  2
DASHDOT
 70
    64
  3
__ . __ . __ . __ . __ . __ . __ . __ . __ . __
 72
    65
 73
     4
 40
0.000004
 49
0.000002
 49
-0.000001
 49
0.000000
 49
-0.000001
  0
LTYPE
  2
BORDER
 70
    64
  3
__ __ . __ __ . __ __ . __ __ . __ __ . __ __
 72
    65
 73
     6
 40
0.000007
 49
0.000002
 49
-0.000001
 49
0.000002
 49
-0.000001
 49
0.000000
 49
-0.000001
  0
LTYPE
  2
DIVIDE
 70
    64
  3
__ . . __ . . __ . . __ . . __ . . __ . . __
 72
    65
 73
     6
 40
0.000005
 49
0.000002
 49
-0.000001
 49
0.000000
 49
-0.000001
 49
0.000000
 49
-0.000001
  0
LTYPE
  2
DOTDOT
 70
    64
  3
 . .  . .  . .  . .  . .  . . 
 72
    65
 73
     5
 40
0.000002
 49
-0.000001
 49
0.000000
 49
-0.000001
 49
0.000000
 49
-0.000001
  0
ENDTAB
  0
TABLE
  2
STYLE
 70
     2
  0
STYLE
 70
     0
  2
SN0
 40
0.000000
 41
0.000004
 50
0.000000
 71
     0
 42
0.000000
  3
AvantGarde Bk BT
  0
STYLE
 70
    68
  2
SV0
 40
0.000000
 41
0.000004
 50
0.000000
 71
     0
 42
0.000000
  3
AvantGarde Bk BT
  0
ENDTAB
  0
TABLE
  2
LAYER
 70
     6
  0
LAYER
  2
FOREGROUND
 70
    64
 62
     7
  6
CONTINUOUS
  0
LAYER
  2
BACKGROUND
 70
    65
 62
    -7
  6
CONTINUOUS
  0
LAYER
  2
EBENE_1
 70
    64
 62
     7
  6
CONTINUOUS
  0
LAYER
  2
GEO0BEMA
 70
    64
 62
     7
  6
CONTINUOUS
  0
LAYER
  2
0O0RAH
 70
    64
 62
     7
  6
CONTINUOUS
  0
LAYER
  2
0O0ZEIT
 70
    64
 62
     7
  6
CONTINUOUS
  0
ENDTAB
  0
ENDSEC
  0
SECTION
  2
ENTITIES
  0
POLYLINE
  8
EBENE_1
  6
CONTINUOUS
 66
     1
 40
0.003000
 41
0.003000
  0
VERTEX
  8
EBENE_1
  6
CONTINUOUS
 10
-1.726295
 20
4.447366
  0
VERTEX
  8
EBENE_1
  6
CONTINUOUS
 10
-1.726295
 20
4.336335
  0
SEQEND
  8
0
  0
POLYLINE
  8
EBENE_1
  6
CONTINUOUS
 66
     1
 40
0.003000
 41
0.003000
  0
VERTEX
  8
EBENE_1
  6
CONTINUOUS
 10
-1.726295
 20
4.447366
  0
VERTEX
  8
EBENE_1
  6
CONTINUOUS
 10
-1.726295
 20
4.336335
  0
SEQEND
  8
0
  0
POLYLINE
  8
EBENE_1
 62
     3
  6
DASHDOT
 66
     1
 40
0.003000
 41
0.003000
  0
VERTEX
  8
EBENE_1
 62
     3
  6
DASHDOT
 10
-1.559756
 20
4.308579
  0
VERTEX
  8
EBENE_1
 62
     3
  6
DASHDOT
 10
-1.559756
 20
4.475126
  0
SEQEND
  8
0
  0
POLYLINE
  8
EBENE_1
 62
     3
  6
DASHDOT
 66
     1
 40
0.003000
 41
0.003000
  0
VERTEX
  8
EBENE_1
 62
     3
  6
DASHDOT
 10
-1.559756
 20
4.308579
  0
VERTEX
  8
EBENE_1
 62
     3
  6
DASHDOT
 10
-1.559756
 20
4.475126
  0
SEQEND
  8
0
  0
POLYLINE
  8
EBENE_1
  6
CONTINUOUS
 66
     1
 40
0.003000
 41
0.003000
  0
VERTEX
  8
EBENE_1
  6
CONTINUOUS
 10
-1.559756
 20
4.475126
  0
VERTEX
  8
EBENE_1
  6
CONTINUOUS
 10
-1.448724
 20
4.475126
  0
SEQEND
  8
0
  0
POLYLINE
  8
EBENE_1
  6
CONTINUOUS
 66
     1
 40
0.003000
 41
0.003000
  0
VERTEX
  8
EBENE_1
  6
CONTINUOUS
 10
-1.559756
 20
4.475126
  0
VERTEX
  8
EBENE_1
  6
CONTINUOUS
 10
-1.448724
 20
4.475126
  0
SEQEND
  8
0
  0
POLYLINE
  8
EBENE_1
  6
CONTINUOUS
 66
     1
 40
0.003000
 41
0.003000
  0
VERTEX
  8
EBENE_1
  6
CONTINUOUS
 10
-1.559756
 20
4.308579
  0
VERTEX
  8
EBENE_1
  6
CONTINUOUS
 10
-1.448724
 20
4.308579
  0
SEQEND
  8
0
  0
POLYLINE
  8
EBENE_1
  6
CONTINUOUS
 66
     1
 40
0.003000
 41
0.003000
  0
VERTEX
  8
EBENE_1
  6
CONTINUOUS
 10
-1.559756
 20
4.308579
  0
VERTEX
  8
EBENE_1
  6
CONTINUOUS
 10
-1.448724
 20
4.308579
  0
SEQEND
  8
0
  0
POLYLINE
  8
EBENE_1
  6
CONTINUOUS
 66
     1
 40
0.003000
 41
0.003000
  0
VERTEX
  8
EBENE_1
  6
CONTINUOUS
 10
-1.587512
 20
4.447366
  0
VERTEX
  8
EBENE_1
  6
CONTINUOUS
 10
-1.559756
 20
4.475126
  0
SEQEND
  8
0
  0
POLYLINE
  8
EBENE_1
  6
CONTINUOUS
 66
     1
 40
0.003000
 41
0.003000
  0
VERTEX
  8
EBENE_1
  6
CONTINUOUS
 10
-1.587512
 20
4.447366
  0
VERTEX
  8
EBENE_1
  6
CONTINUOUS
 10
-1.559756
 20
4.475126
  0
SEQEND
  8
0
  0
POLYLINE
  8
EBENE_1
  6
CONTINUOUS
 66
     1
 40
0.003000
 41
0.003000
  0
VERTEX
  8
EBENE_1
  6
CONTINUOUS
 10
-1.587512
 20
4.336335
  0
VERTEX
  8
EBENE_1
  6
CONTINUOUS
 10
-1.559756
 20
4.308579
  0
SEQEND
  8
0
  0
POLYLINE
  8
EBENE_1
  6
CONTINUOUS
 66
     1
 40
0.003000
 41
0.003000
  0
VERTEX
  8
EBENE_1
  6
CONTINUOUS
 10
-1.587512
 20
4.336335
  0
VERTEX
  8
EBENE_1
  6
CONTINUOUS
 10
-1.559756
 20
4.308579
  0
SEQEND
  8
0
  0
POLYLINE
  8
EBENE_1
 62
     3
  6
DASHDOT
 66
     1
 40
0.003000
 41
0.003000
  0
VERTEX
  8
EBENE_1
 62
     3
  6
DASHDOT
 10
-1.587512
 20
4.447366
  0
VERTEX
  8
EBENE_1
 62
     3
  6
DASHDOT
 10
-1.587512
 20
4.336335
  0
SEQEND
  8
0
  0
POLYLINE
  8
EBENE_1
 62
     3
  6
DASHDOT
 66
     1
 40
0.003000
 41
0.003000
  0
VERTEX
  8
EBENE_1
 62
     3
  6
DASHDOT
 10
-1.587512
 20
4.447366
  0
VERTEX
  8
EBENE_1
 62
     3
  6
DASHDOT
 10
-1.587512
 20
4.336335
  0
SEQEND
  8
0
  0
POLYLINE
  8
EBENE_1
 62
     7
  6
CONTINUOUS
 66
     1
 40
0.003000
 41
0.003000
  0
VERTEX
  8
EBENE_1
 62
     7
  6
CONTINUOUS
 10
1.077236
 20
4.475031
  0
VERTEX
  8
EBENE_1
 62
     7
  6
CONTINUOUS
 10
1.087041
 20
4.460494
  0
VERTEX
  8
EBENE_1
 62
     7
  6
CONTINUOUS
 10
1.101500
 20
4.450856
  0
VERTEX
  8
EBENE_1
 62
     7
  6
CONTINUOUS
 10
1.118819
 20
4.447366
  0
SEQEND
  8
0
  0
POLYLINE
  8
EBENE_1
 62
     7
  6
CONTINUOUS
 66
     1
 40
0.003000
 41
0.003000
  0
VERTEX
  8
EBENE_1
 62
     7
  6
CONTINUOUS
 10
1.118819
 20
4.447366
  0
VERTEX
  8
EBENE_1
 62
     7
  6
CONTINUOUS
 10
1.136138
 20
4.450902
  0
VERTEX
  8
EBENE_1
 62
     7
  6
CONTINUOUS
 10
1.150596
 20
4.460623
  0
VERTEX
  8
EBENE_1
 62
     7
  6
CONTINUOUS
 10
1.160398
 20
4.475201
  0
SEQEND
  8
0
  0
POLYLINE
  8
EBENE_1
  6
CONTINUOUS
 66
     1
 40
0.003000
 41
0.003000
  0
VERTEX
  8
EBENE_1
  6
CONTINUOUS
 10
1.077236
 20
4.475031
  0
VERTEX
  8
EBENE_1
  6
CONTINUOUS
 10
1.087041
 20
4.460494
  0
VERTEX
  8
EBENE_1
  6
CONTINUOUS
 10
1.101500
 20
4.450856
  0
VERTEX
  8
EBENE_1
  6
CONTINUOUS
 10
1.118819
 20
4.447366
  0
SEQEND
  8
0
  0
POLYLINE
  8
EBENE_1
  6
CONTINUOUS
 66
     1
 40
0.003000
 41
0.003000
  0
VERTEX
  8
EBENE_1
  6
CONTINUOUS
 10
1.118819
 20
4.447366
  0
VERTEX
  8
EBENE_1
  6
CONTINUOUS
 10
1.136138
 20
4.450902
  0
VERTEX
  8
EBENE_1
  6
CONTINUOUS
 10
1.150596
 20
4.460623
  0
VERTEX
  8
EBENE_1
  6
CONTINUOUS
 10
1.160398
 20
4.475201
  0
SEQEND
  8
0
  0
POLYLINE
  8
EBENE_1
 62
     7
  6
CONTINUOUS
 66
     1
 40
0.003000
 41
0.003000
  0
VERTEX
  8
EBENE_1
 62
     7
  6
CONTINUOUS
 10
1.160398
 20
4.308496
  0
VERTEX
  8
EBENE_1
 62
     7
  6
CONTINUOUS
 10
1.150596
 20
4.323075
  0
VERTEX
  8
EBENE_1
 62
     7
  6
CONTINUOUS
 10
1.136138
 20
4.332798
  0
VERTEX
  8
EBENE_1
 62
     7
  6
CONTINUOUS
 10
1.118819
 20
4.336335
  0
SEQEND
  8
0
  0
POLYLINE
  8
EBENE_1
 62
     7
  6
CONTINUOUS
 66
     1
 40
0.003000
 41
0.003000
  0
VERTEX
  8
EBENE_1
 62
     7
  6
CONTINUOUS
 10
1.118819
 20
4.336335
  0
VERTEX
  8
EBENE_1
 62
     7
  6
CONTINUOUS
 10
1.101500
 20
4.332798
  0
VERTEX
  8
EBENE_1
 62
     7
  6
CONTINUOUS
 10
1.087041
 20
4.323075
  0
VERTEX
  8
EBENE_1
 62
     7
  6
CONTINUOUS
 10
1.077236
 20
4.308496
  0
SEQEND
  8
0
  0
POLYLINE
  8
EBENE_1
  6
CONTINUOUS
 66
     1
 40
0.003000
 41
0.003000
  0
VERTEX
  8
EBENE_1
  6
CONTINUOUS
 10
1.160398
 20
4.308496
  0
VERTEX
  8
EBENE_1
  6
CONTINUOUS
 10
1.150596
 20
4.323075
  0
VERTEX
  8
EBENE_1
  6
CONTINUOUS
 10
1.136138
 20
4.332798
  0
VERTEX
  8
EBENE_1
  6
CONTINUOUS
 10
1.118819
 20
4.336335
  0
SEQEND
  8
0
  0
POLYLINE
  8
EBENE_1
  6
CONTINUOUS
 66
     1
 40
0.003000
 41
0.003000
  0
VERTEX
  8
EBENE_1
  6
CONTINUOUS
 10
1.118819
 20
4.336335
  0
VERTEX
  8
EBENE_1
  6
CONTINUOUS
 10
1.101500
 20
4.332798
  0
VERTEX
  8
EBENE_1
  6
CONTINUOUS
 10
1.087041
 20
4.323075
  0
VERTEX
  8
EBENE_1
  6
CONTINUOUS
 10
1.077236
 20
4.308496
  0
SEQEND
  8
0
  0
POLYLINE
  8
EBENE_1
  6
CONTINUOUS
 66
     1
 40
0.003000
 41
0.003000
  0
VERTEX
  8
EBENE_1
  6
CONTINUOUS
 10
-1.448724
 20
4.475126
  0
VERTEX
  8
EBENE_1
  6
CONTINUOUS
 10
-1.448724
 20
4.308579
  0
SEQEND
  8
0
  0
POLYLINE
  8
EBENE_1
  6
CONTINUOUS
 66
     1
 40
0.003000
 41
0.003000
  0
VERTEX
  8
EBENE_1
  6
CONTINUOUS
 10
-1.448724
 20
4.475126
  0
VERTEX
  8
EBENE_1
  6
CONTINUOUS
 10
-1.448724
 20
4.308579
  0
SEQEND
  8
0
  0
POLYLINE
  8
EBENE_1
  6
CONTINUOUS
 66
     1
 40
0.003000
 41
0.003000
  0
VERTEX
  8
EBENE_1
  6
CONTINUOUS
 10
-1.726295
 20
4.447366
  0
VERTEX
  8
EBENE_1
  6
CONTINUOUS
 10
-1.587512
 20
4.447366
  0
SEQEND
  8
0
  0
POLYLINE
  8
EBENE_1
  6
CONTINUOUS
 66
     1
 40
0.003000
 41
0.003000
  0
VERTEX
  8
EBENE_1
  6
CONTINUOUS
 10
-1.726295
 20
4.447366
  0
VERTEX
  8
EBENE_1
  6
CONTINUOUS
 10
-1.587512
 20
4.447366
  0
SEQEND
  8
0
  0
POLYLINE
  8
EBENE_1
  6
CONTINUOUS
 66
     1
 40
0.003000
 41
0.003000
  0
VERTEX
  8
EBENE_1
  6
CONTINUOUS
 10
-1.726295
 20
4.336335
  0
VERTEX
  8
EBENE_1
  6
CONTINUOUS
 10
-1.587512
 20
4.336335
  0
SEQEND
  8
0
  0
POLYLINE
  8
EBENE_1
  6
CONTINUOUS
 66
     1
 40
0.003000
 41
0.003000
  0
VERTEX
  8
EBENE_1
  6
CONTINUOUS
 10
-1.726295
 20
4.336335
  0
VERTEX
  8
EBENE_1
  6
CONTINUOUS
 10
-1.587512
 20
4.336335
  0
SEQEND
  8
0
  0
POLYLINE
  8
EBENE_1
  6
CONTINUOUS
 66
     1
 40
0.003000
 41
0.003000
  0
VERTEX
  8
EBENE_1
  6
CONTINUOUS
 10
1.160445
 20
4.308579
  0
VERTEX
  8
EBENE_1
  6
CONTINUOUS
 10
1.160445
 20
4.475126
  0
SEQEND
  8
0
  0
POLYLINE
  8
EBENE_1
  6
CONTINUOUS
 66
     1
 40
0.003000
 41
0.003000
  0
VERTEX
  8
EBENE_1
  6
CONTINUOUS
 10
1.160445
 20
4.308579
  0
VERTEX
  8
EBENE_1
  6
CONTINUOUS
 10
1.160445
 20
4.475126
  0
SEQEND
  8
0
  0
POLYLINE
  8
EBENE_1
  6
CONTINUOUS
 66
     1
 40
0.003000
 41
0.003000
  0
VERTEX
  8
EBENE_1
  6
CONTINUOUS
 10
1.077173
 20
4.308579
  0
VERTEX
  8
EBENE_1
  6
CONTINUOUS
 10
1.077173
 20
4.475126
  0
SEQEND
  8
0
  0
POLYLINE
  8
EBENE_1
  6
CONTINUOUS
 66
     1
 40
0.003000
 41
0.003000
  0
VERTEX
  8
EBENE_1
  6
CONTINUOUS
 10
1.077173
 20
4.308579
  0
VERTEX
  8
EBENE_1
  6
CONTINUOUS
 10
1.077173
 20
4.475126
  0
SEQEND
  8
0
  0
POLYLINE
  8
EBENE_1
 62
     2
  6
CONTINUOUS
 66
     1
 40
0.003000
 41
0.003000
 70
     1
  0
VERTEX
  8
EBENE_1
 62
     2
  6
CONTINUOUS
 10
1.087091
 20
3.051142
  0
VERTEX
  8
EBENE_1
 62
     2
  6
CONTINUOUS
 10
1.087091
 20
3.011980
  0
VERTEX
  8
EBENE_1
 62
     2
  6
CONTINUOUS
 10
0.938390
 20
3.031563
  0
SEQEND
  8
0
  0
POLYLINE
  8
EBENE_1
 62
     2
  6
CONTINUOUS
 66
     1
 40
0.003000
 41
0.003000
 70
     1
  0
VERTEX
  8
EBENE_1
 62
     2
  6
CONTINUOUS
 10
1.087091
 20
3.051142
  0
VERTEX
  8
EBENE_1
 62
     2
  6
CONTINUOUS
 10
1.087091
 20
3.011980
  0
VERTEX
  8
EBENE_1
 62
     2
  6
CONTINUOUS
 10
0.938390
 20
3.031563
  0
SEQEND
  8
0
  0
POLYLINE
  8
EBENE_1
 62
     2
  6
CONTINUOUS
 66
     1
 40
0.003000
 41
0.003000
 70
     1
  0
VERTEX
  8
EBENE_1
 62
     2
  6
CONTINUOUS
 10
3.065787
 20
3.051142
  0
VERTEX
  8
EBENE_1
 62
     2
  6
CONTINUOUS
 10
3.065787
 20
3.011980
  0
VERTEX
  8
EBENE_1
 62
     2
  6
CONTINUOUS
 10
3.214476
 20
3.031563
  0
SEQEND
  8
0
  0
POLYLINE
  8
EBENE_1
 62
     2
  6
CONTINUOUS
 66
     1
 40
0.003000
 41
0.003000
 70
     1
  0
VERTEX
  8
EBENE_1
 62
     2
  6
CONTINUOUS
 10
3.065787
 20
3.051142
  0
VERTEX
  8
EBENE_1
 62
     2
  6
CONTINUOUS
 10
3.065787
 20
3.011980
  0
VERTEX
  8
EBENE_1
 62
     2
  6
CONTINUOUS
 10
3.214476
 20
3.031563
  0
SEQEND
  8
0
  0
POLYLINE
  8
EBENE_1
 62
     2
  6
CONTINUOUS
 66
     1
 40
0.003000
 41
0.003000
  0
VERTEX
  8
EBENE_1
 62
     2
  6
CONTINUOUS
 10
3.214476
 20
3.031563
  0
VERTEX
  8
EBENE_1
 62
     2
  6
CONTINUOUS
 10
0.938390
 20
3.031563
  0
SEQEND
  8
0
  0
POLYLINE
  8
EBENE_1
 62
     2
  6
CONTINUOUS
 66
     1
 40
0.003000
 41
0.003000
  0
VERTEX
  8
EBENE_1
 62
     2
  6
CONTINUOUS
 10
3.214476
 20
3.031563
  0
VERTEX
  8
EBENE_1
 62
     2
  6
CONTINUOUS
 10
0.938390
 20
3.031563
  0
SEQEND
  8
0
  0
TEXT
  8
EBENE_1
 10
2.058587
 20
3.104913
 40
0.144342
  1
L
 41
1.000000
  7
SN0
 71
     0
 72
     5
 11
2.126115
 21
3.104913
  0
POLYLINE
  8
EBENE_1
 62
     4
  6
CONTINUOUS
 66
     1
 40
0.003000
 41
0.003000
  0
VERTEX
  8
EBENE_1
 62
     4
  6
CONTINUOUS
 10
3.214476
 20
4.308579
  0
VERTEX
  8
EBENE_1
 62
     4
  6
CONTINUOUS
 10
3.214476
 20
2.991909
  0
SEQEND
  8
0
  0
POLYLINE
  8
EBENE_1
 62
     4
  6
CONTINUOUS
 66
     1
 40
0.003000
 41
0.003000
  0
VERTEX
  8
EBENE_1
 62
     4
  6
CONTINUOUS
 10
3.214476
 20
4.308579
  0
VERTEX
  8
EBENE_1
 62
     4
  6
CONTINUOUS
 10
3.214476
 20
2.991909
  0
SEQEND
  8
0
  0
POLYLINE
  8
EBENE_1
 62
     4
  6
CONTINUOUS
 66
     1
 40
0.003000
 41
0.003000
  0
VERTEX
  8
EBENE_1
 62
     4
  6
CONTINUOUS
 10
0.938390
 20
4.308579
  0
VERTEX
  8
EBENE_1
 62
     4
  6
CONTINUOUS
 10
0.938390
 20
2.991909
  0
SEQEND
  8
0
  0
POLYLINE
  8
EBENE_1
 62
     4
  6
CONTINUOUS
 66
     1
 40
0.003000
 41
0.003000
  0
VERTEX
  8
EBENE_1
 62
     4
  6
CONTINUOUS
 10
0.938390
 20
4.308579
  0
VERTEX
  8
EBENE_1
 62
     4
  6
CONTINUOUS
 10
0.938390
 20
2.991909
  0
SEQEND
  8
0
  0
POLYLINE
  8
EBENE_1
  6
CONTINUOUS
 66
     1
 40
0.003000
 41
0.003000
  0
VERTEX
  8
EBENE_1
  6
CONTINUOUS
 10
-2.668701
 20
4.509500
  0
VERTEX
  8
EBENE_1
  6
CONTINUOUS
 10
-2.671606
 20
4.476315
  0
SEQEND
  8
0
  0
POLYLINE
  8
EBENE_1
  6
CONTINUOUS
 66
     1
 40
0.003000
 41
0.003000
  0
VERTEX
  8
EBENE_1
  6
CONTINUOUS
 10
-2.668701
 20
4.509500
  0
VERTEX
  8
EBENE_1
  6
CONTINUOUS
 10
-2.671606
 20
4.476315
  0
SEQEND
  8
0
  0
POLYLINE
  8
EBENE_1
  6
CONTINUOUS
 66
     1
 40
0.003000
 41
0.003000
  0
VERTEX
  8
EBENE_1
  6
CONTINUOUS
 10
-2.946059
 20
4.524020
  0
VERTEX
  8
EBENE_1
  6
CONTINUOUS
 10
-2.669543
 20
4.499823
  0
SEQEND
  8
0
  0
POLYLINE
  8
EBENE_1
  6
CONTINUOUS
 66
     1
 40
0.003000
 41
0.003000
  0
VERTEX
  8
EBENE_1
  6
CONTINUOUS
 10
-2.946059
 20
4.524020
  0
VERTEX
  8
EBENE_1
  6
CONTINUOUS
 10
-2.669543
 20
4.499823
  0
SEQEND
  8
0
  0
POLYLINE
  8
EBENE_1
 62
     2
  6
CONTINUOUS
 66
     1
 40
0.003000
 41
0.003000
 70
     1
  0
VERTEX
  8
EBENE_1
 62
     2
  6
CONTINUOUS
 10
2.344240
 20
4.623823
  0
VERTEX
  8
EBENE_1
 62
     2
  6
CONTINUOUS
 10
2.383409
 20
4.623823
  0
VERTEX
  8
EBENE_1
 62
     2
  6
CONTINUOUS
 10
2.363823
 20
4.475126
  0
SEQEND
  8
0
  0
POLYLINE
  8
EBENE_1
 62
     2
  6
CONTINUOUS
 66
     1
 40
0.003000
 41
0.003000
 70
     1
  0
VERTEX
  8
EBENE_1
 62
     2
  6
CONTINUOUS
 10
2.344240
 20
4.623823
  0
VERTEX
  8
EBENE_1
 62
     2
  6
CONTINUOUS
 10
2.383409
 20
4.623823
  0
VERTEX
  8
EBENE_1
 62
     2
  6
CONTINUOUS
 10
2.363823
 20
4.475126
  0
SEQEND
  8
0
  0
POLYLINE
  8
EBENE_1
 62
     2
  6
CONTINUOUS
 66
     1
 40
0.003000
 41
0.003000
 70
     1
  0
VERTEX
  8
EBENE_1
 62
     2
  6
CONTINUOUS
 10
2.383409
 20
4.159882
  0
VERTEX
  8
EBENE_1
 62
     2
  6
CONTINUOUS
 10
2.344240
 20
4.159882
  0
VERTEX
  8
EBENE_1
 62
     2
  6
CONTINUOUS
 10
2.363823
 20
4.308579
  0
SEQEND
  8
0
  0
POLYLINE
  8
EBENE_1
 62
     2
  6
CONTINUOUS
 66
     1
 40
0.003000
 41
0.003000
 70
     1
  0
VERTEX
  8
EBENE_1
 62
     2
  6
CONTINUOUS
 10
2.383409
 20
4.159882
  0
VERTEX
  8
EBENE_1
 62
     2
  6
CONTINUOUS
 10
2.344240
 20
4.159882
  0
VERTEX
  8
EBENE_1
 62
     2
  6
CONTINUOUS
 10
2.363823
 20
4.308579
  0
SEQEND
  8
0
  0
TEXT
  8
EBENE_1
 10
2.290457
 20
3.918815
 40
0.144342
  1
ød
 50
90.000648
 41
1.000000
  7
SN0
 71
     0
 72
     5
 11
2.290457
 21
4.120752
  0
POLYLINE
  8
EBENE_1
 62
     2
  6
CONTINUOUS
 66
     1
 40
0.003000
 41
0.003000
  0
VERTEX
  8
EBENE_1
 62
     2
  6
CONTINUOUS
 10
2.363823
 20
4.475126
  0
VERTEX
  8
EBENE_1
 62
     2
  6
CONTINUOUS
 10
2.363823
 20
4.308579
  0
SEQEND
  8
0
  0
POLYLINE
  8
EBENE_1
 62
     2
  6
CONTINUOUS
 66
     1
 40
0.003000
 41
0.003000
  0
VERTEX
  8
EBENE_1
 62
     2
  6
CONTINUOUS
 10
2.363823
 20
4.475126
  0
VERTEX
  8
EBENE_1
 62
     2
  6
CONTINUOUS
 10
2.363823
 20
4.308579
  0
SEQEND
  8
0
  0
POLYLINE
  8
EBENE_1
 62
     2
  6
CONTINUOUS
 66
     1
 40
0.003000
 41
0.003000
  0
VERTEX
  8
EBENE_1
 62
     2
  6
CONTINUOUS
 10
2.363823
 20
4.871654
  0
VERTEX
  8
EBENE_1
 62
     2
  6
CONTINUOUS
 10
2.363823
 20
4.475126
  0
SEQEND
  8
0
  0
POLYLINE
  8
EBENE_1
 62
     2
  6
CONTINUOUS
 66
     1
 40
0.003000
 41
0.003000
  0
VERTEX
  8
EBENE_1
 62
     2
  6
CONTINUOUS
 10
2.363823
 20
4.871654
  0
VERTEX
  8
EBENE_1
 62
     2
  6
CONTINUOUS
 10
2.363823
 20
4.475126
  0
SEQEND
  8
0
  0
POLYLINE
  8
EBENE_1
 62
     2
  6
CONTINUOUS
 66
     1
 40
0.003000
 41
0.003000
  0
VERTEX
  8
EBENE_1
 62
     2
  6
CONTINUOUS
 10
2.363823
 20
3.825622
  0
VERTEX
  8
EBENE_1
 62
     2
  6
CONTINUOUS
 10
2.363823
 20
4.308579
  0
SEQEND
  8
0
  0
POLYLINE
  8
EBENE_1
 62
     2
  6
CONTINUOUS
 66
     1
 40
0.003000
 41
0.003000
  0
VERTEX
  8
EBENE_1
 62
     2
  6
CONTINUOUS
 10
2.363823
 20
3.825622
  0
VERTEX
  8
EBENE_1
 62
     2
  6
CONTINUOUS
 10
2.363823
 20
4.308579
  0
SEQEND
  8
0
  0
POLYLINE
  8
EBENE_1
  6
CONTINUOUS
 66
     1
 40
0.003000
 41
0.003000
  0
VERTEX
  8
EBENE_1
  6
CONTINUOUS
 10
-2.947272
 20
4.510189
  0
VERTEX
  8
EBENE_1
  6
CONTINUOUS
 10
-2.670752
 20
4.485992
  0
SEQEND
  8
0
  0
POLYLINE
  8
EBENE_1
  6
CONTINUOUS
 66
     1
 40
0.003000
 41
0.003000
  0
VERTEX
  8
EBENE_1
  6
CONTINUOUS
 10
-2.947272
 20
4.510189
  0
VERTEX
  8
EBENE_1
  6
CONTINUOUS
 10
-2.670752
 20
4.485992
  0
SEQEND
  8
0
  0
POLYLINE
  8
EBENE_1
  6
CONTINUOUS
 66
     1
 40
0.003000
 41
0.003000
  0
VERTEX
  8
EBENE_1
  6
CONTINUOUS
 10
1.160445
 20
4.475126
  0
VERTEX
  8
EBENE_1
  6
CONTINUOUS
 10
3.214476
 20
4.475126
  0
SEQEND
  8
0
  0
POLYLINE
  8
EBENE_1
  6
CONTINUOUS
 66
     1
 40
0.003000
 41
0.003000
  0
VERTEX
  8
EBENE_1
  6
CONTINUOUS
 10
1.160445
 20
4.475126
  0
VERTEX
  8
EBENE_1
  6
CONTINUOUS
 10
3.214476
 20
4.475126
  0
SEQEND
  8
0
  0
POLYLINE
  8
EBENE_1
  6
CONTINUOUS
 66
     1
 40
0.003000
 41
0.003000
  0
VERTEX
  8
EBENE_1
  6
CONTINUOUS
 10
3.214476
 20
4.308579
  0
VERTEX
  8
EBENE_1
  6
CONTINUOUS
 10
1.160445
 20
4.308579
  0
SEQEND
  8
0
  0
POLYLINE
  8
EBENE_1
  6
CONTINUOUS
 66
     1
 40
0.003000
 41
0.003000
  0
VERTEX
  8
EBENE_1
  6
CONTINUOUS
 10
3.214476
 20
4.308579
  0
VERTEX
  8
EBENE_1
  6
CONTINUOUS
 10
1.160445
 20
4.308579
  0
SEQEND
  8
0
  0
POLYLINE
  8
EBENE_1
  6
CONTINUOUS
 66
     1
 40
0.003000
 41
0.003000
  0
VERTEX
  8
EBENE_1
  6
CONTINUOUS
 10
3.214476
 20
4.475126
  0
VERTEX
  8
EBENE_1
  6
CONTINUOUS
 10
3.214476
 20
4.308579
  0
SEQEND
  8
0
  0
POLYLINE
  8
EBENE_1
  6
CONTINUOUS
 66
     1
 40
0.003000
 41
0.003000
  0
VERTEX
  8
EBENE_1
  6
CONTINUOUS
 10
3.214476
 20
4.475126
  0
VERTEX
  8
EBENE_1
  6
CONTINUOUS
 10
3.214476
 20
4.308579
  0
SEQEND
  8
0
  0
POLYLINE
  8
EBENE_1
  6
CONTINUOUS
 66
     1
 40
0.003000
 41
0.003000
  0
VERTEX
  8
EBENE_1
  6
CONTINUOUS
 10
0.938390
 20
4.475126
  0
VERTEX
  8
EBENE_1
  6
CONTINUOUS
 10
0.938390
 20
4.308579
  0
SEQEND
  8
0
  0
POLYLINE
  8
EBENE_1
  6
CONTINUOUS
 66
     1
 40
0.003000
 41
0.003000
  0
VERTEX
  8
EBENE_1
  6
CONTINUOUS
 10
0.938390
 20
4.475126
  0
VERTEX
  8
EBENE_1
  6
CONTINUOUS
 10
0.938390
 20
4.308579
  0
SEQEND
  8
0
  0
POLYLINE
  8
EBENE_1
  6
CONTINUOUS
 66
     1
 40
0.003000
 41
0.003000
  0
VERTEX
  8
EBENE_1
  6
CONTINUOUS
 10
0.938390
 20
4.475126
  0
VERTEX
  8
EBENE_1
  6
CONTINUOUS
 10
1.077173
 20
4.475126
  0
SEQEND
  8
0
  0
POLYLINE
  8
EBENE_1
  6
CONTINUOUS
 66
     1
 40
0.003000
 41
0.003000
  0
VERTEX
  8
EBENE_1
  6
CONTINUOUS
 10
0.938390
 20
4.475126
  0
VERTEX
  8
EBENE_1
  6
CONTINUOUS
 10
1.077173
 20
4.475126
  0
SEQEND
  8
0
  0
POLYLINE
  8
EBENE_1
  6
CONTINUOUS
 66
     1
 40
0.003000
 41
0.003000
  0
VERTEX
  8
EBENE_1
  6
CONTINUOUS
 10
0.938390
 20
4.308579
  0
VERTEX
  8
EBENE_1
  6
CONTINUOUS
 10
1.077173
 20
4.308579
  0
SEQEND
  8
0
  0
POLYLINE
  8
EBENE_1
  6
CONTINUOUS
 66
     1
 40
0.003000
 41
0.003000
  0
VERTEX
  8
EBENE_1
  6
CONTINUOUS
 10
0.938390
 20
4.308579
  0
VERTEX
  8
EBENE_1
  6
CONTINUOUS
 10
1.077173
 20
4.308579
  0
SEQEND
  8
0
  0
POLYLINE
  8
EBENE_1
 62
     4
  6
CONTINUOUS
 66
     1
 40
0.003000
 41
0.003000
  0
VERTEX
  8
EBENE_1
 62
     4
  6
CONTINUOUS
 10
-0.226846
 20
4.343280
  0
VERTEX
  8
EBENE_1
 62
     4
  6
CONTINUOUS
 10
-0.282925
 20
4.399350
  0
SEQEND
  8
0
  0
POLYLINE
  8
EBENE_1
 62
     4
  6
CONTINUOUS
 66
     1
 40
0.003000
 41
0.003000
  0
VERTEX
  8
EBENE_1
 62
     4
  6
CONTINUOUS
 10
-0.226846
 20
4.343280
  0
VERTEX
  8
EBENE_1
 62
     4
  6
CONTINUOUS
 10
-0.282925
 20
4.399350
  0
SEQEND
  8
0
  0
POLYLINE
  8
EBENE_1
 62
     4
  6
CONTINUOUS
 66
     1
 40
0.003000
 41
0.003000
  0
VERTEX
  8
EBENE_1
 62
     4
  6
CONTINUOUS
 10
-0.267913
 20
4.440429
  0
VERTEX
  8
EBENE_1
 62
     4
  6
CONTINUOUS
 10
-0.170768
 20
4.343280
  0
SEQEND
  8
0
  0
POLYLINE
  8
EBENE_1
 62
     4
  6
CONTINUOUS
 66
     1
 40
0.003000
 41
0.003000
  0
VERTEX
  8
EBENE_1
 62
     4
  6
CONTINUOUS
 10
-0.267913
 20
4.440429
  0
VERTEX
  8
EBENE_1
 62
     4
  6
CONTINUOUS
 10
-0.170768
 20
4.343280
  0
SEQEND
  8
0
  0
POLYLINE
  8
EBENE_1
 62
     4
  6
CONTINUOUS
 66
     1
 40
0.003000
 41
0.003000
  0
VERTEX
  8
EBENE_1
 62
     4
  6
CONTINUOUS
 10
-0.114689
 20
4.343280
  0
VERTEX
  8
EBENE_1
 62
     4
  6
CONTINUOUS
 10
-0.211843
 20
4.440429
  0
SEQEND
  8
0
  0
POLYLINE
  8
EBENE_1
 62
     4
  6
CONTINUOUS
 66
     1
 40
0.003000
 41
0.003000
  0
VERTEX
  8
EBENE_1
 62
     4
  6
CONTINUOUS
 10
-0.114689
 20
4.343280
  0
VERTEX
  8
EBENE_1
 62
     4
  6
CONTINUOUS
 10
-0.211843
 20
4.440429
  0
SEQEND
  8
0
  0
POLYLINE
  8
EBENE_1
 62
     4
  6
CONTINUOUS
 66
     1
 40
0.003000
 41
0.003000
  0
VERTEX
  8
EBENE_1
 62
     4
  6
CONTINUOUS
 10
-0.155760
 20
4.440429
  0
VERTEX
  8
EBENE_1
 62
     4
  6
CONTINUOUS
 10
-0.058614
 20
4.343272
  0
SEQEND
  8
0
  0
POLYLINE
  8
EBENE_1
 62
     4
  6
CONTINUOUS
 66
     1
 40
0.003000
 41
0.003000
  0
VERTEX
  8
EBENE_1
 62
     4
  6
CONTINUOUS
 10
-0.155760
 20
4.440429
  0
VERTEX
  8
EBENE_1
 62
     4
  6
CONTINUOUS
 10
-0.058614
 20
4.343272
  0
SEQEND
  8
0
  0
POLYLINE
  8
EBENE_1
 62
     4
  6
CONTINUOUS
 66
     1
 40
0.003000
 41
0.003000
  0
VERTEX
  8
EBENE_1
 62
     4
  6
CONTINUOUS
 10
-0.002535
 20
4.343272
  0
VERTEX
  8
EBENE_1
 62
     4
  6
CONTINUOUS
 10
-0.099693
 20
4.440429
  0
SEQEND
  8
0
  0
POLYLINE
  8
EBENE_1
 62
     4
  6
CONTINUOUS
 66
     1
 40
0.003000
 41
0.003000
  0
VERTEX
  8
EBENE_1
 62
     4
  6
CONTINUOUS
 10
-0.002535
 20
4.343272
  0
VERTEX
  8
EBENE_1
 62
     4
  6
CONTINUOUS
 10
-0.099693
 20
4.440429
  0
SEQEND
  8
0
  0
POLYLINE
  8
EBENE_1
 62
     4
  6
CONTINUOUS
 66
     1
 40
0.003000
 41
0.003000
  0
VERTEX
  8
EBENE_1
 62
     4
  6
CONTINUOUS
 10
-0.043610
 20
4.440429
  0
VERTEX
  8
EBENE_1
 62
     4
  6
CONTINUOUS
 10
0.053539
 20
4.343272
  0
SEQEND
  8
0
  0
POLYLINE
  8
EBENE_1
 62
     4
  6
CONTINUOUS
 66
     1
 40
0.003000
 41
0.003000
  0
VERTEX
  8
EBENE_1
 62
     4
  6
CONTINUOUS
 10
-0.043610
 20
4.440429
  0
VERTEX
  8
EBENE_1
 62
     4
  6
CONTINUOUS
 10
0.053539
 20
4.343272
  0
SEQEND
  8
0
  0
POLYLINE
  8
EBENE_1
 62
     4
  6
CONTINUOUS
 66
     1
 40
0.003000
 41
0.003000
  0
VERTEX
  8
EBENE_1
 62
     4
  6
CONTINUOUS
 10
0.109618
 20
4.343272
  0
VERTEX
  8
EBENE_1
 62
     4
  6
CONTINUOUS
 10
0.012469
 20
4.440429
  0
SEQEND
  8
0
  0
POLYLINE
  8
EBENE_1
 62
     4
  6
CONTINUOUS
 66
     1
 40
0.003000
 41
0.003000
  0
VERTEX
  8
EBENE_1
 62
     4
  6
CONTINUOUS
 10
0.109618
 20
4.343272
  0
VERTEX
  8
EBENE_1
 62
     4
  6
CONTINUOUS
 10
0.012469
 20
4.440429
  0
SEQEND
  8
0
  0
POLYLINE
  8
EBENE_1
 62
     4
  6
CONTINUOUS
 66
     1
 40
0.003000
 41
0.003000
  0
VERTEX
  8
EBENE_1
 62
     4
  6
CONTINUOUS
 10
0.068551
 20
4.440429
  0
VERTEX
  8
EBENE_1
 62
     4
  6
CONTINUOUS
 10
0.165693
 20
4.343272
  0
SEQEND
  8
0
  0
POLYLINE
  8
EBENE_1
 62
     4
  6
CONTINUOUS
 66
     1
 40
0.003000
 41
0.003000
  0
VERTEX
  8
EBENE_1
 62
     4
  6
CONTINUOUS
 10
0.068551
 20
4.440429
  0
VERTEX
  8
EBENE_1
 62
     4
  6
CONTINUOUS
 10
0.165693
 20
4.343272
  0
SEQEND
  8
0
  0
POLYLINE
  8
EBENE_1
 62
     4
  6
CONTINUOUS
 66
     1
 40
0.003000
 41
0.003000
  0
VERTEX
  8
EBENE_1
 62
     4
  6
CONTINUOUS
 10
0.221776
 20
4.343272
  0
VERTEX
  8
EBENE_1
 62
     4
  6
CONTINUOUS
 10
0.124626
 20
4.440429
  0
SEQEND
  8
0
  0
POLYLINE
  8
EBENE_1
 62
     4
  6
CONTINUOUS
 66
     1
 40
0.003000
 41
0.003000
  0
VERTEX
  8
EBENE_1
 62
     4
  6
CONTINUOUS
 10
0.221776
 20
4.343272
  0
VERTEX
  8
EBENE_1
 62
     4
  6
CONTINUOUS
 10
0.124626
 20
4.440429
  0
SEQEND
  8
0
  0
POLYLINE
  8
EBENE_1
 62
     4
  6
CONTINUOUS
 66
     1
 40
0.003000
 41
0.003000
  0
VERTEX
  8
EBENE_1
 62
     4
  6
CONTINUOUS
 10
0.180697
 20
4.440429
  0
VERTEX
  8
EBENE_1
 62
     4
  6
CONTINUOUS
 10
0.277854
 20
4.343272
  0
SEQEND
  8
0
  0
POLYLINE
  8
EBENE_1
 62
     4
  6
CONTINUOUS
 66
     1
 40
0.003000
 41
0.003000
  0
VERTEX
  8
EBENE_1
 62
     4
  6
CONTINUOUS
 10
0.180697
 20
4.440429
  0
VERTEX
  8
EBENE_1
 62
     4
  6
CONTINUOUS
 10
0.277854
 20
4.343272
  0
SEQEND
  8
0
  0
POLYLINE
  8
EBENE_1
 62
     4
  6
CONTINUOUS
 66
     1
 40
0.003000
 41
0.003000
  0
VERTEX
  8
EBENE_1
 62
     4
  6
CONTINUOUS
 10
0.333917
 20
4.343272
  0
VERTEX
  8
EBENE_1
 62
     4
  6
CONTINUOUS
 10
0.236776
 20
4.440429
  0
SEQEND
  8
0
  0
POLYLINE
  8
EBENE_1
 62
     4
  6
CONTINUOUS
 66
     1
 40
0.003000
 41
0.003000
  0
VERTEX
  8
EBENE_1
 62
     4
  6
CONTINUOUS
 10
0.333917
 20
4.343272
  0
VERTEX
  8
EBENE_1
 62
     4
  6
CONTINUOUS
 10
0.236776
 20
4.440429
  0
SEQEND
  8
0
  0
POLYLINE
  8
EBENE_1
 62
     4
  6
CONTINUOUS
 66
     1
 40
0.003000
 41
0.003000
  0
VERTEX
  8
EBENE_1
 62
     4
  6
CONTINUOUS
 10
0.292854
 20
4.440429
  0
VERTEX
  8
EBENE_1
 62
     4
  6
CONTINUOUS
 10
0.390008
 20
4.343272
  0
SEQEND
  8
0
  0
POLYLINE
  8
EBENE_1
 62
     4
  6
CONTINUOUS
 66
     1
 40
0.003000
 41
0.003000
  0
VERTEX
  8
EBENE_1
 62
     4
  6
CONTINUOUS
 10
0.292854
 20
4.440429
  0
VERTEX
  8
EBENE_1
 62
     4
  6
CONTINUOUS
 10
0.390008
 20
4.343272
  0
SEQEND
  8
0
  0
POLYLINE
  8
EBENE_1
 62
     4
  6
CONTINUOUS
 66
     1
 40
0.003000
 41
0.003000
  0
VERTEX
  8
EBENE_1
 62
     4
  6
CONTINUOUS
 10
0.446087
 20
4.343272
  0
VERTEX
  8
EBENE_1
 62
     4
  6
CONTINUOUS
 10
0.348929
 20
4.440429
  0
SEQEND
  8
0
  0
POLYLINE
  8
EBENE_1
 62
     4
  6
CONTINUOUS
 66
     1
 40
0.003000
 41
0.003000
  0
VERTEX
  8
EBENE_1
 62
     4
  6
CONTINUOUS
 10
0.446087
 20
4.343272
  0
VERTEX
  8
EBENE_1
 62
     4
  6
CONTINUOUS
 10
0.348929
 20
4.440429
  0
SEQEND
  8
0
  0
POLYLINE
  8
EBENE_1
 62
     4
  6
CONTINUOUS
 66
     1
 40
0.003000
 41
0.003000
  0
VERTEX
  8
EBENE_1
 62
     4
  6
CONTINUOUS
 10
0.405008
 20
4.440429
  0
VERTEX
  8
EBENE_1
 62
     4
  6
CONTINUOUS
 10
0.502157
 20
4.343272
  0
SEQEND
  8
0
  0
POLYLINE
  8
EBENE_1
 62
     4
  6
CONTINUOUS
 66
     1
 40
0.003000
 41
0.003000
  0
VERTEX
  8
EBENE_1
 62
     4
  6
CONTINUOUS
 10
0.405008
 20
4.440429
  0
VERTEX
  8
EBENE_1
 62
     4
  6
CONTINUOUS
 10
0.502157
 20
4.343272
  0
SEQEND
  8
0
  0
POLYLINE
  8
EBENE_1
 62
     4
  6
CONTINUOUS
 66
     1
 40
0.003000
 41
0.003000
  0
VERTEX
  8
EBENE_1
 62
     4
  6
CONTINUOUS
 10
0.558236
 20
4.343272
  0
VERTEX
  8
EBENE_1
 62
     4
  6
CONTINUOUS
 10
0.461091
 20
4.440429
  0
SEQEND
  8
0
  0
POLYLINE
  8
EBENE_1
 62
     4
  6
CONTINUOUS
 66
     1
 40
0.003000
 41
0.003000
  0
VERTEX
  8
EBENE_1
 62
     4
  6
CONTINUOUS
 10
0.558236
 20
4.343272
  0
VERTEX
  8
EBENE_1
 62
     4
  6
CONTINUOUS
 10
0.461091
 20
4.440429
  0
SEQEND
  8
0
  0
POLYLINE
  8
EBENE_1
 62
     4
  6
CONTINUOUS
 66
     1
 40
0.003000
 41
0.003000
  0
VERTEX
  8
EBENE_1
 62
     4
  6
CONTINUOUS
 10
0.517165
 20
4.440429
  0
VERTEX
  8
EBENE_1
 62
     4
  6
CONTINUOUS
 10
0.614315
 20
4.343272
  0
SEQEND
  8
0
  0
POLYLINE
  8
EBENE_1
 62
     4
  6
CONTINUOUS
 66
     1
 40
0.003000
 41
0.003000
  0
VERTEX
  8
EBENE_1
 62
     4
  6
CONTINUOUS
 10
0.517165
 20
4.440429
  0
VERTEX
  8
EBENE_1
 62
     4
  6
CONTINUOUS
 10
0.614315
 20
4.343272
  0
SEQEND
  8
0
  0
POLYLINE
  8
EBENE_1
 62
     4
  6
CONTINUOUS
 66
     1
 40
0.003000
 41
0.003000
  0
VERTEX
  8
EBENE_1
 62
     4
  6
CONTINUOUS
 10
0.670394
 20
4.343272
  0
VERTEX
  8
EBENE_1
 62
     4
  6
CONTINUOUS
 10
0.573248
 20
4.440429
  0
SEQEND
  8
0
  0
POLYLINE
  8
EBENE_1
 62
     4
  6
CONTINUOUS
 66
     1
 40
0.003000
 41
0.003000
  0
VERTEX
  8
EBENE_1
 62
     4
  6
CONTINUOUS
 10
0.670394
 20
4.343272
  0
VERTEX
  8
EBENE_1
 62
     4
  6
CONTINUOUS
 10
0.573248
 20
4.440429
  0
SEQEND
  8
0
  0
POLYLINE
  8
EBENE_1
 62
     4
  6
CONTINUOUS
 66
     1
 40
0.003000
 41
0.003000
  0
VERTEX
  8
EBENE_1
 62
     4
  6
CONTINUOUS
 10
0.629323
 20
4.440429
  0
VERTEX
  8
EBENE_1
 62
     4
  6
CONTINUOUS
 10
0.726472
 20
4.343272
  0
SEQEND
  8
0
  0
POLYLINE
  8
EBENE_1
 62
     4
  6
CONTINUOUS
 66
     1
 40
0.003000
 41
0.003000
  0
VERTEX
  8
EBENE_1
 62
     4
  6
CONTINUOUS
 10
0.629323
 20
4.440429
  0
VERTEX
  8
EBENE_1
 62
     4
  6
CONTINUOUS
 10
0.726472
 20
4.343272
  0
SEQEND
  8
0
  0
POLYLINE
  8
EBENE_1
 62
     4
  6
CONTINUOUS
 66
     1
 40
0.003000
 41
0.003000
  0
VERTEX
  8
EBENE_1
 62
     4
  6
CONTINUOUS
 10
0.782543
 20
4.343272
  0
VERTEX
  8
EBENE_1
 62
     4
  6
CONTINUOUS
 10
0.685398
 20
4.440429
  0
SEQEND
  8
0
  0
POLYLINE
  8
EBENE_1
 62
     4
  6
CONTINUOUS
 66
     1
 40
0.003000
 41
0.003000
  0
VERTEX
  8
EBENE_1
 62
     4
  6
CONTINUOUS
 10
0.782543
 20
4.343272
  0
VERTEX
  8
EBENE_1
 62
     4
  6
CONTINUOUS
 10
0.685398
 20
4.440429
  0
SEQEND
  8
0
  0
POLYLINE
  8
EBENE_1
 62
     4
  6
CONTINUOUS
 66
     1
 40
0.003000
 41
0.003000
  0
VERTEX
  8
EBENE_1
 62
     4
  6
CONTINUOUS
 10
0.741472
 20
4.440429
  0
VERTEX
  8
EBENE_1
 62
     4
  6
CONTINUOUS
 10
0.838622
 20
4.343272
  0
SEQEND
  8
0
  0
POLYLINE
  8
EBENE_1
 62
     4
  6
CONTINUOUS
 66
     1
 40
0.003000
 41
0.003000
  0
VERTEX
  8
EBENE_1
 62
     4
  6
CONTINUOUS
 10
0.741472
 20
4.440429
  0
VERTEX
  8
EBENE_1
 62
     4
  6
CONTINUOUS
 10
0.838622
 20
4.343272
  0
SEQEND
  8
0
  0
POLYLINE
  8
EBENE_1
 62
     4
  6
CONTINUOUS
 66
     1
 40
0.003000
 41
0.003000
  0
VERTEX
  8
EBENE_1
 62
     4
  6
CONTINUOUS
 10
0.894701
 20
4.343272
  0
VERTEX
  8
EBENE_1
 62
     4
  6
CONTINUOUS
 10
0.797551
 20
4.440429
  0
SEQEND
  8
0
  0
POLYLINE
  8
EBENE_1
 62
     4
  6
CONTINUOUS
 66
     1
 40
0.003000
 41
0.003000
  0
VERTEX
  8
EBENE_1
 62
     4
  6
CONTINUOUS
 10
0.894701
 20
4.343272
  0
VERTEX
  8
EBENE_1
 62
     4
  6
CONTINUOUS
 10
0.797551
 20
4.440429
  0
SEQEND
  8
0
  0
POLYLINE
  8
EBENE_1
 62
     4
  6
CONTINUOUS
 66
     1
 40
0.003000
 41
0.003000
  0
VERTEX
  8
EBENE_1
 62
     4
  6
CONTINUOUS
 10
0.853630
 20
4.440429
  0
VERTEX
  8
EBENE_1
 62
     4
  6
CONTINUOUS
 10
0.938390
 20
4.355657
  0
SEQEND
  8
0
  0
POLYLINE
  8
EBENE_1
 62
     4
  6
CONTINUOUS
 66
     1
 40
0.003000
 41
0.003000
  0
VERTEX
  8
EBENE_1
 62
     4
  6
CONTINUOUS
 10
0.853630
 20
4.440429
  0
VERTEX
  8
EBENE_1
 62
     4
  6
CONTINUOUS
 10
0.938390
 20
4.355657
  0
SEQEND
  8
0
  0
POLYLINE
  8
EBENE_1
 62
     4
  6
CONTINUOUS
 66
     1
 40
0.003000
 41
0.003000
  0
VERTEX
  8
EBENE_1
 62
     4
  6
CONTINUOUS
 10
0.938390
 20
4.411740
  0
VERTEX
  8
EBENE_1
 62
     4
  6
CONTINUOUS
 10
0.909709
 20
4.440429
  0
SEQEND
  8
0
  0
POLYLINE
  8
EBENE_1
 62
     4
  6
CONTINUOUS
 66
     1
 40
0.003000
 41
0.003000
  0
VERTEX
  8
EBENE_1
 62
     4
  6
CONTINUOUS
 10
0.938390
 20
4.411740
  0
VERTEX
  8
EBENE_1
 62
     4
  6
CONTINUOUS
 10
0.909709
 20
4.440429
  0
SEQEND
  8
0
  0
POLYLINE
  8
EBENE_1
 62
     4
  6
CONTINUOUS
 66
     1
 40
0.003000
 41
0.003000
  0
VERTEX
  8
EBENE_1
 62
     4
  6
CONTINUOUS
 10
0.938390
 20
4.399350
  0
VERTEX
  8
EBENE_1
 62
     4
  6
CONTINUOUS
 10
0.882307
 20
4.343272
  0
SEQEND
  8
0
  0
POLYLINE
  8
EBENE_1
 62
     4
  6
CONTINUOUS
 66
     1
 40
0.003000
 41
0.003000
  0
VERTEX
  8
EBENE_1
 62
     4
  6
CONTINUOUS
 10
0.938390
 20
4.399350
  0
VERTEX
  8
EBENE_1
 62
     4
  6
CONTINUOUS
 10
0.882307
 20
4.343272
  0
SEQEND
  8
0
  0
POLYLINE
  8
EBENE_1
 62
     4
  6
CONTINUOUS
 66
     1
 40
0.003000
 41
0.003000
  0
VERTEX
  8
EBENE_1
 62
     4
  6
CONTINUOUS
 10
0.826232
 20
4.343272
  0
VERTEX
  8
EBENE_1
 62
     4
  6
CONTINUOUS
 10
0.923390
 20
4.440429
  0
SEQEND
  8
0
  0
POLYLINE
  8
EBENE_1
 62
     4
  6
CONTINUOUS
 66
     1
 40
0.003000
 41
0.003000
  0
VERTEX
  8
EBENE_1
 62
     4
  6
CONTINUOUS
 10
0.826232
 20
4.343272
  0
VERTEX
  8
EBENE_1
 62
     4
  6
CONTINUOUS
 10
0.923390
 20
4.440429
  0
SEQEND
  8
0
  0
POLYLINE
  8
EBENE_1
 62
     4
  6
CONTINUOUS
 66
     1
 40
0.003000
 41
0.003000
  0
VERTEX
  8
EBENE_1
 62
     4
  6
CONTINUOUS
 10
0.867311
 20
4.440429
  0
VERTEX
  8
EBENE_1
 62
     4
  6
CONTINUOUS
 10
0.770157
 20
4.343272
  0
SEQEND
  8
0
  0
POLYLINE
  8
EBENE_1
 62
     4
  6
CONTINUOUS
 66
     1
 40
0.003000
 41
0.003000
  0
VERTEX
  8
EBENE_1
 62
     4
  6
CONTINUOUS
 10
0.867311
 20
4.440429
  0
VERTEX
  8
EBENE_1
 62
     4
  6
CONTINUOUS
 10
0.770157
 20
4.343272
  0
SEQEND
  8
0
  0
POLYLINE
  8
EBENE_1
 62
     4
  6
CONTINUOUS
 66
     1
 40
0.003000
 41
0.003000
  0
VERTEX
  8
EBENE_1
 62
     4
  6
CONTINUOUS
 10
0.714079
 20
4.343272
  0
VERTEX
  8
EBENE_1
 62
     4
  6
CONTINUOUS
 10
0.811224
 20
4.440429
  0
SEQEND
  8
0
  0
POLYLINE
  8
EBENE_1
 62
     4
  6
CONTINUOUS
 66
     1
 40
0.003000
 41
0.003000
  0
VERTEX
  8
EBENE_1
 62
     4
  6
CONTINUOUS
 10
0.714079
 20
4.343272
  0
VERTEX
  8
EBENE_1
 62
     4
  6
CONTINUOUS
 10
0.811224
 20
4.440429
  0
SEQEND
  8
0
  0
POLYLINE
  8
EBENE_1
 62
     4
  6
CONTINUOUS
 66
     1
 40
0.003000
 41
0.003000
  0
VERTEX
  8
EBENE_1
 62
     4
  6
CONTINUOUS
 10
0.755154
 20
4.440429
  0
VERTEX
  8
EBENE_1
 62
     4
  6
CONTINUOUS
 10
0.657996
 20
4.343272
  0
SEQEND
  8
0
  0
POLYLINE
  8
EBENE_1
 62
     4
  6
CONTINUOUS
 66
     1
 40
0.003000
 41
0.003000
  0
VERTEX
  8
EBENE_1
 62
     4
  6
CONTINUOUS
 10
0.755154
 20
4.440429
  0
VERTEX
  8
EBENE_1
 62
     4
  6
CONTINUOUS
 10
0.657996
 20
4.343272
  0
SEQEND
  8
0
  0
POLYLINE
  8
EBENE_1
 62
     4
  6
CONTINUOUS
 66
     1
 40
0.003000
 41
0.003000
  0
VERTEX
  8
EBENE_1
 62
     4
  6
CONTINUOUS
 10
0.601925
 20
4.343272
  0
VERTEX
  8
EBENE_1
 62
     4
  6
CONTINUOUS
 10
0.699079
 20
4.440429
  0
SEQEND
  8
0
  0
POLYLINE
  8
EBENE_1
 62
     4
  6
CONTINUOUS
 66
     1
 40
0.003000
 41
0.003000
  0
VERTEX
  8
EBENE_1
 62
     4
  6
CONTINUOUS
 10
0.601925
 20
4.343272
  0
VERTEX
  8
EBENE_1
 62
     4
  6
CONTINUOUS
 10
0.699079
 20
4.440429
  0
SEQEND
  8
0
  0
POLYLINE
  8
EBENE_1
 62
     4
  6
CONTINUOUS
 66
     1
 40
0.003000
 41
0.003000
  0
VERTEX
  8
EBENE_1
 62
     4
  6
CONTINUOUS
 10
0.642996
 20
4.440429
  0
VERTEX
  8
EBENE_1
 62
     4
  6
CONTINUOUS
 10
0.545846
 20
4.343272
  0
SEQEND
  8
0
  0
POLYLINE
  8
EBENE_1
 62
     4
  6
CONTINUOUS
 66
     1
 40
0.003000
 41
0.003000
  0
VERTEX
  8
EBENE_1
 62
     4
  6
CONTINUOUS
 10
0.642996
 20
4.440429
  0
VERTEX
  8
EBENE_1
 62
     4
  6
CONTINUOUS
 10
0.545846
 20
4.343272
  0
SEQEND
  8
0
  0
POLYLINE
  8
EBENE_1
 62
     4
  6
CONTINUOUS
 66
     1
 40
0.003000
 41
0.003000
  0
VERTEX
  8
EBENE_1
 62
     4
  6
CONTINUOUS
 10
0.489768
 20
4.343272
  0
VERTEX
  8
EBENE_1
 62
     4
  6
CONTINUOUS
 10
0.586917
 20
4.440429
  0
SEQEND
  8
0
  0
POLYLINE
  8
EBENE_1
 62
     4
  6
CONTINUOUS
 66
     1
 40
0.003000
 41
0.003000
  0
VERTEX
  8
EBENE_1
 62
     4
  6
CONTINUOUS
 10
0.489768
 20
4.343272
  0
VERTEX
  8
EBENE_1
 62
     4
  6
CONTINUOUS
 10
0.586917
 20
4.440429
  0
SEQEND
  8
0
  0
POLYLINE
  8
EBENE_1
 62
     4
  6
CONTINUOUS
 66
     1
 40
0.003000
 41
0.003000
  0
VERTEX
  8
EBENE_1
 62
     4
  6
CONTINUOUS
 10
0.530843
 20
4.440429
  0
VERTEX
  8
EBENE_1
 62
     4
  6
CONTINUOUS
 10
0.433689
 20
4.343272
  0
SEQEND
  8
0
  0
POLYLINE
  8
EBENE_1
 62
     4
  6
CONTINUOUS
 66
     1
 40
0.003000
 41
0.003000
  0
VERTEX
  8
EBENE_1
 62
     4
  6
CONTINUOUS
 10
0.530843
 20
4.440429
  0
VERTEX
  8
EBENE_1
 62
     4
  6
CONTINUOUS
 10
0.433689
 20
4.343272
  0
SEQEND
  8
0
  0
POLYLINE
  8
EBENE_1
 62
     4
  6
CONTINUOUS
 66
     1
 40
0.003000
 41
0.003000
  0
VERTEX
  8
EBENE_1
 62
     4
  6
CONTINUOUS
 10
0.377618
 20
4.343272
  0
VERTEX
  8
EBENE_1
 62
     4
  6
CONTINUOUS
 10
0.474760
 20
4.440429
  0
SEQEND
  8
0
  0
POLYLINE
  8
EBENE_1
 62
     4
  6
CONTINUOUS
 66
     1
 40
0.003000
 41
0.003000
  0
VERTEX
  8
EBENE_1
 62
     4
  6
CONTINUOUS
 10
0.377618
 20
4.343272
  0
VERTEX
  8
EBENE_1
 62
     4
  6
CONTINUOUS
 10
0.474760
 20
4.440429
  0
SEQEND
  8
0
  0
POLYLINE
  8
EBENE_1
 62
     4
  6
CONTINUOUS
 66
     1
 40
0.003000
 41
0.003000
  0
VERTEX
  8
EBENE_1
 62
     4
  6
CONTINUOUS
 10
0.418681
 20
4.440429
  0
VERTEX
  8
EBENE_1
 62
     4
  6
CONTINUOUS
 10
0.321535
 20
4.343272
  0
SEQEND
  8
0
  0
POLYLINE
  8
EBENE_1
 62
     4
  6
CONTINUOUS
 66
     1
 40
0.003000
 41
0.003000
  0
VERTEX
  8
EBENE_1
 62
     4
  6
CONTINUOUS
 10
0.418681
 20
4.440429
  0
VERTEX
  8
EBENE_1
 62
     4
  6
CONTINUOUS
 10
0.321535
 20
4.343272
  0
SEQEND
  8
0
  0
POLYLINE
  8
EBENE_1
 62
     4
  6
CONTINUOUS
 66
     1
 40
0.003000
 41
0.003000
  0
VERTEX
  8
EBENE_1
 62
     4
  6
CONTINUOUS
 10
0.265457
 20
4.343272
  0
VERTEX
  8
EBENE_1
 62
     4
  6
CONTINUOUS
 10
0.362606
 20
4.440429
  0
SEQEND
  8
0
  0
POLYLINE
  8
EBENE_1
 62
     4
  6
CONTINUOUS
 66
     1
 40
0.003000
 41
0.003000
  0
VERTEX
  8
EBENE_1
 62
     4
  6
CONTINUOUS
 10
0.265457
 20
4.343272
  0
VERTEX
  8
EBENE_1
 62
     4
  6
CONTINUOUS
 10
0.362606
 20
4.440429
  0
SEQEND
  8
0
  0
POLYLINE
  8
EBENE_1
 62
     4
  6
CONTINUOUS
 66
     1
 40
0.003000
 41
0.003000
  0
VERTEX
  8
EBENE_1
 62
     4
  6
CONTINUOUS
 10
0.306528
 20
4.440429
  0
VERTEX
  8
EBENE_1
 62
     4
  6
CONTINUOUS
 10
0.209378
 20
4.343272
  0
SEQEND
  8
0
  0
POLYLINE
  8
EBENE_1
 62
     4
  6
CONTINUOUS
 66
     1
 40
0.003000
 41
0.003000
  0
VERTEX
  8
EBENE_1
 62
     4
  6
CONTINUOUS
 10
0.306528
 20
4.440429
  0
VERTEX
  8
EBENE_1
 62
     4
  6
CONTINUOUS
 10
0.209378
 20
4.343272
  0
SEQEND
  8
0
  0
POLYLINE
  8
EBENE_1
 62
     4
  6
CONTINUOUS
 66
     1
 40
0.003000
 41
0.003000
  0
VERTEX
  8
EBENE_1
 62
     4
  6
CONTINUOUS
 10
0.153299
 20
4.343272
  0
VERTEX
  8
EBENE_1
 62
     4
  6
CONTINUOUS
 10
0.250449
 20
4.440429
  0
SEQEND
  8
0
  0
POLYLINE
  8
EBENE_1
 62
     4
  6
CONTINUOUS
 66
     1
 40
0.003000
 41
0.003000
  0
VERTEX
  8
EBENE_1
 62
     4
  6
CONTINUOUS
 10
0.153299
 20
4.343272
  0
VERTEX
  8
EBENE_1
 62
     4
  6
CONTINUOUS
 10
0.250449
 20
4.440429
  0
SEQEND
  8
0
  0
POLYLINE
  8
EBENE_1
 62
     4
  6
CONTINUOUS
 66
     1
 40
0.003000
 41
0.003000
  0
VERTEX
  8
EBENE_1
 62
     4
  6
CONTINUOUS
 10
0.194374
 20
4.440429
  0
VERTEX
  8
EBENE_1
 62
     4
  6
CONTINUOUS
 10
0.097220
 20
4.343272
  0
SEQEND
  8
0
  0
POLYLINE
  8
EBENE_1
 62
     4
  6
CONTINUOUS
 66
     1
 40
0.003000
 41
0.003000
  0
VERTEX
  8
EBENE_1
 62
     4
  6
CONTINUOUS
 10
0.194374
 20
4.440429
  0
VERTEX
  8
EBENE_1
 62
     4
  6
CONTINUOUS
 10
0.097220
 20
4.343272
  0
SEQEND
  8
0
  0
POLYLINE
  8
EBENE_1
 62
     4
  6
CONTINUOUS
 66
     1
 40
0.003000
 41
0.003000
  0
VERTEX
  8
EBENE_1
 62
     4
  6
CONTINUOUS
 10
0.041146
 20
4.343272
  0
VERTEX
  8
EBENE_1
 62
     4
  6
CONTINUOUS
 10
0.138291
 20
4.440429
  0
SEQEND
  8
0
  0
POLYLINE
  8
EBENE_1
 62
     4
  6
CONTINUOUS
 66
     1
 40
0.003000
 41
0.003000
  0
VERTEX
  8
EBENE_1
 62
     4
  6
CONTINUOUS
 10
0.041146
 20
4.343272
  0
VERTEX
  8
EBENE_1
 62
     4
  6
CONTINUOUS
 10
0.138291
 20
4.440429
  0
SEQEND
  8
0
  0
POLYLINE
  8
EBENE_1
 62
     4
  6
CONTINUOUS
 66
     1
 40
0.003000
 41
0.003000
  0
VERTEX
  8
EBENE_1
 62
     4
  6
CONTINUOUS
 10
0.082217
 20
4.440429
  0
VERTEX
  8
EBENE_1
 62
     4
  6
CONTINUOUS
 10
-0.014937
 20
4.343272
  0
SEQEND
  8
0
  0
POLYLINE
  8
EBENE_1
 62
     4
  6
CONTINUOUS
 66
     1
 40
0.003000
 41
0.003000
  0
VERTEX
  8
EBENE_1
 62
     4
  6
CONTINUOUS
 10
0.082217
 20
4.440429
  0
VERTEX
  8
EBENE_1
 62
     4
  6
CONTINUOUS
 10
-0.014937
 20
4.343272
  0
SEQEND
  8
0
  0
POLYLINE
  8
EBENE_1
 62
     4
  6
CONTINUOUS
 66
     1
 40
0.003000
 41
0.003000
  0
VERTEX
  8
EBENE_1
 62
     4
  6
CONTINUOUS
 10
-0.071016
 20
4.343280
  0
VERTEX
  8
EBENE_1
 62
     4
  6
CONTINUOUS
 10
0.026138
 20
4.440429
  0
SEQEND
  8
0
  0
POLYLINE
  8
EBENE_1
 62
     4
  6
CONTINUOUS
 66
     1
 40
0.003000
 41
0.003000
  0
VERTEX
  8
EBENE_1
 62
     4
  6
CONTINUOUS
 10
-0.071016
 20
4.343280
  0
VERTEX
  8
EBENE_1
 62
     4
  6
CONTINUOUS
 10
0.026138
 20
4.440429
  0
SEQEND
  8
0
  0
POLYLINE
  8
EBENE_1
 62
     4
  6
CONTINUOUS
 66
     1
 40
0.003000
 41
0.003000
  0
VERTEX
  8
EBENE_1
 62
     4
  6
CONTINUOUS
 10
-0.029937
 20
4.440429
  0
VERTEX
  8
EBENE_1
 62
     4
  6
CONTINUOUS
 10
-0.127083
 20
4.343280
  0
SEQEND
  8
0
  0
POLYLINE
  8
EBENE_1
 62
     4
  6
CONTINUOUS
 66
     1
 40
0.003000
 41
0.003000
  0
VERTEX
  8
EBENE_1
 62
     4
  6
CONTINUOUS
 10
-0.029937
 20
4.440429
  0
VERTEX
  8
EBENE_1
 62
     4
  6
CONTINUOUS
 10
-0.127083
 20
4.343280
  0
SEQEND
  8
0
  0
POLYLINE
  8
EBENE_1
 62
     4
  6
CONTINUOUS
 66
     1
 40
0.003000
 41
0.003000
  0
VERTEX
  8
EBENE_1
 62
     4
  6
CONTINUOUS
 10
-0.183165
 20
4.343280
  0
VERTEX
  8
EBENE_1
 62
     4
  6
CONTINUOUS
 10
-0.086016
 20
4.440429
  0
SEQEND
  8
0
  0
POLYLINE
  8
EBENE_1
 62
     4
  6
CONTINUOUS
 66
     1
 40
0.003000
 41
0.003000
  0
VERTEX
  8
EBENE_1
 62
     4
  6
CONTINUOUS
 10
-0.183165
 20
4.343280
  0
VERTEX
  8
EBENE_1
 62
     4
  6
CONTINUOUS
 10
-0.086016
 20
4.440429
  0
SEQEND
  8
0
  0
POLYLINE
  8
EBENE_1
 62
     4
  6
CONTINUOUS
 66
     1
 40
0.003000
 41
0.003000
  0
VERTEX
  8
EBENE_1
 62
     4
  6
CONTINUOUS
 10
-0.142094
 20
4.440429
  0
VERTEX
  8
EBENE_1
 62
     4
  6
CONTINUOUS
 10
-0.239244
 20
4.343280
  0
SEQEND
  8
0
  0
POLYLINE
  8
EBENE_1
 62
     4
  6
CONTINUOUS
 66
     1
 40
0.003000
 41
0.003000
  0
VERTEX
  8
EBENE_1
 62
     4
  6
CONTINUOUS
 10
-0.142094
 20
4.440429
  0
VERTEX
  8
EBENE_1
 62
     4
  6
CONTINUOUS
 10
-0.239244
 20
4.343280
  0
SEQEND
  8
0
  0
POLYLINE
  8
EBENE_1
 62
     4
  6
CONTINUOUS
 66
     1
 40
0.003000
 41
0.003000
  0
VERTEX
  8
EBENE_1
 62
     4
  6
CONTINUOUS
 10
-0.282925
 20
4.355677
  0
VERTEX
  8
EBENE_1
 62
     4
  6
CONTINUOUS
 10
-0.198173
 20
4.440429
  0
SEQEND
  8
0
  0
POLYLINE
  8
EBENE_1
 62
     4
  6
CONTINUOUS
 66
     1
 40
0.003000
 41
0.003000
  0
VERTEX
  8
EBENE_1
 62
     4
  6
CONTINUOUS
 10
-0.282925
 20
4.355677
  0
VERTEX
  8
EBENE_1
 62
     4
  6
CONTINUOUS
 10
-0.198173
 20
4.440429
  0
SEQEND
  8
0
  0
POLYLINE
  8
EBENE_1
 62
     4
  6
CONTINUOUS
 66
     1
 40
0.003000
 41
0.003000
  0
VERTEX
  8
EBENE_1
 62
     4
  6
CONTINUOUS
 10
-0.254252
 20
4.440429
  0
VERTEX
  8
EBENE_1
 62
     4
  6
CONTINUOUS
 10
-0.282925
 20
4.411752
  0
SEQEND
  8
0
  0
POLYLINE
  8
EBENE_1
 62
     4
  6
CONTINUOUS
 66
     1
 40
0.003000
 41
0.003000
  0
VERTEX
  8
EBENE_1
 62
     4
  6
CONTINUOUS
 10
-0.254252
 20
4.440429
  0
VERTEX
  8
EBENE_1
 62
     4
  6
CONTINUOUS
 10
-0.282925
 20
4.411752
  0
SEQEND
  8
0
  0
POLYLINE
  8
EBENE_1
  6
CONTINUOUS
 66
     1
 40
0.003000
 41
0.003000
  0
VERTEX
  8
EBENE_1
  6
CONTINUOUS
 10
-1.448724
 20
4.440429
  0
VERTEX
  8
EBENE_1
  6
CONTINUOUS
 10
-0.338437
 20
4.440429
  0
SEQEND
  8
0
  0
POLYLINE
  8
EBENE_1
  6
CONTINUOUS
 66
     1
 40
0.003000
 41
0.003000
  0
VERTEX
  8
EBENE_1
  6
CONTINUOUS
 10
-1.448724
 20
4.440429
  0
VERTEX
  8
EBENE_1
  6
CONTINUOUS
 10
-0.338437
 20
4.440429
  0
SEQEND
  8
0
  0
POLYLINE
  8
EBENE_1
  6
CONTINUOUS
 66
     1
 40
0.003000
 41
0.003000
  0
VERTEX
  8
EBENE_1
  6
CONTINUOUS
 10
-1.448724
 20
4.343280
  0
VERTEX
  8
EBENE_1
  6
CONTINUOUS
 10
-0.338437
 20
4.343280
  0
SEQEND
  8
0
  0
POLYLINE
  8
EBENE_1
  6
CONTINUOUS
 66
     1
 40
0.003000
 41
0.003000
  0
VERTEX
  8
EBENE_1
  6
CONTINUOUS
 10
-1.448724
 20
4.343280
  0
VERTEX
  8
EBENE_1
  6
CONTINUOUS
 10
-0.338437
 20
4.343280
  0
SEQEND
  8
0
  0
POLYLINE
  8
EBENE_1
 62
     5
  6
DASHDOT
 66
     1
 40
0.003000
 41
0.003000
  0
VERTEX
  8
EBENE_1
 62
     5
  6
DASHDOT
 10
-0.338437
 20
4.519736
  0
VERTEX
  8
EBENE_1
 62
     5
  6
DASHDOT
 10
-0.338437
 20
4.263965
  0
SEQEND
  8
0
  0
POLYLINE
  8
EBENE_1
 62
     5
  6
DASHDOT
 66
     1
 40
0.003000
 41
0.003000
  0
VERTEX
  8
EBENE_1
 62
     5
  6
DASHDOT
 10
-0.338437
 20
4.519736
  0
VERTEX
  8
EBENE_1
 62
     5
  6
DASHDOT
 10
-0.338437
 20
4.263965
  0
SEQEND
  8
0
  0
POLYLINE
  8
EBENE_1
 62
     5
  6
DASHDOT
 66
     1
 40
0.003000
 41
0.003000
  0
VERTEX
  8
EBENE_1
 62
     5
  6
DASHDOT
 10
-0.282925
 20
4.519736
  0
VERTEX
  8
EBENE_1
 62
     5
  6
DASHDOT
 10
-0.282925
 20
4.263965
  0
SEQEND
  8
0
  0
POLYLINE
  8
EBENE_1
 62
     5
  6
DASHDOT
 66
     1
 40
0.003000
 41
0.003000
  0
VERTEX
  8
EBENE_1
 62
     5
  6
DASHDOT
 10
-0.282925
 20
4.519736
  0
VERTEX
  8
EBENE_1
 62
     5
  6
DASHDOT
 10
-0.282925
 20
4.263965
  0
SEQEND
  8
0
  0
POLYLINE
  8
EBENE_1
  6
CONTINUOUS
 66
     1
 40
0.003000
 41
0.003000
  0
VERTEX
  8
EBENE_1
  6
CONTINUOUS
 10
-0.282925
 20
4.343280
  0
VERTEX
  8
EBENE_1
  6
CONTINUOUS
 10
0.938390
 20
4.343272
  0
SEQEND
  8
0
  0
POLYLINE
  8
EBENE_1
  6
CONTINUOUS
 66
     1
 40
0.003000
 41
0.003000
  0
VERTEX
  8
EBENE_1
  6
CONTINUOUS
 10
-0.282925
 20
4.343280
  0
VERTEX
  8
EBENE_1
  6
CONTINUOUS
 10
0.938390
 20
4.343272
  0
SEQEND
  8
0
  0
POLYLINE
  8
EBENE_1
  6
CONTINUOUS
 66
     1
 40
0.003000
 41
0.003000
  0
VERTEX
  8
EBENE_1
  6
CONTINUOUS
 10
-0.282925
 20
4.440429
  0
VERTEX
  8
EBENE_1
  6
CONTINUOUS
 10
0.938390
 20
4.440429
  0
SEQEND
  8
0
  0
POLYLINE
  8
EBENE_1
  6
CONTINUOUS
 66
     1
 40
0.003000
 41
0.003000
  0
VERTEX
  8
EBENE_1
  6
CONTINUOUS
 10
-0.282925
 20
4.440429
  0
VERTEX
  8
EBENE_1
  6
CONTINUOUS
 10
0.938390
 20
4.440429
  0
SEQEND
  8
0
  0
POLYLINE
  8
EBENE_1
  6
CONTINUOUS
 66
     1
 40
0.003000
 41
0.003000
  0
VERTEX
  8
EBENE_1
  6
CONTINUOUS
 10
-2.946059
 20
4.259685
  0
VERTEX
  8
EBENE_1
  6
CONTINUOUS
 10
-2.947272
 20
4.273512
  0
SEQEND
  8
0
  0
POLYLINE
  8
EBENE_1
  6
CONTINUOUS
 66
     1
 40
0.003000
 41
0.003000
  0
VERTEX
  8
EBENE_1
  6
CONTINUOUS
 10
-2.946059
 20
4.259685
  0
VERTEX
  8
EBENE_1
  6
CONTINUOUS
 10
-2.947272
 20
4.273512
  0
SEQEND
  8
0
  0
POLYLINE
  8
EBENE_1
  6
CONTINUOUS
 66
     1
 40
0.003000
 41
0.003000
  0
VERTEX
  8
EBENE_1
  6
CONTINUOUS
 10
-2.668701
 20
4.274201
  0
VERTEX
  8
EBENE_1
  6
CONTINUOUS
 10
-2.671606
 20
4.307382
  0
SEQEND
  8
0
  0
POLYLINE
  8
EBENE_1
  6
CONTINUOUS
 66
     1
 40
0.003000
 41
0.003000
  0
VERTEX
  8
EBENE_1
  6
CONTINUOUS
 10
-2.668701
 20
4.274201
  0
VERTEX
  8
EBENE_1
  6
CONTINUOUS
 10
-2.671606
 20
4.307382
  0
SEQEND
  8
0
  0
POLYLINE
  8
EBENE_1
  6
CONTINUOUS
 66
     1
 40
0.003000
 41
0.003000
  0
VERTEX
  8
EBENE_1
  6
CONTINUOUS
 10
-1.726295
 20
4.390083
  0
VERTEX
  8
EBENE_1
  6
CONTINUOUS
 10
-2.671606
 20
4.307382
  0
SEQEND
  8
0
  0
POLYLINE
  8
EBENE_1
  6
CONTINUOUS
 66
     1
 40
0.003000
 41
0.003000
  0
VERTEX
  8
EBENE_1
  6
CONTINUOUS
 10
-1.726295
 20
4.390083
  0
VERTEX
  8
EBENE_1
  6
CONTINUOUS
 10
-2.671606
 20
4.307382
  0
SEQEND
  8
0
  0
POLYLINE
  8
EBENE_1
  6
CONTINUOUS
 66
     1
 40
0.003000
 41
0.003000
  0
VERTEX
  8
EBENE_1
  6
CONTINUOUS
 10
-1.726295
 20
4.356646
  0
VERTEX
  8
EBENE_1
  6
CONTINUOUS
 10
-2.668701
 20
4.274201
  0
SEQEND
  8
0
  0
POLYLINE
  8
EBENE_1
  6
CONTINUOUS
 66
     1
 40
0.003000
 41
0.003000
  0
VERTEX
  8
EBENE_1
  6
CONTINUOUS
 10
-1.726295
 20
4.356646
  0
VERTEX
  8
EBENE_1
  6
CONTINUOUS
 10
-2.668701
 20
4.274201
  0
SEQEND
  8
0
  0
POLYLINE
  8
EBENE_1
  6
CONTINUOUS
 66
     1
 40
0.003000
 41
0.003000
  0
VERTEX
  8
EBENE_1
  6
CONTINUOUS
 10
-1.726295
 20
4.427051
  0
VERTEX
  8
EBENE_1
  6
CONTINUOUS
 10
-2.668701
 20
4.509500
  0
SEQEND
  8
0
  0
POLYLINE
  8
EBENE_1
  6
CONTINUOUS
 66
     1
 40
0.003000
 41
0.003000
  0
VERTEX
  8
EBENE_1
  6
CONTINUOUS
 10
-1.726295
 20
4.427051
  0
VERTEX
  8
EBENE_1
  6
CONTINUOUS
 10
-2.668701
 20
4.509500
  0
SEQEND
  8
0
  0
POLYLINE
  8
EBENE_1
 62
     4
  6
CONTINUOUS
 66
     1
 40
0.003000
 41
0.003000
  0
VERTEX
  8
EBENE_1
 62
     4
  6
CONTINUOUS
 10
-1.418929
 20
4.440429
  0
VERTEX
  8
EBENE_1
 62
     4
  6
CONTINUOUS
 10
-1.448724
 20
4.410622
  0
SEQEND
  8
0
  0
POLYLINE
  8
EBENE_1
 62
     4
  6
CONTINUOUS
 66
     1
 40
0.003000
 41
0.003000
  0
VERTEX
  8
EBENE_1
 62
     4
  6
CONTINUOUS
 10
-1.418929
 20
4.440429
  0
VERTEX
  8
EBENE_1
 62
     4
  6
CONTINUOUS
 10
-1.448724
 20
4.410622
  0
SEQEND
  8
0
  0
POLYLINE
  8
EBENE_1
 62
     4
  6
CONTINUOUS
 66
     1
 40
0.003000
 41
0.003000
  0
VERTEX
  8
EBENE_1
 62
     4
  6
CONTINUOUS
 10
-1.362854
 20
4.440429
  0
VERTEX
  8
EBENE_1
 62
     4
  6
CONTINUOUS
 10
-1.448724
 20
4.354555
  0
SEQEND
  8
0
  0
POLYLINE
  8
EBENE_1
 62
     4
  6
CONTINUOUS
 66
     1
 40
0.003000
 41
0.003000
  0
VERTEX
  8
EBENE_1
 62
     4
  6
CONTINUOUS
 10
-1.362854
 20
4.440429
  0
VERTEX
  8
EBENE_1
 62
     4
  6
CONTINUOUS
 10
-1.448724
 20
4.354555
  0
SEQEND
  8
0
  0
POLYLINE
  8
EBENE_1
 62
     4
  6
CONTINUOUS
 66
     1
 40
0.003000
 41
0.003000
  0
VERTEX
  8
EBENE_1
 62
     4
  6
CONTINUOUS
 10
-0.338437
 20
4.399350
  0
VERTEX
  8
EBENE_1
 62
     4
  6
CONTINUOUS
 10
-0.394516
 20
4.343280
  0
SEQEND
  8
0
  0
POLYLINE
  8
EBENE_1
 62
     4
  6
CONTINUOUS
 66
     1
 40
0.003000
 41
0.003000
  0
VERTEX
  8
EBENE_1
 62
     4
  6
CONTINUOUS
 10
-0.338437
 20
4.399350
  0
VERTEX
  8
EBENE_1
 62
     4
  6
CONTINUOUS
 10
-0.394516
 20
4.343280
  0
SEQEND
  8
0
  0
POLYLINE
  8
EBENE_1
 62
     4
  6
CONTINUOUS
 66
     1
 40
0.003000
 41
0.003000
  0
VERTEX
  8
EBENE_1
 62
     4
  6
CONTINUOUS
 10
-0.450598
 20
4.343280
  0
VERTEX
  8
EBENE_1
 62
     4
  6
CONTINUOUS
 10
-0.353441
 20
4.440429
  0
SEQEND
  8
0
  0
POLYLINE
  8
EBENE_1
 62
     4
  6
CONTINUOUS
 66
     1
 40
0.003000
 41
0.003000
  0
VERTEX
  8
EBENE_1
 62
     4
  6
CONTINUOUS
 10
-0.450598
 20
4.343280
  0
VERTEX
  8
EBENE_1
 62
     4
  6
CONTINUOUS
 10
-0.353441
 20
4.440429
  0
SEQEND
  8
0
  0
POLYLINE
  8
EBENE_1
 62
     4
  6
CONTINUOUS
 66
     1
 40
0.003000
 41
0.003000
  0
VERTEX
  8
EBENE_1
 62
     4
  6
CONTINUOUS
 10
-0.409528
 20
4.440429
  0
VERTEX
  8
EBENE_1
 62
     4
  6
CONTINUOUS
 10
-0.506673
 20
4.343280
  0
SEQEND
  8
0
  0
POLYLINE
  8
EBENE_1
 62
     4
  6
CONTINUOUS
 66
     1
 40
0.003000
 41
0.003000
  0
VERTEX
  8
EBENE_1
 62
     4
  6
CONTINUOUS
 10
-0.409528
 20
4.440429
  0
VERTEX
  8
EBENE_1
 62
     4
  6
CONTINUOUS
 10
-0.506673
 20
4.343280
  0
SEQEND
  8
0
  0
POLYLINE
  8
EBENE_1
 62
     4
  6
CONTINUOUS
 66
     1
 40
0.003000
 41
0.003000
  0
VERTEX
  8
EBENE_1
 62
     4
  6
CONTINUOUS
 10
-0.562752
 20
4.343280
  0
VERTEX
  8
EBENE_1
 62
     4
  6
CONTINUOUS
 10
-0.465606
 20
4.440429
  0
SEQEND
  8
0
  0
POLYLINE
  8
EBENE_1
 62
     4
  6
CONTINUOUS
 66
     1
 40
0.003000
 41
0.003000
  0
VERTEX
  8
EBENE_1
 62
     4
  6
CONTINUOUS
 10
-0.562752
 20
4.343280
  0
VERTEX
  8
EBENE_1
 62
     4
  6
CONTINUOUS
 10
-0.465606
 20
4.440429
  0
SEQEND
  8
0
  0
POLYLINE
  8
EBENE_1
 62
     4
  6
CONTINUOUS
 66
     1
 40
0.003000
 41
0.003000
  0
VERTEX
  8
EBENE_1
 62
     4
  6
CONTINUOUS
 10
-0.521681
 20
4.440429
  0
VERTEX
  8
EBENE_1
 62
     4
  6
CONTINUOUS
 10
-0.618831
 20
4.343280
  0
SEQEND
  8
0
  0
POLYLINE
  8
EBENE_1
 62
     4
  6
CONTINUOUS
 66
     1
 40
0.003000
 41
0.003000
  0
VERTEX
  8
EBENE_1
 62
     4
  6
CONTINUOUS
 10
-0.521681
 20
4.440429
  0
VERTEX
  8
EBENE_1
 62
     4
  6
CONTINUOUS
 10
-0.618831
 20
4.343280
  0
SEQEND
  8
0
  0
POLYLINE
  8
EBENE_1
 62
     4
  6
CONTINUOUS
 66
     1
 40
0.003000
 41
0.003000
  0
VERTEX
  8
EBENE_1
 62
     4
  6
CONTINUOUS
 10
-0.674909
 20
4.343280
  0
VERTEX
  8
EBENE_1
 62
     4
  6
CONTINUOUS
 10
-0.577760
 20
4.440429
  0
SEQEND
  8
0
  0
POLYLINE
  8
EBENE_1
 62
     4
  6
CONTINUOUS
 66
     1
 40
0.003000
 41
0.003000
  0
VERTEX
  8
EBENE_1
 62
     4
  6
CONTINUOUS
 10
-0.674909
 20
4.343280
  0
VERTEX
  8
EBENE_1
 62
     4
  6
CONTINUOUS
 10
-0.577760
 20
4.440429
  0
SEQEND
  8
0
  0
POLYLINE
  8
EBENE_1
 62
     4
  6
CONTINUOUS
 66
     1
 40
0.003000
 41
0.003000
  0
VERTEX
  8
EBENE_1
 62
     4
  6
CONTINUOUS
 10
-0.633839
 20
4.440429
  0
VERTEX
  8
EBENE_1
 62
     4
  6
CONTINUOUS
 10
-0.730984
 20
4.343280
  0
SEQEND
  8
0
  0
POLYLINE
  8
EBENE_1
 62
     4
  6
CONTINUOUS
 66
     1
 40
0.003000
 41
0.003000
  0
VERTEX
  8
EBENE_1
 62
     4
  6
CONTINUOUS
 10
-0.633839
 20
4.440429
  0
VERTEX
  8
EBENE_1
 62
     4
  6
CONTINUOUS
 10
-0.730984
 20
4.343280
  0
SEQEND
  8
0
  0
POLYLINE
  8
EBENE_1
 62
     4
  6
CONTINUOUS
 66
     1
 40
0.003000
 41
0.003000
  0
VERTEX
  8
EBENE_1
 62
     4
  6
CONTINUOUS
 10
-0.787063
 20
4.343280
  0
VERTEX
  8
EBENE_1
 62
     4
  6
CONTINUOUS
 10
-0.689909
 20
4.440429
  0
SEQEND
  8
0
  0
POLYLINE
  8
EBENE_1
 62
     4
  6
CONTINUOUS
 66
     1
 40
0.003000
 41
0.003000
  0
VERTEX
  8
EBENE_1
 62
     4
  6
CONTINUOUS
 10
-0.787063
 20
4.343280
  0
VERTEX
  8
EBENE_1
 62
     4
  6
CONTINUOUS
 10
-0.689909
 20
4.440429
  0
SEQEND
  8
0
  0
POLYLINE
  8
EBENE_1
 62
     4
  6
CONTINUOUS
 66
     1
 40
0.003000
 41
0.003000
  0
VERTEX
  8
EBENE_1
 62
     4
  6
CONTINUOUS
 10
-0.745988
 20
4.440429
  0
VERTEX
  8
EBENE_1
 62
     4
  6
CONTINUOUS
 10
-0.843142
 20
4.343280
  0
SEQEND
  8
0
  0
POLYLINE
  8
EBENE_1
 62
     4
  6
CONTINUOUS
 66
     1
 40
0.003000
 41
0.003000
  0
VERTEX
  8
EBENE_1
 62
     4
  6
CONTINUOUS
 10
-0.745988
 20
4.440429
  0
VERTEX
  8
EBENE_1
 62
     4
  6
CONTINUOUS
 10
-0.843142
 20
4.343280
  0
SEQEND
  8
0
  0
POLYLINE
  8
EBENE_1
 62
     4
  6
CONTINUOUS
 66
     1
 40
0.003000
 41
0.003000
  0
VERTEX
  8
EBENE_1
 62
     4
  6
CONTINUOUS
 10
-0.899217
 20
4.343280
  0
VERTEX
  8
EBENE_1
 62
     4
  6
CONTINUOUS
 10
-0.802063
 20
4.440429
  0
SEQEND
  8
0
  0
POLYLINE
  8
EBENE_1
 62
     4
  6
CONTINUOUS
 66
     1
 40
0.003000
 41
0.003000
  0
VERTEX
  8
EBENE_1
 62
     4
  6
CONTINUOUS
 10
-0.899217
 20
4.343280
  0
VERTEX
  8
EBENE_1
 62
     4
  6
CONTINUOUS
 10
-0.802063
 20
4.440429
  0
SEQEND
  8
0
  0
POLYLINE
  8
EBENE_1
 62
     4
  6
CONTINUOUS
 66
     1
 40
0.003000
 41
0.003000
  0
VERTEX
  8
EBENE_1
 62
     4
  6
CONTINUOUS
 10
-0.858146
 20
4.440429
  0
VERTEX
  8
EBENE_1
 62
     4
  6
CONTINUOUS
 10
-0.955295
 20
4.343280
  0
SEQEND
  8
0
  0
POLYLINE
  8
EBENE_1
 62
     4
  6
CONTINUOUS
 66
     1
 40
0.003000
 41
0.003000
  0
VERTEX
  8
EBENE_1
 62
     4
  6
CONTINUOUS
 10
-0.858146
 20
4.440429
  0
VERTEX
  8
EBENE_1
 62
     4
  6
CONTINUOUS
 10
-0.955295
 20
4.343280
  0
SEQEND
  8
0
  0
POLYLINE
  8
EBENE_1
 62
     4
  6
CONTINUOUS
 66
     1
 40
0.003000
 41
0.003000
  0
VERTEX
  8
EBENE_1
 62
     4
  6
CONTINUOUS
 10
-1.011374
 20
4.343280
  0
VERTEX
  8
EBENE_1
 62
     4
  6
CONTINUOUS
 10
-0.914220
 20
4.440429
  0
SEQEND
  8
0
  0
POLYLINE
  8
EBENE_1
 62
     4
  6
CONTINUOUS
 66
     1
 40
0.003000
 41
0.003000
  0
VERTEX
  8
EBENE_1
 62
     4
  6
CONTINUOUS
 10
-1.011374
 20
4.343280
  0
VERTEX
  8
EBENE_1
 62
     4
  6
CONTINUOUS
 10
-0.914220
 20
4.440429
  0
SEQEND
  8
0
  0
POLYLINE
  8
EBENE_1
 62
     4
  6
CONTINUOUS
 66
     1
 40
0.003000
 41
0.003000
  0
VERTEX
  8
EBENE_1
 62
     4
  6
CONTINUOUS
 10
-0.970303
 20
4.440429
  0
VERTEX
  8
EBENE_1
 62
     4
  6
CONTINUOUS
 10
-1.067449
 20
4.343280
  0
SEQEND
  8
0
  0
POLYLINE
  8
EBENE_1
 62
     4
  6
CONTINUOUS
 66
     1
 40
0.003000
 41
0.003000
  0
VERTEX
  8
EBENE_1
 62
     4
  6
CONTINUOUS
 10
-0.970303
 20
4.440429
  0
VERTEX
  8
EBENE_1
 62
     4
  6
CONTINUOUS
 10
-1.067449
 20
4.343280
  0
SEQEND
  8
0
  0
POLYLINE
  8
EBENE_1
 62
     4
  6
CONTINUOUS
 66
     1
 40
0.003000
 41
0.003000
  0
VERTEX
  8
EBENE_1
 62
     4
  6
CONTINUOUS
 10
-1.123531
 20
4.343280
  0
VERTEX
  8
EBENE_1
 62
     4
  6
CONTINUOUS
 10
-1.026382
 20
4.440429
  0
SEQEND
  8
0
  0
POLYLINE
  8
EBENE_1
 62
     4
  6
CONTINUOUS
 66
     1
 40
0.003000
 41
0.003000
  0
VERTEX
  8
EBENE_1
 62
     4
  6
CONTINUOUS
 10
-1.123531
 20
4.343280
  0
VERTEX
  8
EBENE_1
 62
     4
  6
CONTINUOUS
 10
-1.026382
 20
4.440429
  0
SEQEND
  8
0
  0
POLYLINE
  8
EBENE_1
 62
     4
  6
CONTINUOUS
 66
     1
 40
0.003000
 41
0.003000
  0
VERTEX
  8
EBENE_1
 62
     4
  6
CONTINUOUS
 10
-1.082461
 20
4.440429
  0
VERTEX
  8
EBENE_1
 62
     4
  6
CONTINUOUS
 10
-1.179610
 20
4.343280
  0
SEQEND
  8
0
  0
POLYLINE
  8
EBENE_1
 62
     4
  6
CONTINUOUS
 66
     1
 40
0.003000
 41
0.003000
  0
VERTEX
  8
EBENE_1
 62
     4
  6
CONTINUOUS
 10
-1.082461
 20
4.440429
  0
VERTEX
  8
EBENE_1
 62
     4
  6
CONTINUOUS
 10
-1.179610
 20
4.343280
  0
SEQEND
  8
0
  0
POLYLINE
  8
EBENE_1
 62
     4
  6
CONTINUOUS
 66
     1
 40
0.003000
 41
0.003000
  0
VERTEX
  8
EBENE_1
 62
     4
  6
CONTINUOUS
 10
-1.235685
 20
4.343280
  0
VERTEX
  8
EBENE_1
 62
     4
  6
CONTINUOUS
 10
-1.138535
 20
4.440429
  0
SEQEND
  8
0
  0
POLYLINE
  8
EBENE_1
 62
     4
  6
CONTINUOUS
 66
     1
 40
0.003000
 41
0.003000
  0
VERTEX
  8
EBENE_1
 62
     4
  6
CONTINUOUS
 10
-1.235685
 20
4.343280
  0
VERTEX
  8
EBENE_1
 62
     4
  6
CONTINUOUS
 10
-1.138535
 20
4.440429
  0
SEQEND
  8
0
  0
POLYLINE
  8
EBENE_1
 62
     4
  6
CONTINUOUS
 66
     1
 40
0.003000
 41
0.003000
  0
VERTEX
  8
EBENE_1
 62
     4
  6
CONTINUOUS
 10
-1.194618
 20
4.440429
  0
VERTEX
  8
EBENE_1
 62
     4
  6
CONTINUOUS
 10
-1.291764
 20
4.343280
  0
SEQEND
  8
0
  0
POLYLINE
  8
EBENE_1
 62
     4
  6
CONTINUOUS
 66
     1
 40
0.003000
 41
0.003000
  0
VERTEX
  8
EBENE_1
 62
     4
  6
CONTINUOUS
 10
-1.194618
 20
4.440429
  0
VERTEX
  8
EBENE_1
 62
     4
  6
CONTINUOUS
 10
-1.291764
 20
4.343280
  0
SEQEND
  8
0
  0
POLYLINE
  8
EBENE_1
 62
     4
  6
CONTINUOUS
 66
     1
 40
0.003000
 41
0.003000
  0
VERTEX
  8
EBENE_1
 62
     4
  6
CONTINUOUS
 10
-1.250697
 20
4.440429
  0
VERTEX
  8
EBENE_1
 62
     4
  6
CONTINUOUS
 10
-1.347843
 20
4.343280
  0
SEQEND
  8
0
  0
POLYLINE
  8
EBENE_1
 62
     4
  6
CONTINUOUS
 66
     1
 40
0.003000
 41
0.003000
  0
VERTEX
  8
EBENE_1
 62
     4
  6
CONTINUOUS
 10
-1.250697
 20
4.440429
  0
VERTEX
  8
EBENE_1
 62
     4
  6
CONTINUOUS
 10
-1.347843
 20
4.343280
  0
SEQEND
  8
0
  0
POLYLINE
  8
EBENE_1
 62
     4
  6
CONTINUOUS
 66
     1
 40
0.003000
 41
0.003000
  0
VERTEX
  8
EBENE_1
 62
     4
  6
CONTINUOUS
 10
-1.306776
 20
4.440429
  0
VERTEX
  8
EBENE_1
 62
     4
  6
CONTINUOUS
 10
-1.403925
 20
4.343280
  0
SEQEND
  8
0
  0
POLYLINE
  8
EBENE_1
 62
     4
  6
CONTINUOUS
 66
     1
 40
0.003000
 41
0.003000
  0
VERTEX
  8
EBENE_1
 62
     4
  6
CONTINUOUS
 10
-1.306776
 20
4.440429
  0
VERTEX
  8
EBENE_1
 62
     4
  6
CONTINUOUS
 10
-1.403925
 20
4.343280
  0
SEQEND
  8
0
  0
POLYLINE
  8
EBENE_1
  6
CONTINUOUS
 66
     1
 40
0.003000
 41
0.003000
  0
VERTEX
  8
EBENE_1
  6
CONTINUOUS
 10
-1.726295
 20
4.393614
  0
VERTEX
  8
EBENE_1
  6
CONTINUOUS
 10
-2.671606
 20
4.476315
  0
SEQEND
  8
0
  0
POLYLINE
  8
EBENE_1
  6
CONTINUOUS
 66
     1
 40
0.003000
 41
0.003000
  0
VERTEX
  8
EBENE_1
  6
CONTINUOUS
 10
-1.726295
 20
4.393614
  0
VERTEX
  8
EBENE_1
  6
CONTINUOUS
 10
-2.671606
 20
4.476315
  0
SEQEND
  8
0
  0
POLYLINE
  8
EBENE_1
  6
CONTINUOUS
 66
     1
 40
0.003000
 41
0.003000
  0
VERTEX
  8
EBENE_1
  6
CONTINUOUS
 10
-2.947272
 20
4.273512
  0
VERTEX
  8
EBENE_1
  6
CONTINUOUS
 10
-2.670752
 20
4.297705
  0
SEQEND
  8
0
  0
POLYLINE
  8
EBENE_1
  6
CONTINUOUS
 66
     1
 40
0.003000
 41
0.003000
  0
VERTEX
  8
EBENE_1
  6
CONTINUOUS
 10
-2.947272
 20
4.273512
  0
VERTEX
  8
EBENE_1
  6
CONTINUOUS
 10
-2.670752
 20
4.297705
  0
SEQEND
  8
0
  0
POLYLINE
  8
EBENE_1
  6
CONTINUOUS
 66
     1
 40
0.003000
 41
0.003000
  0
VERTEX
  8
EBENE_1
  6
CONTINUOUS
 10
-2.946059
 20
4.259685
  0
VERTEX
  8
EBENE_1
  6
CONTINUOUS
 10
-2.669543
 20
4.283874
  0
SEQEND
  8
0
  0
POLYLINE
  8
EBENE_1
  6
CONTINUOUS
 66
     1
 40
0.003000
 41
0.003000
  0
VERTEX
  8
EBENE_1
  6
CONTINUOUS
 10
-2.946059
 20
4.259685
  0
VERTEX
  8
EBENE_1
  6
CONTINUOUS
 10
-2.669543
 20
4.283874
  0
SEQEND
  8
0
  0
POLYLINE
  8
EBENE_1
 62
     4
  6
CONTINUOUS
 66
     1
 40
0.003000
 41
0.003000
  0
VERTEX
  8
EBENE_1
 62
     4
  6
CONTINUOUS
 10
-1.448724
 20
4.344406
  0
VERTEX
  8
EBENE_1
 62
     4
  6
CONTINUOUS
 10
-1.447602
 20
4.343280
  0
SEQEND
  8
0
  0
POLYLINE
  8
EBENE_1
 62
     4
  6
CONTINUOUS
 66
     1
 40
0.003000
 41
0.003000
  0
VERTEX
  8
EBENE_1
 62
     4
  6
CONTINUOUS
 10
-1.448724
 20
4.344406
  0
VERTEX
  8
EBENE_1
 62
     4
  6
CONTINUOUS
 10
-1.447602
 20
4.343280
  0
SEQEND
  8
0
  0
POLYLINE
  8
EBENE_1
 62
     4
  6
CONTINUOUS
 66
     1
 40
0.003000
 41
0.003000
  0
VERTEX
  8
EBENE_1
 62
     4
  6
CONTINUOUS
 10
-1.448724
 20
4.400480
  0
VERTEX
  8
EBENE_1
 62
     4
  6
CONTINUOUS
 10
-1.391516
 20
4.343280
  0
SEQEND
  8
0
  0
POLYLINE
  8
EBENE_1
 62
     4
  6
CONTINUOUS
 66
     1
 40
0.003000
 41
0.003000
  0
VERTEX
  8
EBENE_1
 62
     4
  6
CONTINUOUS
 10
-1.448724
 20
4.400480
  0
VERTEX
  8
EBENE_1
 62
     4
  6
CONTINUOUS
 10
-1.391516
 20
4.343280
  0
SEQEND
  8
0
  0
POLYLINE
  8
EBENE_1
 62
     4
  6
CONTINUOUS
 66
     1
 40
0.003000
 41
0.003000
  0
VERTEX
  8
EBENE_1
 62
     4
  6
CONTINUOUS
 10
-1.432598
 20
4.440429
  0
VERTEX
  8
EBENE_1
 62
     4
  6
CONTINUOUS
 10
-1.335445
 20
4.343280
  0
SEQEND
  8
0
  0
POLYLINE
  8
EBENE_1
 62
     4
  6
CONTINUOUS
 66
     1
 40
0.003000
 41
0.003000
  0
VERTEX
  8
EBENE_1
 62
     4
  6
CONTINUOUS
 10
-1.432598
 20
4.440429
  0
VERTEX
  8
EBENE_1
 62
     4
  6
CONTINUOUS
 10
-1.335445
 20
4.343280
  0
SEQEND
  8
0
  0
POLYLINE
  8
EBENE_1
 62
     4
  6
CONTINUOUS
 66
     1
 40
0.003000
 41
0.003000
  0
VERTEX
  8
EBENE_1
 62
     4
  6
CONTINUOUS
 10
-1.376516
 20
4.440429
  0
VERTEX
  8
EBENE_1
 62
     4
  6
CONTINUOUS
 10
-1.279370
 20
4.343280
  0
SEQEND
  8
0
  0
POLYLINE
  8
EBENE_1
 62
     4
  6
CONTINUOUS
 66
     1
 40
0.003000
 41
0.003000
  0
VERTEX
  8
EBENE_1
 62
     4
  6
CONTINUOUS
 10
-1.376516
 20
4.440429
  0
VERTEX
  8
EBENE_1
 62
     4
  6
CONTINUOUS
 10
-1.279370
 20
4.343280
  0
SEQEND
  8
0
  0
POLYLINE
  8
EBENE_1
 62
     4
  6
CONTINUOUS
 66
     1
 40
0.003000
 41
0.003000
  0
VERTEX
  8
EBENE_1
 62
     4
  6
CONTINUOUS
 10
-1.320437
 20
4.440429
  0
VERTEX
  8
EBENE_1
 62
     4
  6
CONTINUOUS
 10
-1.223291
 20
4.343280
  0
SEQEND
  8
0
  0
POLYLINE
  8
EBENE_1
 62
     4
  6
CONTINUOUS
 66
     1
 40
0.003000
 41
0.003000
  0
VERTEX
  8
EBENE_1
 62
     4
  6
CONTINUOUS
 10
-1.320437
 20
4.440429
  0
VERTEX
  8
EBENE_1
 62
     4
  6
CONTINUOUS
 10
-1.223291
 20
4.343280
  0
SEQEND
  8
0
  0
POLYLINE
  8
EBENE_1
 62
     4
  6
CONTINUOUS
 66
     1
 40
0.003000
 41
0.003000
  0
VERTEX
  8
EBENE_1
 62
     4
  6
CONTINUOUS
 10
-1.167209
 20
4.343280
  0
VERTEX
  8
EBENE_1
 62
     4
  6
CONTINUOUS
 10
-1.264362
 20
4.440429
  0
SEQEND
  8
0
  0
POLYLINE
  8
EBENE_1
 62
     4
  6
CONTINUOUS
 66
     1
 40
0.003000
 41
0.003000
  0
VERTEX
  8
EBENE_1
 62
     4
  6
CONTINUOUS
 10
-1.167209
 20
4.343280
  0
VERTEX
  8
EBENE_1
 62
     4
  6
CONTINUOUS
 10
-1.264362
 20
4.440429
  0
SEQEND
  8
0
  0
POLYLINE
  8
EBENE_1
 62
     4
  6
CONTINUOUS
 66
     1
 40
0.003000
 41
0.003000
  0
VERTEX
  8
EBENE_1
 62
     4
  6
CONTINUOUS
 10
-1.208283
 20
4.440429
  0
VERTEX
  8
EBENE_1
 62
     4
  6
CONTINUOUS
 10
-1.111130
 20
4.343280
  0
SEQEND
  8
0
  0
POLYLINE
  8
EBENE_1
 62
     4
  6
CONTINUOUS
 66
     1
 40
0.003000
 41
0.003000
  0
VERTEX
  8
EBENE_1
 62
     4
  6
CONTINUOUS
 10
-1.208283
 20
4.440429
  0
VERTEX
  8
EBENE_1
 62
     4
  6
CONTINUOUS
 10
-1.111130
 20
4.343280
  0
SEQEND
  8
0
  0
POLYLINE
  8
EBENE_1
 62
     4
  6
CONTINUOUS
 66
     1
 40
0.003000
 41
0.003000
  0
VERTEX
  8
EBENE_1
 62
     4
  6
CONTINUOUS
 10
-1.055055
 20
4.343280
  0
VERTEX
  8
EBENE_1
 62
     4
  6
CONTINUOUS
 10
-1.152205
 20
4.440429
  0
SEQEND
  8
0
  0
POLYLINE
  8
EBENE_1
 62
     4
  6
CONTINUOUS
 66
     1
 40
0.003000
 41
0.003000
  0
VERTEX
  8
EBENE_1
 62
     4
  6
CONTINUOUS
 10
-1.055055
 20
4.343280
  0
VERTEX
  8
EBENE_1
 62
     4
  6
CONTINUOUS
 10
-1.152205
 20
4.440429
  0
SEQEND
  8
0
  0
POLYLINE
  8
EBENE_1
 62
     4
  6
CONTINUOUS
 66
     1
 40
0.003000
 41
0.003000
  0
VERTEX
  8
EBENE_1
 62
     4
  6
CONTINUOUS
 10
-1.096134
 20
4.440429
  0
VERTEX
  8
EBENE_1
 62
     4
  6
CONTINUOUS
 10
-0.998976
 20
4.343280
  0
SEQEND
  8
0
  0
POLYLINE
  8
EBENE_1
 62
     4
  6
CONTINUOUS
 66
     1
 40
0.003000
 41
0.003000
  0
VERTEX
  8
EBENE_1
 62
     4
  6
CONTINUOUS
 10
-1.096134
 20
4.440429
  0
VERTEX
  8
EBENE_1
 62
     4
  6
CONTINUOUS
 10
-0.998976
 20
4.343280
  0
SEQEND
  8
0
  0
POLYLINE
  8
EBENE_1
 62
     4
  6
CONTINUOUS
 66
     1
 40
0.003000
 41
0.003000
  0
VERTEX
  8
EBENE_1
 62
     4
  6
CONTINUOUS
 10
-0.942898
 20
4.343280
  0
VERTEX
  8
EBENE_1
 62
     4
  6
CONTINUOUS
 10
-1.040055
 20
4.440429
  0
SEQEND
  8
0
  0
POLYLINE
  8
EBENE_1
 62
     4
  6
CONTINUOUS
 66
     1
 40
0.003000
 41
0.003000
  0
VERTEX
  8
EBENE_1
 62
     4
  6
CONTINUOUS
 10
-0.942898
 20
4.343280
  0
VERTEX
  8
EBENE_1
 62
     4
  6
CONTINUOUS
 10
-1.040055
 20
4.440429
  0
SEQEND
  8
0
  0
POLYLINE
  8
EBENE_1
 62
     4
  6
CONTINUOUS
 66
     1
 40
0.003000
 41
0.003000
  0
VERTEX
  8
EBENE_1
 62
     4
  6
CONTINUOUS
 10
-0.983972
 20
4.440429
  0
VERTEX
  8
EBENE_1
 62
     4
  6
CONTINUOUS
 10
-0.886827
 20
4.343280
  0
SEQEND
  8
0
  0
POLYLINE
  8
EBENE_1
 62
     4
  6
CONTINUOUS
 66
     1
 40
0.003000
 41
0.003000
  0
VERTEX
  8
EBENE_1
 62
     4
  6
CONTINUOUS
 10
-0.983972
 20
4.440429
  0
VERTEX
  8
EBENE_1
 62
     4
  6
CONTINUOUS
 10
-0.886827
 20
4.343280
  0
SEQEND
  8
0
  0
POLYLINE
  8
EBENE_1
 62
     4
  6
CONTINUOUS
 66
     1
 40
0.003000
 41
0.003000
  0
VERTEX
  8
EBENE_1
 62
     4
  6
CONTINUOUS
 10
-0.830748
 20
4.343280
  0
VERTEX
  8
EBENE_1
 62
     4
  6
CONTINUOUS
 10
-0.927898
 20
4.440429
  0
SEQEND
  8
0
  0
POLYLINE
  8
EBENE_1
 62
     4
  6
CONTINUOUS
 66
     1
 40
0.003000
 41
0.003000
  0
VERTEX
  8
EBENE_1
 62
     4
  6
CONTINUOUS
 10
-0.830748
 20
4.343280
  0
VERTEX
  8
EBENE_1
 62
     4
  6
CONTINUOUS
 10
-0.927898
 20
4.440429
  0
SEQEND
  8
0
  0
POLYLINE
  8
EBENE_1
 62
     4
  6
CONTINUOUS
 66
     1
 40
0.003000
 41
0.003000
  0
VERTEX
  8
EBENE_1
 62
     4
  6
CONTINUOUS
 10
-0.871819
 20
4.440429
  0
VERTEX
  8
EBENE_1
 62
     4
  6
CONTINUOUS
 10
-0.774673
 20
4.343280
  0
SEQEND
  8
0
  0
POLYLINE
  8
EBENE_1
 62
     4
  6
CONTINUOUS
 66
     1
 40
0.003000
 41
0.003000
  0
VERTEX
  8
EBENE_1
 62
     4
  6
CONTINUOUS
 10
-0.871819
 20
4.440429
  0
VERTEX
  8
EBENE_1
 62
     4
  6
CONTINUOUS
 10
-0.774673
 20
4.343280
  0
SEQEND
  8
0
  0
POLYLINE
  8
EBENE_1
 62
     4
  6
CONTINUOUS
 66
     1
 40
0.003000
 41
0.003000
  0
VERTEX
  8
EBENE_1
 62
     4
  6
CONTINUOUS
 10
-0.718591
 20
4.343280
  0
VERTEX
  8
EBENE_1
 62
     4
  6
CONTINUOUS
 10
-0.815740
 20
4.440429
  0
SEQEND
  8
0
  0
POLYLINE
  8
EBENE_1
 62
     4
  6
CONTINUOUS
 66
     1
 40
0.003000
 41
0.003000
  0
VERTEX
  8
EBENE_1
 62
     4
  6
CONTINUOUS
 10
-0.718591
 20
4.343280
  0
VERTEX
  8
EBENE_1
 62
     4
  6
CONTINUOUS
 10
-0.815740
 20
4.440429
  0
SEQEND
  8
0
  0
POLYLINE
  8
EBENE_1
 62
     4
  6
CONTINUOUS
 66
     1
 40
0.003000
 41
0.003000
  0
VERTEX
  8
EBENE_1
 62
     4
  6
CONTINUOUS
 10
-0.759661
 20
4.440429
  0
VERTEX
  8
EBENE_1
 62
     4
  6
CONTINUOUS
 10
-0.662512
 20
4.343280
  0
SEQEND
  8
0
  0
POLYLINE
  8
EBENE_1
 62
     4
  6
CONTINUOUS
 66
     1
 40
0.003000
 41
0.003000
  0
VERTEX
  8
EBENE_1
 62
     4
  6
CONTINUOUS
 10
-0.759661
 20
4.440429
  0
VERTEX
  8
EBENE_1
 62
     4
  6
CONTINUOUS
 10
-0.662512
 20
4.343280
  0
SEQEND
  8
0
  0
POLYLINE
  8
EBENE_1
 62
     4
  6
CONTINUOUS
 66
     1
 40
0.003000
 41
0.003000
  0
VERTEX
  8
EBENE_1
 62
     4
  6
CONTINUOUS
 10
-0.606433
 20
4.343280
  0
VERTEX
  8
EBENE_1
 62
     4
  6
CONTINUOUS
 10
-0.703587
 20
4.440429
  0
SEQEND
  8
0
  0
POLYLINE
  8
EBENE_1
 62
     4
  6
CONTINUOUS
 66
     1
 40
0.003000
 41
0.003000
  0
VERTEX
  8
EBENE_1
 62
     4
  6
CONTINUOUS
 10
-0.606433
 20
4.343280
  0
VERTEX
  8
EBENE_1
 62
     4
  6
CONTINUOUS
 10
-0.703587
 20
4.440429
  0
SEQEND
  8
0
  0
POLYLINE
  8
EBENE_1
 62
     4
  6
CONTINUOUS
 66
     1
 40
0.003000
 41
0.003000
  0
VERTEX
  8
EBENE_1
 62
     4
  6
CONTINUOUS
 10
-0.647512
 20
4.440429
  0
VERTEX
  8
EBENE_1
 62
     4
  6
CONTINUOUS
 10
-0.550366
 20
4.343280
  0
SEQEND
  8
0
  0
POLYLINE
  8
EBENE_1
 62
     4
  6
CONTINUOUS
 66
     1
 40
0.003000
 41
0.003000
  0
VERTEX
  8
EBENE_1
 62
     4
  6
CONTINUOUS
 10
-0.647512
 20
4.440429
  0
VERTEX
  8
EBENE_1
 62
     4
  6
CONTINUOUS
 10
-0.550366
 20
4.343280
  0
SEQEND
  8
0
  0
POLYLINE
  8
EBENE_1
 62
     4
  6
CONTINUOUS
 66
     1
 40
0.003000
 41
0.003000
  0
VERTEX
  8
EBENE_1
 62
     4
  6
CONTINUOUS
 10
-0.494283
 20
4.343280
  0
VERTEX
  8
EBENE_1
 62
     4
  6
CONTINUOUS
 10
-0.591433
 20
4.440429
  0
SEQEND
  8
0
  0
POLYLINE
  8
EBENE_1
 62
     4
  6
CONTINUOUS
 66
     1
 40
0.003000
 41
0.003000
  0
VERTEX
  8
EBENE_1
 62
     4
  6
CONTINUOUS
 10
-0.494283
 20
4.343280
  0
VERTEX
  8
EBENE_1
 62
     4
  6
CONTINUOUS
 10
-0.591433
 20
4.440429
  0
SEQEND
  8
0
  0
POLYLINE
  8
EBENE_1
 62
     4
  6
CONTINUOUS
 66
     1
 40
0.003000
 41
0.003000
  0
VERTEX
  8
EBENE_1
 62
     4
  6
CONTINUOUS
 10
-0.535358
 20
4.440429
  0
VERTEX
  8
EBENE_1
 62
     4
  6
CONTINUOUS
 10
-0.438201
 20
4.343280
  0
SEQEND
  8
0
  0
POLYLINE
  8
EBENE_1
 62
     4
  6
CONTINUOUS
 66
     1
 40
0.003000
 41
0.003000
  0
VERTEX
  8
EBENE_1
 62
     4
  6
CONTINUOUS
 10
-0.535358
 20
4.440429
  0
VERTEX
  8
EBENE_1
 62
     4
  6
CONTINUOUS
 10
-0.438201
 20
4.343280
  0
SEQEND
  8
0
  0
POLYLINE
  8
EBENE_1
 62
     4
  6
CONTINUOUS
 66
     1
 40
0.003000
 41
0.003000
  0
VERTEX
  8
EBENE_1
 62
     4
  6
CONTINUOUS
 10
-0.382130
 20
4.343280
  0
VERTEX
  8
EBENE_1
 62
     4
  6
CONTINUOUS
 10
-0.479276
 20
4.440429
  0
SEQEND
  8
0
  0
POLYLINE
  8
EBENE_1
 62
     4
  6
CONTINUOUS
 66
     1
 40
0.003000
 41
0.003000
  0
VERTEX
  8
EBENE_1
 62
     4
  6
CONTINUOUS
 10
-0.382130
 20
4.343280
  0
VERTEX
  8
EBENE_1
 62
     4
  6
CONTINUOUS
 10
-0.479276
 20
4.440429
  0
SEQEND
  8
0
  0
POLYLINE
  8
EBENE_1
 62
     4
  6
CONTINUOUS
 66
     1
 40
0.003000
 41
0.003000
  0
VERTEX
  8
EBENE_1
 62
     4
  6
CONTINUOUS
 10
-0.423201
 20
4.440429
  0
VERTEX
  8
EBENE_1
 62
     4
  6
CONTINUOUS
 10
-0.338437
 20
4.355657
  0
SEQEND
  8
0
  0
POLYLINE
  8
EBENE_1
 62
     4
  6
CONTINUOUS
 66
     1
 40
0.003000
 41
0.003000
  0
VERTEX
  8
EBENE_1
 62
     4
  6
CONTINUOUS
 10
-0.423201
 20
4.440429
  0
VERTEX
  8
EBENE_1
 62
     4
  6
CONTINUOUS
 10
-0.338437
 20
4.355657
  0
SEQEND
  8
0
  0
POLYLINE
  8
EBENE_1
 62
     4
  6
CONTINUOUS
 66
     1
 40
0.003000
 41
0.003000
  0
VERTEX
  8
EBENE_1
 62
     4
  6
CONTINUOUS
 10
-0.338437
 20
4.411740
  0
VERTEX
  8
EBENE_1
 62
     4
  6
CONTINUOUS
 10
-0.367122
 20
4.440429
  0
SEQEND
  8
0
  0
POLYLINE
  8
EBENE_1
 62
     4
  6
CONTINUOUS
 66
     1
 40
0.003000
 41
0.003000
  0
VERTEX
  8
EBENE_1
 62
     4
  6
CONTINUOUS
 10
-0.338437
 20
4.411740
  0
VERTEX
  8
EBENE_1
 62
     4
  6
CONTINUOUS
 10
-0.367122
 20
4.440429
  0
SEQEND
  8
0
  0
POLYLINE
  8
EBENE_1
  6
CONTINUOUS
 66
     1
 40
0.003000
 41
0.003000
  0
VERTEX
  8
EBENE_1
  6
CONTINUOUS
 10
-2.946059
 20
4.524020
  0
VERTEX
  8
EBENE_1
  6
CONTINUOUS
 10
-2.947272
 20
4.510189
  0
SEQEND
  8
0
  0
POLYLINE
  8
EBENE_1
  6
CONTINUOUS
 66
     1
 40
0.003000
 41
0.003000
  0
VERTEX
  8
EBENE_1
  6
CONTINUOUS
 10
-2.946059
 20
4.524020
  0
VERTEX
  8
EBENE_1
  6
CONTINUOUS
 10
-2.947272
 20
4.510189
  0
SEQEND
  8
0
  0
POLYLINE
  8
EBENE_1
 62
     2
  6
CONTINUOUS
 66
     1
 40
0.003000
 41
0.003000
 70
     1
  0
VERTEX
  8
EBENE_1
 62
     2
  6
CONTINUOUS
 10
0.789689
 20
3.011980
  0
VERTEX
  8
EBENE_1
 62
     2
  6
CONTINUOUS
 10
0.789689
 20
3.051142
  0
VERTEX
  8
EBENE_1
 62
     2
  6
CONTINUOUS
 10
0.938390
 20
3.031563
  0
SEQEND
  8
0
  0
POLYLINE
  8
EBENE_1
 62
     2
  6
CONTINUOUS
 66
     1
 40
0.003000
 41
0.003000
 70
     1
  0
VERTEX
  8
EBENE_1
 62
     2
  6
CONTINUOUS
 10
0.789689
 20
3.011980
  0
VERTEX
  8
EBENE_1
 62
     2
  6
CONTINUOUS
 10
0.789689
 20
3.051142
  0
VERTEX
  8
EBENE_1
 62
     2
  6
CONTINUOUS
 10
0.938390
 20
3.031563
  0
SEQEND
  8
0
  0
POLYLINE
  8
EBENE_1
 62
     2
  6
CONTINUOUS
 66
     1
 40
0.003000
 41
0.003000
 70
     1
  0
VERTEX
  8
EBENE_1
 62
     2
  6
CONTINUOUS
 10
-2.797362
 20
3.011980
  0
VERTEX
  8
EBENE_1
 62
     2
  6
CONTINUOUS
 10
-2.797362
 20
3.051142
  0
VERTEX
  8
EBENE_1
 62
     2
  6
CONTINUOUS
 10
-2.946059
 20
3.031563
  0
SEQEND
  8
0
  0
POLYLINE
  8
EBENE_1
 62
     2
  6
CONTINUOUS
 66
     1
 40
0.003000
 41
0.003000
 70
     1
  0
VERTEX
  8
EBENE_1
 62
     2
  6
CONTINUOUS
 10
-2.797362
 20
3.011980
  0
VERTEX
  8
EBENE_1
 62
     2
  6
CONTINUOUS
 10
-2.797362
 20
3.051142
  0
VERTEX
  8
EBENE_1
 62
     2
  6
CONTINUOUS
 10
-2.946059
 20
3.031563
  0
SEQEND
  8
0
  0
POLYLINE
  8
EBENE_1
 62
     2
  6
CONTINUOUS
 66
     1
 40
0.003000
 41
0.003000
  0
VERTEX
  8
EBENE_1
 62
     2
  6
CONTINUOUS
 10
-2.946059
 20
3.031563
  0
VERTEX
  8
EBENE_1
 62
     2
  6
CONTINUOUS
 10
0.938390
 20
3.031563
  0
SEQEND
  8
0
  0
POLYLINE
  8
EBENE_1
 62
     2
  6
CONTINUOUS
 66
     1
 40
0.003000
 41
0.003000
  0
VERTEX
  8
EBENE_1
 62
     2
  6
CONTINUOUS
 10
-2.946059
 20
3.031563
  0
VERTEX
  8
EBENE_1
 62
     2
  6
CONTINUOUS
 10
0.938390
 20
3.031563
  0
SEQEND
  8
0
  0
TEXT
  8
EBENE_1
 10
-1.069264
 20
3.104913
 40
0.144342
  1
KL
 41
1.000000
  7
SN0
 71
     0
 72
     5
 11
-0.913753
 21
3.104913
  0
POLYLINE
  8
EBENE_1
 62
     4
  6
CONTINUOUS
 66
     1
 40
0.003000
 41
0.003000
  0
VERTEX
  8
EBENE_1
 62
     4
  6
CONTINUOUS
 10
-2.946059
 20
4.259685
  0
VERTEX
  8
EBENE_1
 62
     4
  6
CONTINUOUS
 10
-2.946059
 20
2.991909
  0
SEQEND
  8
0
  0
POLYLINE
  8
EBENE_1
 62
     4
  6
CONTINUOUS
 66
     1
 40
0.003000
 41
0.003000
  0
VERTEX
  8
EBENE_1
 62
     4
  6
CONTINUOUS
 10
-2.946059
 20
4.259685
  0
VERTEX
  8
EBENE_1
 62
     4
  6
CONTINUOUS
 10
-2.946059
 20
2.991909
  0
SEQEND
  8
0
  0
POLYLINE
  8
EBENE_1
 62
     4
  6
CONTINUOUS
 66
     1
 40
0.003000
 41
0.003000
  0
VERTEX
  8
EBENE_1
 62
     4
  6
CONTINUOUS
 10
0.938390
 20
4.142035
  0
VERTEX
  8
EBENE_1
 62
     4
  6
CONTINUOUS
 10
0.938390
 20
2.991909
  0
SEQEND
  8
0
  0
POLYLINE
  8
EBENE_1
 62
     4
  6
CONTINUOUS
 66
     1
 40
0.003000
 41
0.003000
  0
VERTEX
  8
EBENE_1
 62
     4
  6
CONTINUOUS
 10
0.938390
 20
4.142035
  0
VERTEX
  8
EBENE_1
 62
     4
  6
CONTINUOUS
 10
0.938390
 20
2.991909
  0
SEQEND
  8
0
  0
POLYLINE
  8
EBENE_1
 62
     2
  6
CONTINUOUS
 66
     1
 40
0.003000
 41
0.003000
 70
     1
  0
VERTEX
  8
EBENE_1
 62
     2
  6
CONTINUOUS
 10
-1.708453
 20
3.428339
  0
VERTEX
  8
EBENE_1
 62
     2
  6
CONTINUOUS
 10
-1.708453
 20
3.467504
  0
VERTEX
  8
EBENE_1
 62
     2
  6
CONTINUOUS
 10
-1.559756
 20
3.447917
  0
SEQEND
  8
0
  0
POLYLINE
  8
EBENE_1
 62
     2
  6
CONTINUOUS
 66
     1
 40
0.003000
 41
0.003000
 70
     1
  0
VERTEX
  8
EBENE_1
 62
     2
  6
CONTINUOUS
 10
-1.708453
 20
3.428339
  0
VERTEX
  8
EBENE_1
 62
     2
  6
CONTINUOUS
 10
-1.708453
 20
3.467504
  0
VERTEX
  8
EBENE_1
 62
     2
  6
CONTINUOUS
 10
-1.559756
 20
3.447917
  0
SEQEND
  8
0
  0
POLYLINE
  8
EBENE_1
 62
     2
  6
CONTINUOUS
 66
     1
 40
0.003000
 41
0.003000
 70
     1
  0
VERTEX
  8
EBENE_1
 62
     2
  6
CONTINUOUS
 10
-2.797362
 20
3.428339
  0
VERTEX
  8
EBENE_1
 62
     2
  6
CONTINUOUS
 10
-2.797362
 20
3.467504
  0
VERTEX
  8
EBENE_1
 62
     2
  6
CONTINUOUS
 10
-2.946059
 20
3.447917
  0
SEQEND
  8
0
  0
POLYLINE
  8
EBENE_1
 62
     2
  6
CONTINUOUS
 66
     1
 40
0.003000
 41
0.003000
 70
     1
  0
VERTEX
  8
EBENE_1
 62
     2
  6
CONTINUOUS
 10
-2.797362
 20
3.428339
  0
VERTEX
  8
EBENE_1
 62
     2
  6
CONTINUOUS
 10
-2.797362
 20
3.467504
  0
VERTEX
  8
EBENE_1
 62
     2
  6
CONTINUOUS
 10
-2.946059
 20
3.447917
  0
SEQEND
  8
0
  0
POLYLINE
  8
EBENE_1
 62
     2
  6
CONTINUOUS
 66
     1
 40
0.003000
 41
0.003000
  0
VERTEX
  8
EBENE_1
 62
     2
  6
CONTINUOUS
 10
-2.946059
 20
3.447917
  0
VERTEX
  8
EBENE_1
 62
     2
  6
CONTINUOUS
 10
-1.559756
 20
3.447917
  0
SEQEND
  8
0
  0
POLYLINE
  8
EBENE_1
 62
     2
  6
CONTINUOUS
 66
     1
 40
0.003000
 41
0.003000
  0
VERTEX
  8
EBENE_1
 62
     2
  6
CONTINUOUS
 10
-2.946059
 20
3.447917
  0
VERTEX
  8
EBENE_1
 62
     2
  6
CONTINUOUS
 10
-1.559756
 20
3.447917
  0
SEQEND
  8
0
  0
TEXT
  8
EBENE_1
 10
-2.306441
 20
3.521272
 40
0.144342
  1
50
 41
1.000000
  7
SN0
 71
     0
 72
     5
 11
-2.121386
 21
3.521272
  0
POLYLINE
  8
EBENE_1
 62
     4
  6
CONTINUOUS
 66
     1
 40
0.003000
 41
0.003000
  0
VERTEX
  8
EBENE_1
 62
     4
  6
CONTINUOUS
 10
-1.559756
 20
4.308579
  0
VERTEX
  8
EBENE_1
 62
     4
  6
CONTINUOUS
 10
-1.559756
 20
3.408268
  0
SEQEND
  8
0
  0
POLYLINE
  8
EBENE_1
 62
     4
  6
CONTINUOUS
 66
     1
 40
0.003000
 41
0.003000
  0
VERTEX
  8
EBENE_1
 62
     4
  6
CONTINUOUS
 10
-1.559756
 20
4.308579
  0
VERTEX
  8
EBENE_1
 62
     4
  6
CONTINUOUS
 10
-1.559756
 20
3.408268
  0
SEQEND
  8
0
  0
POLYLINE
  8
EBENE_1
 62
     2
  6
CONTINUOUS
 66
     1
 40
0.003000
 41
0.003000
 70
     1
  0
VERTEX
  8
EBENE_1
 62
     2
  6
CONTINUOUS
 10
-3.094756
 20
3.866496
  0
VERTEX
  8
EBENE_1
 62
     2
  6
CONTINUOUS
 10
-3.094756
 20
3.905657
  0
VERTEX
  8
EBENE_1
 62
     2
  6
CONTINUOUS
 10
-2.946059
 20
3.886075
  0
SEQEND
  8
0
  0
POLYLINE
  8
EBENE_1
 62
     2
  6
CONTINUOUS
 66
     1
 40
0.003000
 41
0.003000
 70
     1
  0
VERTEX
  8
EBENE_1
 62
     2
  6
CONTINUOUS
 10
-3.094756
 20
3.866496
  0
VERTEX
  8
EBENE_1
 62
     2
  6
CONTINUOUS
 10
-3.094756
 20
3.905657
  0
VERTEX
  8
EBENE_1
 62
     2
  6
CONTINUOUS
 10
-2.946059
 20
3.886075
  0
SEQEND
  8
0
  0
POLYLINE
  8
EBENE_1
 62
     2
  6
CONTINUOUS
 66
     1
 40
0.003000
 41
0.003000
 70
     1
  0
VERTEX
  8
EBENE_1
 62
     2
  6
CONTINUOUS
 10
-2.520000
 20
3.905657
  0
VERTEX
  8
EBENE_1
 62
     2
  6
CONTINUOUS
 10
-2.520000
 20
3.866496
  0
VERTEX
  8
EBENE_1
 62
     2
  6
CONTINUOUS
 10
-2.668701
 20
3.886075
  0
SEQEND
  8
0
  0
POLYLINE
  8
EBENE_1
 62
     2
  6
CONTINUOUS
 66
     1
 40
0.003000
 41
0.003000
 70
     1
  0
VERTEX
  8
EBENE_1
 62
     2
  6
CONTINUOUS
 10
-2.520000
 20
3.905657
  0
VERTEX
  8
EBENE_1
 62
     2
  6
CONTINUOUS
 10
-2.520000
 20
3.866496
  0
VERTEX
  8
EBENE_1
 62
     2
  6
CONTINUOUS
 10
-2.668701
 20
3.886075
  0
SEQEND
  8
0
  0
POLYLINE
  8
EBENE_1
 62
     2
  6
CONTINUOUS
 66
     1
 40
0.003000
 41
0.003000
  0
VERTEX
  8
EBENE_1
 62
     2
  6
CONTINUOUS
 10
-2.946059
 20
3.886075
  0
VERTEX
  8
EBENE_1
 62
     2
  6
CONTINUOUS
 10
-2.668701
 20
3.886075
  0
SEQEND
  8
0
  0
POLYLINE
  8
EBENE_1
 62
     2
  6
CONTINUOUS
 66
     1
 40
0.003000
 41
0.003000
  0
VERTEX
  8
EBENE_1
 62
     2
  6
CONTINUOUS
 10
-2.946059
 20
3.886075
  0
VERTEX
  8
EBENE_1
 62
     2
  6
CONTINUOUS
 10
-2.668701
 20
3.886075
  0
SEQEND
  8
0
  0
POLYLINE
  8
EBENE_1
 62
     2
  6
CONTINUOUS
 66
     1
 40
0.003000
 41
0.003000
  0
VERTEX
  8
EBENE_1
 62
     2
  6
CONTINUOUS
 10
-3.277165
 20
3.886075
  0
VERTEX
  8
EBENE_1
 62
     2
  6
CONTINUOUS
 10
-2.946059
 20
3.886075
  0
SEQEND
  8
0
  0
POLYLINE
  8
EBENE_1
 62
     2
  6
CONTINUOUS
 66
     1
 40
0.003000
 41
0.003000
  0
VERTEX
  8
EBENE_1
 62
     2
  6
CONTINUOUS
 10
-3.277165
 20
3.886075
  0
VERTEX
  8
EBENE_1
 62
     2
  6
CONTINUOUS
 10
-2.946059
 20
3.886075
  0
SEQEND
  8
0
  0
POLYLINE
  8
EBENE_1
 62
     2
  6
CONTINUOUS
 66
     1
 40
0.003000
 41
0.003000
  0
VERTEX
  8
EBENE_1
 62
     2
  6
CONTINUOUS
 10
-2.272165
 20
3.886075
  0
VERTEX
  8
EBENE_1
 62
     2
  6
CONTINUOUS
 10
-2.668701
 20
3.886075
  0
SEQEND
  8
0
  0
POLYLINE
  8
EBENE_1
 62
     2
  6
CONTINUOUS
 66
     1
 40
0.003000
 41
0.003000
  0
VERTEX
  8
EBENE_1
 62
     2
  6
CONTINUOUS
 10
-2.272165
 20
3.886075
  0
VERTEX
  8
EBENE_1
 62
     2
  6
CONTINUOUS
 10
-2.668701
 20
3.886075
  0
SEQEND
  8
0
  0
TEXT
  8
EBENE_1
 10
-2.386953
 20
3.959437
 40
0.144342
  1
10
 41
1.000000
  7
SN0
 71
     0
 72
     5
 11
-2.201898
 21
3.959437
  0
POLYLINE
  8
EBENE_1
 62
     4
  6
CONTINUOUS
 66
     1
 40
0.003000
 41
0.003000
  0
VERTEX
  8
EBENE_1
 62
     4
  6
CONTINUOUS
 10
-2.668701
 20
4.274201
  0
VERTEX
  8
EBENE_1
 62
     4
  6
CONTINUOUS
 10
-2.668701
 20
3.846433
  0
SEQEND
  8
0
  0
POLYLINE
  8
EBENE_1
 62
     4
  6
CONTINUOUS
 66
     1
 40
0.003000
 41
0.003000
  0
VERTEX
  8
EBENE_1
 62
     4
  6
CONTINUOUS
 10
-2.668701
 20
4.274201
  0
VERTEX
  8
EBENE_1
 62
     4
  6
CONTINUOUS
 10
-2.668701
 20
3.846433
  0
SEQEND
  8
0
  0
ENDSEC
  0
EOF
