  0
SECTION
  2
HEADER
  9
$ACADVER
  1
AC1006
  9
$EXTMIN
 10
-3.050996
 20
2.983839
  9
$EXTMAX
 10
4.139571
 20
5.001500
  9
$LTSCALE
 40
0.000394
  9
$PDMODE
 70
    35
  9
$PDSIZE
 40
0.000315
  0
ENDSEC
  0
SECTION
  2
TABLES
  0
TABLE
  2
LTYPE
 70
     9
  0
LTYPE
  2
CONTINUOUS
 70
    64
  3
Solid line
 72
    65
 73
     0
 40
0.000000
  0
LTYPE
  2
DASHED
 70
    64
  3
__ __ __ __ __ __ __ __ __ __ __ __ __ __ __
 72
    65
 73
     2
 40
0.000003
 49
0.000002
 49
-0.000001
  0
LTYPE
  2
HIDDEN
 70
    64
  3
 _ _ _ _ _ _ _ _ _ _ _ _ _ _ _ _ _ _ _ _ _ _
 72
    65
 73
     2
 40
0.000001
 49
0.000001
 49
-0.000000
  0
LTYPE
  2
CENTER
 70
    64
  3
____ _ ____ _ ____ _ ____ _ ____ _ ____ _ ____
 72
    65
 73
     4
 40
0.000008
 49
0.000005
 49
-0.000001
 49
0.000001
 49
-0.000001
  0
LTYPE
  2
PHANTOM
 70
    64
  3
_____ _ _ _____ _ _ _____ _ _ _____ _ _ ____
 72
    65
 73
     6
 40
0.000010
 49
0.000005
 49
-0.000001
 49
0.000001
 49
-0.000001
 49
0.000001
 49
-0.000001
  0
LTYPE
  2
DOT
 70
    64
  3
...............................................
 72
    65
 73
     2
 40
0.000001
 49
0.000000
 49
-0.000001
  0
LTYPE
  2
DASHDOT
 70
    64
  3
__ . __ . __ . __ . __ . __ . __ . __ . __ . __
 72
    65
 73
     4
 40
0.000004
 49
0.000002
 49
-0.000001
 49
0.000000
 49
-0.000001
  0
LTYPE
  2
BORDER
 70
    64
  3
__ __ . __ __ . __ __ . __ __ . __ __ . __ __
 72
    65
 73
     6
 40
0.000007
 49
0.000002
 49
-0.000001
 49
0.000002
 49
-0.000001
 49
0.000000
 49
-0.000001
  0
LTYPE
  2
DIVIDE
 70
    64
  3
__ . . __ . . __ . . __ . . __ . . __ . . __
 72
    65
 73
     6
 40
0.000005
 49
0.000002
 49
-0.000001
 49
0.000000
 49
-0.000001
 49
0.000000
 49
-0.000001
  0
LTYPE
  2
DOTDOT
 70
    64
  3
 . .  . .  . .  . .  . .  . . 
 72
    65
 73
     5
 40
0.000002
 49
-0.000001
 49
0.000000
 49
-0.000001
 49
0.000000
 49
-0.000001
  0
ENDTAB
  0
TABLE
  2
STYLE
 70
     2
  0
STYLE
 70
     0
  2
SN0
 40
0.000000
 41
0.000004
 50
0.000000
 71
     0
 42
0.000000
  3
AGaramond
  0
STYLE
 70
    68
  2
SV0
 40
0.000000
 41
0.000004
 50
0.000000
 71
     0
 42
0.000000
  3
AGaramond
  0
ENDTAB
  0
TABLE
  2
LAYER
 70
     5
  0
LAYER
  2
FOREGROUND
 70
    64
 62
     7
  6
CONTINUOUS
  0
LAYER
  2
BACKGROUND
 70
    65
 62
    -7
  6
CONTINUOUS
  0
LAYER
  2
AB0CF1S
 70
    64
 62
     7
  6
CONTINUOUS
  0
LAYER
  2
0O0RAH
 70
    64
 62
     7
  6
CONTINUOUS
  0
LAYER
  2
0O0ZEIT
 70
    64
 62
     7
  6
CONTINUOUS
  0
ENDTAB
  0
ENDSEC
  0
SECTION
  2
ENTITIES
  0
POLYLINE
  8
AB0CF1S
 62
     1
  6
CONTINUOUS
 66
     1
 40
0.003000
 41
0.003000
  0
VERTEX
  8
AB0CF1S
 62
     1
  6
CONTINUOUS
 10
1.349520
 20
3.318264
  0
VERTEX
  8
AB0CF1S
 62
     1
  6
CONTINUOUS
 10
1.238547
 20
2.985339
  0
SEQEND
  8
0
  0
POLYLINE
  8
AB0CF1S
 62
     1
  6
CONTINUOUS
 66
     1
 40
0.003000
 41
0.003000
  0
VERTEX
  8
AB0CF1S
 62
     1
  6
CONTINUOUS
 10
1.273965
 20
3.712839
  0
VERTEX
  8
AB0CF1S
 62
     1
  6
CONTINUOUS
 10
1.349520
 20
3.318264
  0
SEQEND
  8
0
  0
POLYLINE
  8
AB0CF1S
 62
     1
  6
CONTINUOUS
 66
     1
 40
0.003000
 41
0.003000
  0
VERTEX
  8
AB0CF1S
 62
     1
  6
CONTINUOUS
 10
1.307543
 20
4.199760
  0
VERTEX
  8
AB0CF1S
 62
     1
  6
CONTINUOUS
 10
1.273965
 20
3.712839
  0
SEQEND
  8
0
  0
POLYLINE
  8
AB0CF1S
 62
     1
  6
CONTINUOUS
 66
     1
 40
0.003000
 41
0.003000
  0
VERTEX
  8
AB0CF1S
 62
     1
  6
CONTINUOUS
 10
1.534217
 20
4.350874
  0
VERTEX
  8
AB0CF1S
 62
     1
  6
CONTINUOUS
 10
1.307543
 20
4.199760
  0
SEQEND
  8
0
  0
POLYLINE
  8
AB0CF1S
 62
     1
  6
CONTINUOUS
 66
     1
 40
0.003000
 41
0.003000
  0
VERTEX
  8
AB0CF1S
 62
     1
  6
CONTINUOUS
 10
1.836441
 20
4.292106
  0
VERTEX
  8
AB0CF1S
 62
     1
  6
CONTINUOUS
 10
1.534217
 20
4.350874
  0
SEQEND
  8
0
  0
POLYLINE
  8
AB0CF1S
 62
     1
  6
CONTINUOUS
 66
     1
 40
0.003000
 41
0.003000
  0
VERTEX
  8
AB0CF1S
 62
     1
  6
CONTINUOUS
 10
2.033874
 20
4.328004
  0
VERTEX
  8
AB0CF1S
 62
     1
  6
CONTINUOUS
 10
1.836441
 20
4.292106
  0
SEQEND
  8
0
  0
TEXT
  8
AB0CF1S
 10
-0.353492
 20
4.626165
 40
0.144026
  1
6
 41
1.000000
  7
SN0
 71
     0
 72
     5
 11
-0.261093
 21
4.626165
  0
TEXT
  8
AB0CF1S
 10
-0.353492
 20
4.268004
 40
0.144026
  1
7
 41
1.000000
  7
SN0
 71
     0
 72
     5
 11
-0.261093
 21
4.268004
  0
TEXT
  8
AB0CF1S
 10
-0.353492
 20
3.909843
 40
0.144026
  1
8
 41
1.000000
  7
SN0
 71
     0
 72
     5
 11
-0.261093
 21
3.909843
  0
TEXT
  8
AB0CF1S
 10
-0.353492
 20
3.551681
 40
0.144026
  1
9
 41
1.000000
  7
SN0
 71
     0
 72
     5
 11
-0.261093
 21
3.551681
  0
TEXT
  8
AB0CF1S
 10
-0.375878
 20
3.193520
 40
0.144026
  1
10
 41
1.000000
  7
SN0
 71
     0
 72
     5
 11
-0.191080
 21
3.193520
  0
TEXT
  8
AB0CF1S
 10
-2.072220
 20
3.193520
 40
0.144026
  1
5
 41
1.000000
  7
SN0
 71
     0
 72
     5
 11
-1.979822
 21
3.193520
  0
TEXT
  8
AB0CF1S
 10
-2.084307
 20
3.551681
 40
0.144026
  1
4
 41
1.000000
  7
SN0
 71
     0
 72
     5
 11
-1.991908
 21
3.551681
  0
TEXT
  8
AB0CF1S
 10
-2.072220
 20
3.909843
 40
0.144026
  1
3
 41
1.000000
  7
SN0
 71
     0
 72
     5
 11
-1.979822
 21
3.909843
  0
TEXT
  8
AB0CF1S
 10
-2.072220
 20
4.268004
 40
0.144026
  1
2
 41
1.000000
  7
SN0
 71
     0
 72
     5
 11
-1.979822
 21
4.268004
  0
TEXT
  8
AB0CF1S
 10
-2.048043
 20
4.626165
 40
0.144026
  1
1
 41
1.000000
  7
SN0
 71
     0
 72
     5
 11
-1.955645
 21
4.626165
  0
POLYLINE
  8
AB0CF1S
 62
     3
  6
CONTINUOUS
 66
     1
 40
0.003000
 41
0.003000
 70
     1
  0
VERTEX
  8
AB0CF1S
 62
     3
  6
CONTINUOUS
 10
-1.726819
 20
3.276346
  0
VERTEX
  8
AB0CF1S
 62
     3
  6
CONTINUOUS
 10
-1.731201
 20
3.310544
  0
VERTEX
  8
AB0CF1S
 62
     3
  6
CONTINUOUS
 10
-1.743366
 20
3.338524
  0
VERTEX
  8
AB0CF1S
 62
     3
  6
CONTINUOUS
 10
-1.761760
 20
3.360287
  0
VERTEX
  8
AB0CF1S
 62
     3
  6
CONTINUOUS
 10
-1.784824
 20
3.375832
  0
VERTEX
  8
AB0CF1S
 62
     3
  6
CONTINUOUS
 10
-1.811002
 20
3.385160
  0
VERTEX
  8
AB0CF1S
 62
     3
  6
CONTINUOUS
 10
-1.838738
 20
3.388270
  0
VERTEX
  8
AB0CF1S
 62
     3
  6
CONTINUOUS
 10
-1.866473
 20
3.385163
  0
VERTEX
  8
AB0CF1S
 62
     3
  6
CONTINUOUS
 10
-1.892652
 20
3.375837
  0
VERTEX
  8
AB0CF1S
 62
     3
  6
CONTINUOUS
 10
-1.915718
 20
3.360293
  0
VERTEX
  8
AB0CF1S
 62
     3
  6
CONTINUOUS
 10
-1.934113
 20
3.338532
  0
VERTEX
  8
AB0CF1S
 62
     3
  6
CONTINUOUS
 10
-1.946281
 20
3.310552
  0
VERTEX
  8
AB0CF1S
 62
     3
  6
CONTINUOUS
 10
-1.950665
 20
3.276354
  0
VERTEX
  8
AB0CF1S
 62
     3
  6
CONTINUOUS
 10
-1.946287
 20
3.242157
  0
VERTEX
  8
AB0CF1S
 62
     3
  6
CONTINUOUS
 10
-1.934124
 20
3.214177
  0
VERTEX
  8
AB0CF1S
 62
     3
  6
CONTINUOUS
 10
-1.915733
 20
3.192413
  0
VERTEX
  8
AB0CF1S
 62
     3
  6
CONTINUOUS
 10
-1.892671
 20
3.176866
  0
VERTEX
  8
AB0CF1S
 62
     3
  6
CONTINUOUS
 10
-1.866494
 20
3.167536
  0
VERTEX
  8
AB0CF1S
 62
     3
  6
CONTINUOUS
 10
-1.838759
 20
3.164424
  0
VERTEX
  8
AB0CF1S
 62
     3
  6
CONTINUOUS
 10
-1.811023
 20
3.167529
  0
VERTEX
  8
AB0CF1S
 62
     3
  6
CONTINUOUS
 10
-1.784844
 20
3.176852
  0
VERTEX
  8
AB0CF1S
 62
     3
  6
CONTINUOUS
 10
-1.761777
 20
3.192393
  0
VERTEX
  8
AB0CF1S
 62
     3
  6
CONTINUOUS
 10
-1.743380
 20
3.214152
  0
VERTEX
  8
AB0CF1S
 62
     3
  6
CONTINUOUS
 10
-1.731210
 20
3.242130
  0
VERTEX
  8
AB0CF1S
 62
     3
  6
CONTINUOUS
 10
-1.726823
 20
3.276327
  0
VERTEX
  8
AB0CF1S
 62
     3
  6
CONTINUOUS
 10
-1.726822
 20
3.276332
  0
VERTEX
  8
AB0CF1S
 62
     3
  6
CONTINUOUS
 10
-1.726820
 20
3.276341
  0
SEQEND
  8
0
  0
POLYLINE
  8
AB0CF1S
 62
     3
  6
CONTINUOUS
 66
     1
 40
0.003000
 41
0.003000
 70
     1
  0
VERTEX
  8
AB0CF1S
 62
     3
  6
CONTINUOUS
 10
-1.726819
 20
3.634508
  0
VERTEX
  8
AB0CF1S
 62
     3
  6
CONTINUOUS
 10
-1.731201
 20
3.668705
  0
VERTEX
  8
AB0CF1S
 62
     3
  6
CONTINUOUS
 10
-1.743366
 20
3.696686
  0
VERTEX
  8
AB0CF1S
 62
     3
  6
CONTINUOUS
 10
-1.761760
 20
3.718448
  0
VERTEX
  8
AB0CF1S
 62
     3
  6
CONTINUOUS
 10
-1.784824
 20
3.733994
  0
VERTEX
  8
AB0CF1S
 62
     3
  6
CONTINUOUS
 10
-1.811002
 20
3.743321
  0
VERTEX
  8
AB0CF1S
 62
     3
  6
CONTINUOUS
 10
-1.838738
 20
3.746432
  0
VERTEX
  8
AB0CF1S
 62
     3
  6
CONTINUOUS
 10
-1.866473
 20
3.743324
  0
VERTEX
  8
AB0CF1S
 62
     3
  6
CONTINUOUS
 10
-1.892652
 20
3.733998
  0
VERTEX
  8
AB0CF1S
 62
     3
  6
CONTINUOUS
 10
-1.915718
 20
3.718455
  0
VERTEX
  8
AB0CF1S
 62
     3
  6
CONTINUOUS
 10
-1.934113
 20
3.696693
  0
VERTEX
  8
AB0CF1S
 62
     3
  6
CONTINUOUS
 10
-1.946281
 20
3.668714
  0
VERTEX
  8
AB0CF1S
 62
     3
  6
CONTINUOUS
 10
-1.950665
 20
3.634516
  0
VERTEX
  8
AB0CF1S
 62
     3
  6
CONTINUOUS
 10
-1.946287
 20
3.600319
  0
VERTEX
  8
AB0CF1S
 62
     3
  6
CONTINUOUS
 10
-1.934124
 20
3.572338
  0
VERTEX
  8
AB0CF1S
 62
     3
  6
CONTINUOUS
 10
-1.915733
 20
3.550574
  0
VERTEX
  8
AB0CF1S
 62
     3
  6
CONTINUOUS
 10
-1.892671
 20
3.535027
  0
VERTEX
  8
AB0CF1S
 62
     3
  6
CONTINUOUS
 10
-1.866494
 20
3.525698
  0
VERTEX
  8
AB0CF1S
 62
     3
  6
CONTINUOUS
 10
-1.838759
 20
3.522585
  0
VERTEX
  8
AB0CF1S
 62
     3
  6
CONTINUOUS
 10
-1.811023
 20
3.525690
  0
VERTEX
  8
AB0CF1S
 62
     3
  6
CONTINUOUS
 10
-1.784844
 20
3.535013
  0
VERTEX
  8
AB0CF1S
 62
     3
  6
CONTINUOUS
 10
-1.761777
 20
3.550554
  0
VERTEX
  8
AB0CF1S
 62
     3
  6
CONTINUOUS
 10
-1.743380
 20
3.572314
  0
VERTEX
  8
AB0CF1S
 62
     3
  6
CONTINUOUS
 10
-1.731210
 20
3.600292
  0
VERTEX
  8
AB0CF1S
 62
     3
  6
CONTINUOUS
 10
-1.726823
 20
3.634488
  0
VERTEX
  8
AB0CF1S
 62
     3
  6
CONTINUOUS
 10
-1.726822
 20
3.634493
  0
VERTEX
  8
AB0CF1S
 62
     3
  6
CONTINUOUS
 10
-1.726820
 20
3.634503
  0
SEQEND
  8
0
  0
POLYLINE
  8
AB0CF1S
 62
     3
  6
CONTINUOUS
 66
     1
 40
0.003000
 41
0.003000
 70
     1
  0
VERTEX
  8
AB0CF1S
 62
     3
  6
CONTINUOUS
 10
-1.726819
 20
3.992669
  0
VERTEX
  8
AB0CF1S
 62
     3
  6
CONTINUOUS
 10
-1.731201
 20
4.026867
  0
VERTEX
  8
AB0CF1S
 62
     3
  6
CONTINUOUS
 10
-1.743366
 20
4.054847
  0
VERTEX
  8
AB0CF1S
 62
     3
  6
CONTINUOUS
 10
-1.761760
 20
4.076610
  0
VERTEX
  8
AB0CF1S
 62
     3
  6
CONTINUOUS
 10
-1.784824
 20
4.092155
  0
VERTEX
  8
AB0CF1S
 62
     3
  6
CONTINUOUS
 10
-1.811002
 20
4.101483
  0
VERTEX
  8
AB0CF1S
 62
     3
  6
CONTINUOUS
 10
-1.838738
 20
4.104593
  0
VERTEX
  8
AB0CF1S
 62
     3
  6
CONTINUOUS
 10
-1.866473
 20
4.101485
  0
VERTEX
  8
AB0CF1S
 62
     3
  6
CONTINUOUS
 10
-1.892652
 20
4.092160
  0
VERTEX
  8
AB0CF1S
 62
     3
  6
CONTINUOUS
 10
-1.915718
 20
4.076616
  0
VERTEX
  8
AB0CF1S
 62
     3
  6
CONTINUOUS
 10
-1.934113
 20
4.054855
  0
VERTEX
  8
AB0CF1S
 62
     3
  6
CONTINUOUS
 10
-1.946281
 20
4.026875
  0
VERTEX
  8
AB0CF1S
 62
     3
  6
CONTINUOUS
 10
-1.950665
 20
3.992677
  0
VERTEX
  8
AB0CF1S
 62
     3
  6
CONTINUOUS
 10
-1.946287
 20
3.958480
  0
VERTEX
  8
AB0CF1S
 62
     3
  6
CONTINUOUS
 10
-1.934124
 20
3.930500
  0
VERTEX
  8
AB0CF1S
 62
     3
  6
CONTINUOUS
 10
-1.915733
 20
3.908736
  0
VERTEX
  8
AB0CF1S
 62
     3
  6
CONTINUOUS
 10
-1.892671
 20
3.893189
  0
VERTEX
  8
AB0CF1S
 62
     3
  6
CONTINUOUS
 10
-1.866494
 20
3.883859
  0
VERTEX
  8
AB0CF1S
 62
     3
  6
CONTINUOUS
 10
-1.838759
 20
3.880747
  0
VERTEX
  8
AB0CF1S
 62
     3
  6
CONTINUOUS
 10
-1.811023
 20
3.883852
  0
VERTEX
  8
AB0CF1S
 62
     3
  6
CONTINUOUS
 10
-1.784844
 20
3.893175
  0
VERTEX
  8
AB0CF1S
 62
     3
  6
CONTINUOUS
 10
-1.761777
 20
3.908716
  0
VERTEX
  8
AB0CF1S
 62
     3
  6
CONTINUOUS
 10
-1.743380
 20
3.930475
  0
VERTEX
  8
AB0CF1S
 62
     3
  6
CONTINUOUS
 10
-1.731210
 20
3.958453
  0
VERTEX
  8
AB0CF1S
 62
     3
  6
CONTINUOUS
 10
-1.726823
 20
3.992650
  0
VERTEX
  8
AB0CF1S
 62
     3
  6
CONTINUOUS
 10
-1.726822
 20
3.992655
  0
VERTEX
  8
AB0CF1S
 62
     3
  6
CONTINUOUS
 10
-1.726820
 20
3.992664
  0
SEQEND
  8
0
  0
POLYLINE
  8
AB0CF1S
 62
     3
  6
CONTINUOUS
 66
     1
 40
0.003000
 41
0.003000
 70
     1
  0
VERTEX
  8
AB0CF1S
 62
     3
  6
CONTINUOUS
 10
-1.726819
 20
4.350831
  0
VERTEX
  8
AB0CF1S
 62
     3
  6
CONTINUOUS
 10
-1.731201
 20
4.385028
  0
VERTEX
  8
AB0CF1S
 62
     3
  6
CONTINUOUS
 10
-1.743366
 20
4.413008
  0
VERTEX
  8
AB0CF1S
 62
     3
  6
CONTINUOUS
 10
-1.761760
 20
4.434771
  0
VERTEX
  8
AB0CF1S
 62
     3
  6
CONTINUOUS
 10
-1.784824
 20
4.450317
  0
VERTEX
  8
AB0CF1S
 62
     3
  6
CONTINUOUS
 10
-1.811002
 20
4.459644
  0
VERTEX
  8
AB0CF1S
 62
     3
  6
CONTINUOUS
 10
-1.838738
 20
4.462754
  0
VERTEX
  8
AB0CF1S
 62
     3
  6
CONTINUOUS
 10
-1.866473
 20
4.459647
  0
VERTEX
  8
AB0CF1S
 62
     3
  6
CONTINUOUS
 10
-1.892652
 20
4.450321
  0
VERTEX
  8
AB0CF1S
 62
     3
  6
CONTINUOUS
 10
-1.915718
 20
4.434778
  0
VERTEX
  8
AB0CF1S
 62
     3
  6
CONTINUOUS
 10
-1.934113
 20
4.413016
  0
VERTEX
  8
AB0CF1S
 62
     3
  6
CONTINUOUS
 10
-1.946281
 20
4.385037
  0
VERTEX
  8
AB0CF1S
 62
     3
  6
CONTINUOUS
 10
-1.950665
 20
4.350839
  0
VERTEX
  8
AB0CF1S
 62
     3
  6
CONTINUOUS
 10
-1.946287
 20
4.316642
  0
VERTEX
  8
AB0CF1S
 62
     3
  6
CONTINUOUS
 10
-1.934124
 20
4.288661
  0
VERTEX
  8
AB0CF1S
 62
     3
  6
CONTINUOUS
 10
-1.915733
 20
4.266897
  0
VERTEX
  8
AB0CF1S
 62
     3
  6
CONTINUOUS
 10
-1.892671
 20
4.251350
  0
VERTEX
  8
AB0CF1S
 62
     3
  6
CONTINUOUS
 10
-1.866494
 20
4.242020
  0
VERTEX
  8
AB0CF1S
 62
     3
  6
CONTINUOUS
 10
-1.838759
 20
4.238908
  0
VERTEX
  8
AB0CF1S
 62
     3
  6
CONTINUOUS
 10
-1.811023
 20
4.242013
  0
VERTEX
  8
AB0CF1S
 62
     3
  6
CONTINUOUS
 10
-1.784844
 20
4.251336
  0
VERTEX
  8
AB0CF1S
 62
     3
  6
CONTINUOUS
 10
-1.761777
 20
4.266877
  0
VERTEX
  8
AB0CF1S
 62
     3
  6
CONTINUOUS
 10
-1.743380
 20
4.288637
  0
VERTEX
  8
AB0CF1S
 62
     3
  6
CONTINUOUS
 10
-1.731210
 20
4.316614
  0
VERTEX
  8
AB0CF1S
 62
     3
  6
CONTINUOUS
 10
-1.726823
 20
4.350811
  0
VERTEX
  8
AB0CF1S
 62
     3
  6
CONTINUOUS
 10
-1.726822
 20
4.350816
  0
VERTEX
  8
AB0CF1S
 62
     3
  6
CONTINUOUS
 10
-1.726820
 20
4.350826
  0
SEQEND
  8
0
  0
POLYLINE
  8
AB0CF1S
 62
     3
  6
CONTINUOUS
 66
     1
 40
0.003000
 41
0.003000
 70
     1
  0
VERTEX
  8
AB0CF1S
 62
     3
  6
CONTINUOUS
 10
-0.428484
 20
3.276346
  0
VERTEX
  8
AB0CF1S
 62
     3
  6
CONTINUOUS
 10
-0.432866
 20
3.310543
  0
VERTEX
  8
AB0CF1S
 62
     3
  6
CONTINUOUS
 10
-0.445031
 20
3.338522
  0
VERTEX
  8
AB0CF1S
 62
     3
  6
CONTINUOUS
 10
-0.463424
 20
3.360284
  0
VERTEX
  8
AB0CF1S
 62
     3
  6
CONTINUOUS
 10
-0.486488
 20
3.375829
  0
VERTEX
  8
AB0CF1S
 62
     3
  6
CONTINUOUS
 10
-0.512665
 20
3.385156
  0
VERTEX
  8
AB0CF1S
 62
     3
  6
CONTINUOUS
 10
-0.540399
 20
3.388266
  0
VERTEX
  8
AB0CF1S
 62
     3
  6
CONTINUOUS
 10
-0.568134
 20
3.385158
  0
VERTEX
  8
AB0CF1S
 62
     3
  6
CONTINUOUS
 10
-0.594312
 20
3.375833
  0
VERTEX
  8
AB0CF1S
 62
     3
  6
CONTINUOUS
 10
-0.617376
 20
3.360290
  0
VERTEX
  8
AB0CF1S
 62
     3
  6
CONTINUOUS
 10
-0.635771
 20
3.338529
  0
VERTEX
  8
AB0CF1S
 62
     3
  6
CONTINUOUS
 10
-0.647939
 20
3.310551
  0
VERTEX
  8
AB0CF1S
 62
     3
  6
CONTINUOUS
 10
-0.652323
 20
3.276354
  0
VERTEX
  8
AB0CF1S
 62
     3
  6
CONTINUOUS
 10
-0.647945
 20
3.242158
  0
VERTEX
  8
AB0CF1S
 62
     3
  6
CONTINUOUS
 10
-0.635782
 20
3.214178
  0
VERTEX
  8
AB0CF1S
 62
     3
  6
CONTINUOUS
 10
-0.617392
 20
3.192415
  0
VERTEX
  8
AB0CF1S
 62
     3
  6
CONTINUOUS
 10
-0.594330
 20
3.176869
  0
VERTEX
  8
AB0CF1S
 62
     3
  6
CONTINUOUS
 10
-0.568154
 20
3.167539
  0
VERTEX
  8
AB0CF1S
 62
     3
  6
CONTINUOUS
 10
-0.540420
 20
3.164427
  0
VERTEX
  8
AB0CF1S
 62
     3
  6
CONTINUOUS
 10
-0.512686
 20
3.167532
  0
VERTEX
  8
AB0CF1S
 62
     3
  6
CONTINUOUS
 10
-0.486507
 20
3.176854
  0
VERTEX
  8
AB0CF1S
 62
     3
  6
CONTINUOUS
 10
-0.463441
 20
3.192395
  0
VERTEX
  8
AB0CF1S
 62
     3
  6
CONTINUOUS
 10
-0.445045
 20
3.214154
  0
VERTEX
  8
AB0CF1S
 62
     3
  6
CONTINUOUS
 10
-0.432875
 20
3.242131
  0
VERTEX
  8
AB0CF1S
 62
     3
  6
CONTINUOUS
 10
-0.428488
 20
3.276327
  0
VERTEX
  8
AB0CF1S
 62
     3
  6
CONTINUOUS
 10
-0.428487
 20
3.276332
  0
VERTEX
  8
AB0CF1S
 62
     3
  6
CONTINUOUS
 10
-0.428485
 20
3.276341
  0
SEQEND
  8
0
  0
POLYLINE
  8
AB0CF1S
 62
     3
  6
CONTINUOUS
 66
     1
 40
0.003000
 41
0.003000
 70
     1
  0
VERTEX
  8
AB0CF1S
 62
     3
  6
CONTINUOUS
 10
-0.428484
 20
3.634508
  0
VERTEX
  8
AB0CF1S
 62
     3
  6
CONTINUOUS
 10
-0.432866
 20
3.668704
  0
VERTEX
  8
AB0CF1S
 62
     3
  6
CONTINUOUS
 10
-0.445031
 20
3.696684
  0
VERTEX
  8
AB0CF1S
 62
     3
  6
CONTINUOUS
 10
-0.463424
 20
3.718446
  0
VERTEX
  8
AB0CF1S
 62
     3
  6
CONTINUOUS
 10
-0.486488
 20
3.733990
  0
VERTEX
  8
AB0CF1S
 62
     3
  6
CONTINUOUS
 10
-0.512665
 20
3.743317
  0
VERTEX
  8
AB0CF1S
 62
     3
  6
CONTINUOUS
 10
-0.540399
 20
3.746427
  0
VERTEX
  8
AB0CF1S
 62
     3
  6
CONTINUOUS
 10
-0.568134
 20
3.743319
  0
VERTEX
  8
AB0CF1S
 62
     3
  6
CONTINUOUS
 10
-0.594312
 20
3.733994
  0
VERTEX
  8
AB0CF1S
 62
     3
  6
CONTINUOUS
 10
-0.617376
 20
3.718451
  0
VERTEX
  8
AB0CF1S
 62
     3
  6
CONTINUOUS
 10
-0.635771
 20
3.696690
  0
VERTEX
  8
AB0CF1S
 62
     3
  6
CONTINUOUS
 10
-0.647939
 20
3.668712
  0
VERTEX
  8
AB0CF1S
 62
     3
  6
CONTINUOUS
 10
-0.652323
 20
3.634516
  0
VERTEX
  8
AB0CF1S
 62
     3
  6
CONTINUOUS
 10
-0.647945
 20
3.600320
  0
VERTEX
  8
AB0CF1S
 62
     3
  6
CONTINUOUS
 10
-0.635782
 20
3.572340
  0
VERTEX
  8
AB0CF1S
 62
     3
  6
CONTINUOUS
 10
-0.617392
 20
3.550577
  0
VERTEX
  8
AB0CF1S
 62
     3
  6
CONTINUOUS
 10
-0.594330
 20
3.535030
  0
VERTEX
  8
AB0CF1S
 62
     3
  6
CONTINUOUS
 10
-0.568154
 20
3.525700
  0
VERTEX
  8
AB0CF1S
 62
     3
  6
CONTINUOUS
 10
-0.540420
 20
3.522588
  0
VERTEX
  8
AB0CF1S
 62
     3
  6
CONTINUOUS
 10
-0.512686
 20
3.525693
  0
VERTEX
  8
AB0CF1S
 62
     3
  6
CONTINUOUS
 10
-0.486507
 20
3.535016
  0
VERTEX
  8
AB0CF1S
 62
     3
  6
CONTINUOUS
 10
-0.463441
 20
3.550557
  0
VERTEX
  8
AB0CF1S
 62
     3
  6
CONTINUOUS
 10
-0.445045
 20
3.572315
  0
VERTEX
  8
AB0CF1S
 62
     3
  6
CONTINUOUS
 10
-0.432875
 20
3.600292
  0
VERTEX
  8
AB0CF1S
 62
     3
  6
CONTINUOUS
 10
-0.428488
 20
3.634488
  0
VERTEX
  8
AB0CF1S
 62
     3
  6
CONTINUOUS
 10
-0.428487
 20
3.634493
  0
VERTEX
  8
AB0CF1S
 62
     3
  6
CONTINUOUS
 10
-0.428485
 20
3.634503
  0
SEQEND
  8
0
  0
POLYLINE
  8
AB0CF1S
 62
     3
  6
CONTINUOUS
 66
     1
 40
0.003000
 41
0.003000
 70
     1
  0
VERTEX
  8
AB0CF1S
 62
     3
  6
CONTINUOUS
 10
-0.428484
 20
3.992669
  0
VERTEX
  8
AB0CF1S
 62
     3
  6
CONTINUOUS
 10
-0.432866
 20
4.026866
  0
VERTEX
  8
AB0CF1S
 62
     3
  6
CONTINUOUS
 10
-0.445031
 20
4.054845
  0
VERTEX
  8
AB0CF1S
 62
     3
  6
CONTINUOUS
 10
-0.463424
 20
4.076607
  0
VERTEX
  8
AB0CF1S
 62
     3
  6
CONTINUOUS
 10
-0.486488
 20
4.092152
  0
VERTEX
  8
AB0CF1S
 62
     3
  6
CONTINUOUS
 10
-0.512665
 20
4.101479
  0
VERTEX
  8
AB0CF1S
 62
     3
  6
CONTINUOUS
 10
-0.540399
 20
4.104589
  0
VERTEX
  8
AB0CF1S
 62
     3
  6
CONTINUOUS
 10
-0.568134
 20
4.101481
  0
VERTEX
  8
AB0CF1S
 62
     3
  6
CONTINUOUS
 10
-0.594312
 20
4.092155
  0
VERTEX
  8
AB0CF1S
 62
     3
  6
CONTINUOUS
 10
-0.617376
 20
4.076612
  0
VERTEX
  8
AB0CF1S
 62
     3
  6
CONTINUOUS
 10
-0.635771
 20
4.054852
  0
VERTEX
  8
AB0CF1S
 62
     3
  6
CONTINUOUS
 10
-0.647939
 20
4.026873
  0
VERTEX
  8
AB0CF1S
 62
     3
  6
CONTINUOUS
 10
-0.652323
 20
3.992677
  0
VERTEX
  8
AB0CF1S
 62
     3
  6
CONTINUOUS
 10
-0.647945
 20
3.958481
  0
VERTEX
  8
AB0CF1S
 62
     3
  6
CONTINUOUS
 10
-0.635782
 20
3.930501
  0
VERTEX
  8
AB0CF1S
 62
     3
  6
CONTINUOUS
 10
-0.617392
 20
3.908738
  0
VERTEX
  8
AB0CF1S
 62
     3
  6
CONTINUOUS
 10
-0.594330
 20
3.893191
  0
VERTEX
  8
AB0CF1S
 62
     3
  6
CONTINUOUS
 10
-0.568154
 20
3.883862
  0
VERTEX
  8
AB0CF1S
 62
     3
  6
CONTINUOUS
 10
-0.540420
 20
3.880750
  0
VERTEX
  8
AB0CF1S
 62
     3
  6
CONTINUOUS
 10
-0.512686
 20
3.883855
  0
VERTEX
  8
AB0CF1S
 62
     3
  6
CONTINUOUS
 10
-0.486507
 20
3.893177
  0
VERTEX
  8
AB0CF1S
 62
     3
  6
CONTINUOUS
 10
-0.463441
 20
3.908718
  0
VERTEX
  8
AB0CF1S
 62
     3
  6
CONTINUOUS
 10
-0.445045
 20
3.930477
  0
VERTEX
  8
AB0CF1S
 62
     3
  6
CONTINUOUS
 10
-0.432875
 20
3.958454
  0
VERTEX
  8
AB0CF1S
 62
     3
  6
CONTINUOUS
 10
-0.428488
 20
3.992650
  0
VERTEX
  8
AB0CF1S
 62
     3
  6
CONTINUOUS
 10
-0.428487
 20
3.992655
  0
VERTEX
  8
AB0CF1S
 62
     3
  6
CONTINUOUS
 10
-0.428485
 20
3.992664
  0
SEQEND
  8
0
  0
POLYLINE
  8
AB0CF1S
 62
     3
  6
CONTINUOUS
 66
     1
 40
0.003000
 41
0.003000
 70
     1
  0
VERTEX
  8
AB0CF1S
 62
     3
  6
CONTINUOUS
 10
-0.428484
 20
4.350831
  0
VERTEX
  8
AB0CF1S
 62
     3
  6
CONTINUOUS
 10
-0.432866
 20
4.385027
  0
VERTEX
  8
AB0CF1S
 62
     3
  6
CONTINUOUS
 10
-0.445031
 20
4.413006
  0
VERTEX
  8
AB0CF1S
 62
     3
  6
CONTINUOUS
 10
-0.463424
 20
4.434768
  0
VERTEX
  8
AB0CF1S
 62
     3
  6
CONTINUOUS
 10
-0.486488
 20
4.450313
  0
VERTEX
  8
AB0CF1S
 62
     3
  6
CONTINUOUS
 10
-0.512665
 20
4.459640
  0
VERTEX
  8
AB0CF1S
 62
     3
  6
CONTINUOUS
 10
-0.540399
 20
4.462750
  0
VERTEX
  8
AB0CF1S
 62
     3
  6
CONTINUOUS
 10
-0.568134
 20
4.459642
  0
VERTEX
  8
AB0CF1S
 62
     3
  6
CONTINUOUS
 10
-0.594312
 20
4.450317
  0
VERTEX
  8
AB0CF1S
 62
     3
  6
CONTINUOUS
 10
-0.617376
 20
4.434774
  0
VERTEX
  8
AB0CF1S
 62
     3
  6
CONTINUOUS
 10
-0.635771
 20
4.413013
  0
VERTEX
  8
AB0CF1S
 62
     3
  6
CONTINUOUS
 10
-0.647939
 20
4.385035
  0
VERTEX
  8
AB0CF1S
 62
     3
  6
CONTINUOUS
 10
-0.652323
 20
4.350839
  0
VERTEX
  8
AB0CF1S
 62
     3
  6
CONTINUOUS
 10
-0.647945
 20
4.316643
  0
VERTEX
  8
AB0CF1S
 62
     3
  6
CONTINUOUS
 10
-0.635782
 20
4.288663
  0
VERTEX
  8
AB0CF1S
 62
     3
  6
CONTINUOUS
 10
-0.617392
 20
4.266899
  0
VERTEX
  8
AB0CF1S
 62
     3
  6
CONTINUOUS
 10
-0.594330
 20
4.251353
  0
VERTEX
  8
AB0CF1S
 62
     3
  6
CONTINUOUS
 10
-0.568154
 20
4.242023
  0
VERTEX
  8
AB0CF1S
 62
     3
  6
CONTINUOUS
 10
-0.540420
 20
4.238911
  0
VERTEX
  8
AB0CF1S
 62
     3
  6
CONTINUOUS
 10
-0.512686
 20
4.242016
  0
VERTEX
  8
AB0CF1S
 62
     3
  6
CONTINUOUS
 10
-0.486507
 20
4.251339
  0
VERTEX
  8
AB0CF1S
 62
     3
  6
CONTINUOUS
 10
-0.463441
 20
4.266879
  0
VERTEX
  8
AB0CF1S
 62
     3
  6
CONTINUOUS
 10
-0.445045
 20
4.288638
  0
VERTEX
  8
AB0CF1S
 62
     3
  6
CONTINUOUS
 10
-0.432875
 20
4.316615
  0
VERTEX
  8
AB0CF1S
 62
     3
  6
CONTINUOUS
 10
-0.428488
 20
4.350811
  0
VERTEX
  8
AB0CF1S
 62
     3
  6
CONTINUOUS
 10
-0.428487
 20
4.350816
  0
VERTEX
  8
AB0CF1S
 62
     3
  6
CONTINUOUS
 10
-0.428485
 20
4.350826
  0
SEQEND
  8
0
  0
POLYLINE
  8
AB0CF1S
 62
     3
  6
CONTINUOUS
 66
     1
 40
0.003000
 41
0.003000
 70
     1
  0
VERTEX
  8
AB0CF1S
 62
     3
  6
CONTINUOUS
 10
-0.428484
 20
4.708992
  0
VERTEX
  8
AB0CF1S
 62
     3
  6
CONTINUOUS
 10
-0.432866
 20
4.743189
  0
VERTEX
  8
AB0CF1S
 62
     3
  6
CONTINUOUS
 10
-0.445031
 20
4.771168
  0
VERTEX
  8
AB0CF1S
 62
     3
  6
CONTINUOUS
 10
-0.463424
 20
4.792930
  0
VERTEX
  8
AB0CF1S
 62
     3
  6
CONTINUOUS
 10
-0.486488
 20
4.808474
  0
VERTEX
  8
AB0CF1S
 62
     3
  6
CONTINUOUS
 10
-0.512665
 20
4.817802
  0
VERTEX
  8
AB0CF1S
 62
     3
  6
CONTINUOUS
 10
-0.540399
 20
4.820911
  0
VERTEX
  8
AB0CF1S
 62
     3
  6
CONTINUOUS
 10
-0.568134
 20
4.817804
  0
VERTEX
  8
AB0CF1S
 62
     3
  6
CONTINUOUS
 10
-0.594312
 20
4.808478
  0
VERTEX
  8
AB0CF1S
 62
     3
  6
CONTINUOUS
 10
-0.617376
 20
4.792935
  0
VERTEX
  8
AB0CF1S
 62
     3
  6
CONTINUOUS
 10
-0.635771
 20
4.771175
  0
VERTEX
  8
AB0CF1S
 62
     3
  6
CONTINUOUS
 10
-0.647939
 20
4.743196
  0
VERTEX
  8
AB0CF1S
 62
     3
  6
CONTINUOUS
 10
-0.652323
 20
4.709000
  0
VERTEX
  8
AB0CF1S
 62
     3
  6
CONTINUOUS
 10
-0.647945
 20
4.674804
  0
VERTEX
  8
AB0CF1S
 62
     3
  6
CONTINUOUS
 10
-0.635782
 20
4.646824
  0
VERTEX
  8
AB0CF1S
 62
     3
  6
CONTINUOUS
 10
-0.617392
 20
4.625061
  0
VERTEX
  8
AB0CF1S
 62
     3
  6
CONTINUOUS
 10
-0.594330
 20
4.609514
  0
VERTEX
  8
AB0CF1S
 62
     3
  6
CONTINUOUS
 10
-0.568154
 20
4.600185
  0
VERTEX
  8
AB0CF1S
 62
     3
  6
CONTINUOUS
 10
-0.540420
 20
4.597072
  0
VERTEX
  8
AB0CF1S
 62
     3
  6
CONTINUOUS
 10
-0.512686
 20
4.600177
  0
VERTEX
  8
AB0CF1S
 62
     3
  6
CONTINUOUS
 10
-0.486507
 20
4.609500
  0
VERTEX
  8
AB0CF1S
 62
     3
  6
CONTINUOUS
 10
-0.463441
 20
4.625041
  0
VERTEX
  8
AB0CF1S
 62
     3
  6
CONTINUOUS
 10
-0.445045
 20
4.646800
  0
VERTEX
  8
AB0CF1S
 62
     3
  6
CONTINUOUS
 10
-0.432875
 20
4.674777
  0
VERTEX
  8
AB0CF1S
 62
     3
  6
CONTINUOUS
 10
-0.428488
 20
4.708972
  0
VERTEX
  8
AB0CF1S
 62
     3
  6
CONTINUOUS
 10
-0.428487
 20
4.708978
  0
VERTEX
  8
AB0CF1S
 62
     3
  6
CONTINUOUS
 10
-0.428485
 20
4.708987
  0
SEQEND
  8
0
  0
POLYLINE
  8
AB0CF1S
 62
     3
  6
CONTINUOUS
 66
     1
 40
0.003000
 41
0.003000
 70
     1
  0
VERTEX
  8
AB0CF1S
 62
     3
  6
CONTINUOUS
 10
-1.726819
 20
4.708992
  0
VERTEX
  8
AB0CF1S
 62
     3
  6
CONTINUOUS
 10
-1.731201
 20
4.743190
  0
VERTEX
  8
AB0CF1S
 62
     3
  6
CONTINUOUS
 10
-1.743366
 20
4.771170
  0
VERTEX
  8
AB0CF1S
 62
     3
  6
CONTINUOUS
 10
-1.761760
 20
4.792933
  0
VERTEX
  8
AB0CF1S
 62
     3
  6
CONTINUOUS
 10
-1.784824
 20
4.808478
  0
VERTEX
  8
AB0CF1S
 62
     3
  6
CONTINUOUS
 10
-1.811002
 20
4.817806
  0
VERTEX
  8
AB0CF1S
 62
     3
  6
CONTINUOUS
 10
-1.838738
 20
4.820916
  0
VERTEX
  8
AB0CF1S
 62
     3
  6
CONTINUOUS
 10
-1.866473
 20
4.817808
  0
VERTEX
  8
AB0CF1S
 62
     3
  6
CONTINUOUS
 10
-1.892652
 20
4.808483
  0
VERTEX
  8
AB0CF1S
 62
     3
  6
CONTINUOUS
 10
-1.915718
 20
4.792939
  0
VERTEX
  8
AB0CF1S
 62
     3
  6
CONTINUOUS
 10
-1.934113
 20
4.771178
  0
VERTEX
  8
AB0CF1S
 62
     3
  6
CONTINUOUS
 10
-1.946281
 20
4.743198
  0
VERTEX
  8
AB0CF1S
 62
     3
  6
CONTINUOUS
 10
-1.950665
 20
4.709000
  0
VERTEX
  8
AB0CF1S
 62
     3
  6
CONTINUOUS
 10
-1.946287
 20
4.674803
  0
VERTEX
  8
AB0CF1S
 62
     3
  6
CONTINUOUS
 10
-1.934124
 20
4.646822
  0
VERTEX
  8
AB0CF1S
 62
     3
  6
CONTINUOUS
 10
-1.915733
 20
4.625059
  0
VERTEX
  8
AB0CF1S
 62
     3
  6
CONTINUOUS
 10
-1.892671
 20
4.609512
  0
VERTEX
  8
AB0CF1S
 62
     3
  6
CONTINUOUS
 10
-1.866494
 20
4.600182
  0
VERTEX
  8
AB0CF1S
 62
     3
  6
CONTINUOUS
 10
-1.838759
 20
4.597069
  0
VERTEX
  8
AB0CF1S
 62
     3
  6
CONTINUOUS
 10
-1.811023
 20
4.600175
  0
VERTEX
  8
AB0CF1S
 62
     3
  6
CONTINUOUS
 10
-1.784844
 20
4.609498
  0
VERTEX
  8
AB0CF1S
 62
     3
  6
CONTINUOUS
 10
-1.761777
 20
4.625039
  0
VERTEX
  8
AB0CF1S
 62
     3
  6
CONTINUOUS
 10
-1.743380
 20
4.646798
  0
VERTEX
  8
AB0CF1S
 62
     3
  6
CONTINUOUS
 10
-1.731210
 20
4.674776
  0
VERTEX
  8
AB0CF1S
 62
     3
  6
CONTINUOUS
 10
-1.726823
 20
4.708972
  0
VERTEX
  8
AB0CF1S
 62
     3
  6
CONTINUOUS
 10
-1.726822
 20
4.708978
  0
VERTEX
  8
AB0CF1S
 62
     3
  6
CONTINUOUS
 10
-1.726820
 20
4.708987
  0
SEQEND
  8
0
  0
POLYLINE
  8
AB0CF1S
 62
     3
  6
CONTINUOUS
 66
     1
 40
0.003000
 41
0.003000
  0
VERTEX
  8
AB0CF1S
 62
     3
  6
CONTINUOUS
 10
-1.732579
 20
3.240898
  0
VERTEX
  8
AB0CF1S
 62
     3
  6
CONTINUOUS
 10
-1.808165
 20
3.284539
  0
SEQEND
  8
0
  0
POLYLINE
  8
AB0CF1S
 62
     3
  6
CONTINUOUS
 66
     1
 40
0.003000
 41
0.003000
  0
VERTEX
  8
AB0CF1S
 62
     3
  6
CONTINUOUS
 10
-1.732579
 20
3.599059
  0
VERTEX
  8
AB0CF1S
 62
     3
  6
CONTINUOUS
 10
-1.808165
 20
3.642701
  0
SEQEND
  8
0
  0
POLYLINE
  8
AB0CF1S
 62
     3
  6
CONTINUOUS
 66
     1
 40
0.003000
 41
0.003000
  0
VERTEX
  8
AB0CF1S
 62
     3
  6
CONTINUOUS
 10
-1.732579
 20
3.957220
  0
VERTEX
  8
AB0CF1S
 62
     3
  6
CONTINUOUS
 10
-1.808165
 20
4.000862
  0
SEQEND
  8
0
  0
POLYLINE
  8
AB0CF1S
 62
     3
  6
CONTINUOUS
 66
     1
 40
0.003000
 41
0.003000
  0
VERTEX
  8
AB0CF1S
 62
     3
  6
CONTINUOUS
 10
-1.732579
 20
4.315382
  0
VERTEX
  8
AB0CF1S
 62
     3
  6
CONTINUOUS
 10
-1.808165
 20
4.359024
  0
SEQEND
  8
0
  0
POLYLINE
  8
AB0CF1S
 62
     3
  6
CONTINUOUS
 66
     1
 40
0.003000
 41
0.003000
  0
VERTEX
  8
AB0CF1S
 62
     3
  6
CONTINUOUS
 10
-1.754965
 20
3.202130
  0
VERTEX
  8
AB0CF1S
 62
     3
  6
CONTINUOUS
 10
-1.830551
 20
3.245768
  0
SEQEND
  8
0
  0
POLYLINE
  8
AB0CF1S
 62
     3
  6
CONTINUOUS
 66
     1
 40
0.003000
 41
0.003000
  0
VERTEX
  8
AB0CF1S
 62
     3
  6
CONTINUOUS
 10
-1.754965
 20
3.560291
  0
VERTEX
  8
AB0CF1S
 62
     3
  6
CONTINUOUS
 10
-1.830551
 20
3.603929
  0
SEQEND
  8
0
  0
POLYLINE
  8
AB0CF1S
 62
     3
  6
CONTINUOUS
 66
     1
 40
0.003000
 41
0.003000
  0
VERTEX
  8
AB0CF1S
 62
     3
  6
CONTINUOUS
 10
-1.754965
 20
3.918453
  0
VERTEX
  8
AB0CF1S
 62
     3
  6
CONTINUOUS
 10
-1.830551
 20
3.962091
  0
SEQEND
  8
0
  0
POLYLINE
  8
AB0CF1S
 62
     3
  6
CONTINUOUS
 66
     1
 40
0.003000
 41
0.003000
  0
VERTEX
  8
AB0CF1S
 62
     3
  6
CONTINUOUS
 10
-1.754965
 20
4.276614
  0
VERTEX
  8
AB0CF1S
 62
     3
  6
CONTINUOUS
 10
-1.830551
 20
4.320252
  0
SEQEND
  8
0
  0
POLYLINE
  8
AB0CF1S
 62
     3
  6
CONTINUOUS
 66
     1
 40
0.003000
 41
0.003000
  0
VERTEX
  8
AB0CF1S
 62
     3
  6
CONTINUOUS
 10
-1.869323
 20
3.268154
  0
VERTEX
  8
AB0CF1S
 62
     3
  6
CONTINUOUS
 10
-1.912961
 20
3.192567
  0
SEQEND
  8
0
  0
POLYLINE
  8
AB0CF1S
 62
     3
  6
CONTINUOUS
 66
     1
 40
0.003000
 41
0.003000
  0
VERTEX
  8
AB0CF1S
 62
     3
  6
CONTINUOUS
 10
-1.869323
 20
3.626315
  0
VERTEX
  8
AB0CF1S
 62
     3
  6
CONTINUOUS
 10
-1.912961
 20
3.550728
  0
SEQEND
  8
0
  0
POLYLINE
  8
AB0CF1S
 62
     3
  6
CONTINUOUS
 66
     1
 40
0.003000
 41
0.003000
  0
VERTEX
  8
AB0CF1S
 62
     3
  6
CONTINUOUS
 10
-1.869323
 20
3.984476
  0
VERTEX
  8
AB0CF1S
 62
     3
  6
CONTINUOUS
 10
-1.912961
 20
3.908890
  0
SEQEND
  8
0
  0
POLYLINE
  8
AB0CF1S
 62
     3
  6
CONTINUOUS
 66
     1
 40
0.003000
 41
0.003000
  0
VERTEX
  8
AB0CF1S
 62
     3
  6
CONTINUOUS
 10
-1.869323
 20
4.342638
  0
VERTEX
  8
AB0CF1S
 62
     3
  6
CONTINUOUS
 10
-1.912961
 20
4.267051
  0
SEQEND
  8
0
  0
POLYLINE
  8
AB0CF1S
 62
     3
  6
CONTINUOUS
 66
     1
 40
0.003000
 41
0.003000
  0
VERTEX
  8
AB0CF1S
 62
     3
  6
CONTINUOUS
 10
-1.830551
 20
3.245768
  0
VERTEX
  8
AB0CF1S
 62
     3
  6
CONTINUOUS
 10
-1.874189
 20
3.170181
  0
SEQEND
  8
0
  0
POLYLINE
  8
AB0CF1S
 62
     3
  6
CONTINUOUS
 66
     1
 40
0.003000
 41
0.003000
  0
VERTEX
  8
AB0CF1S
 62
     3
  6
CONTINUOUS
 10
-1.830551
 20
3.603929
  0
VERTEX
  8
AB0CF1S
 62
     3
  6
CONTINUOUS
 10
-1.874189
 20
3.528343
  0
SEQEND
  8
0
  0
POLYLINE
  8
AB0CF1S
 62
     3
  6
CONTINUOUS
 66
     1
 40
0.003000
 41
0.003000
  0
VERTEX
  8
AB0CF1S
 62
     3
  6
CONTINUOUS
 10
-1.830551
 20
3.962091
  0
VERTEX
  8
AB0CF1S
 62
     3
  6
CONTINUOUS
 10
-1.874189
 20
3.886504
  0
SEQEND
  8
0
  0
POLYLINE
  8
AB0CF1S
 62
     3
  6
CONTINUOUS
 66
     1
 40
0.003000
 41
0.003000
  0
VERTEX
  8
AB0CF1S
 62
     3
  6
CONTINUOUS
 10
-1.830551
 20
4.320252
  0
VERTEX
  8
AB0CF1S
 62
     3
  6
CONTINUOUS
 10
-1.874189
 20
4.244665
  0
SEQEND
  8
0
  0
POLYLINE
  8
AB0CF1S
 62
     3
  6
CONTINUOUS
 66
     1
 40
0.003000
 41
0.003000
  0
VERTEX
  8
AB0CF1S
 62
     3
  6
CONTINUOUS
 10
-1.846937
 20
3.306925
  0
VERTEX
  8
AB0CF1S
 62
     3
  6
CONTINUOUS
 10
-1.922524
 20
3.350567
  0
SEQEND
  8
0
  0
POLYLINE
  8
AB0CF1S
 62
     3
  6
CONTINUOUS
 66
     1
 40
0.003000
 41
0.003000
  0
VERTEX
  8
AB0CF1S
 62
     3
  6
CONTINUOUS
 10
-1.846937
 20
3.665087
  0
VERTEX
  8
AB0CF1S
 62
     3
  6
CONTINUOUS
 10
-1.922524
 20
3.708728
  0
SEQEND
  8
0
  0
POLYLINE
  8
AB0CF1S
 62
     3
  6
CONTINUOUS
 66
     1
 40
0.003000
 41
0.003000
  0
VERTEX
  8
AB0CF1S
 62
     3
  6
CONTINUOUS
 10
-1.846937
 20
4.023248
  0
VERTEX
  8
AB0CF1S
 62
     3
  6
CONTINUOUS
 10
-1.922524
 20
4.066890
  0
SEQEND
  8
0
  0
POLYLINE
  8
AB0CF1S
 62
     3
  6
CONTINUOUS
 66
     1
 40
0.003000
 41
0.003000
  0
VERTEX
  8
AB0CF1S
 62
     3
  6
CONTINUOUS
 10
-1.846937
 20
4.381409
  0
VERTEX
  8
AB0CF1S
 62
     3
  6
CONTINUOUS
 10
-1.922524
 20
4.425051
  0
SEQEND
  8
0
  0
POLYLINE
  8
AB0CF1S
 62
     3
  6
CONTINUOUS
 66
     1
 40
0.003000
 41
0.003000
  0
VERTEX
  8
AB0CF1S
 62
     3
  6
CONTINUOUS
 10
-1.869323
 20
3.268154
  0
VERTEX
  8
AB0CF1S
 62
     3
  6
CONTINUOUS
 10
-1.944909
 20
3.311791
  0
SEQEND
  8
0
  0
POLYLINE
  8
AB0CF1S
 62
     3
  6
CONTINUOUS
 66
     1
 40
0.003000
 41
0.003000
  0
VERTEX
  8
AB0CF1S
 62
     3
  6
CONTINUOUS
 10
-1.869323
 20
3.626315
  0
VERTEX
  8
AB0CF1S
 62
     3
  6
CONTINUOUS
 10
-1.944909
 20
3.669953
  0
SEQEND
  8
0
  0
POLYLINE
  8
AB0CF1S
 62
     3
  6
CONTINUOUS
 66
     1
 40
0.003000
 41
0.003000
  0
VERTEX
  8
AB0CF1S
 62
     3
  6
CONTINUOUS
 10
-1.869323
 20
3.984476
  0
VERTEX
  8
AB0CF1S
 62
     3
  6
CONTINUOUS
 10
-1.944909
 20
4.028114
  0
SEQEND
  8
0
  0
POLYLINE
  8
AB0CF1S
 62
     3
  6
CONTINUOUS
 66
     1
 40
0.003000
 41
0.003000
  0
VERTEX
  8
AB0CF1S
 62
     3
  6
CONTINUOUS
 10
-1.869323
 20
4.342638
  0
VERTEX
  8
AB0CF1S
 62
     3
  6
CONTINUOUS
 10
-1.944909
 20
4.386276
  0
SEQEND
  8
0
  0
POLYLINE
  8
AB0CF1S
 62
     3
  6
CONTINUOUS
 66
     1
 40
0.003000
 41
0.003000
  0
VERTEX
  8
AB0CF1S
 62
     3
  6
CONTINUOUS
 10
-1.764528
 20
3.360126
  0
VERTEX
  8
AB0CF1S
 62
     3
  6
CONTINUOUS
 10
-1.808165
 20
3.284539
  0
SEQEND
  8
0
  0
POLYLINE
  8
AB0CF1S
 62
     3
  6
CONTINUOUS
 66
     1
 40
0.003000
 41
0.003000
  0
VERTEX
  8
AB0CF1S
 62
     3
  6
CONTINUOUS
 10
-1.764528
 20
3.718287
  0
VERTEX
  8
AB0CF1S
 62
     3
  6
CONTINUOUS
 10
-1.808165
 20
3.642701
  0
SEQEND
  8
0
  0
POLYLINE
  8
AB0CF1S
 62
     3
  6
CONTINUOUS
 66
     1
 40
0.003000
 41
0.003000
  0
VERTEX
  8
AB0CF1S
 62
     3
  6
CONTINUOUS
 10
-1.764528
 20
4.076449
  0
VERTEX
  8
AB0CF1S
 62
     3
  6
CONTINUOUS
 10
-1.808165
 20
4.000862
  0
SEQEND
  8
0
  0
POLYLINE
  8
AB0CF1S
 62
     3
  6
CONTINUOUS
 66
     1
 40
0.003000
 41
0.003000
  0
VERTEX
  8
AB0CF1S
 62
     3
  6
CONTINUOUS
 10
-1.764528
 20
4.434610
  0
VERTEX
  8
AB0CF1S
 62
     3
  6
CONTINUOUS
 10
-1.808165
 20
4.359024
  0
SEQEND
  8
0
  0
POLYLINE
  8
AB0CF1S
 62
     3
  6
CONTINUOUS
 66
     1
 40
0.003000
 41
0.003000
  0
VERTEX
  8
AB0CF1S
 62
     3
  6
CONTINUOUS
 10
-1.803299
 20
3.382512
  0
VERTEX
  8
AB0CF1S
 62
     3
  6
CONTINUOUS
 10
-1.846937
 20
3.306925
  0
SEQEND
  8
0
  0
POLYLINE
  8
AB0CF1S
 62
     3
  6
CONTINUOUS
 66
     1
 40
0.003000
 41
0.003000
  0
VERTEX
  8
AB0CF1S
 62
     3
  6
CONTINUOUS
 10
-1.803299
 20
3.740673
  0
VERTEX
  8
AB0CF1S
 62
     3
  6
CONTINUOUS
 10
-1.846937
 20
3.665087
  0
SEQEND
  8
0
  0
POLYLINE
  8
AB0CF1S
 62
     3
  6
CONTINUOUS
 66
     1
 40
0.003000
 41
0.003000
  0
VERTEX
  8
AB0CF1S
 62
     3
  6
CONTINUOUS
 10
-1.803299
 20
4.098835
  0
VERTEX
  8
AB0CF1S
 62
     3
  6
CONTINUOUS
 10
-1.846937
 20
4.023248
  0
SEQEND
  8
0
  0
POLYLINE
  8
AB0CF1S
 62
     3
  6
CONTINUOUS
 66
     1
 40
0.003000
 41
0.003000
  0
VERTEX
  8
AB0CF1S
 62
     3
  6
CONTINUOUS
 10
-1.803299
 20
4.456996
  0
VERTEX
  8
AB0CF1S
 62
     3
  6
CONTINUOUS
 10
-1.846937
 20
4.381409
  0
SEQEND
  8
0
  0
POLYLINE
  8
AB0CF1S
 62
     3
  6
CONTINUOUS
 66
     1
 40
0.003000
 41
0.003000
  0
VERTEX
  8
AB0CF1S
 62
     3
  6
CONTINUOUS
 10
-0.646571
 20
3.240898
  0
VERTEX
  8
AB0CF1S
 62
     3
  6
CONTINUOUS
 10
-0.570988
 20
3.284539
  0
SEQEND
  8
0
  0
POLYLINE
  8
AB0CF1S
 62
     3
  6
CONTINUOUS
 66
     1
 40
0.003000
 41
0.003000
  0
VERTEX
  8
AB0CF1S
 62
     3
  6
CONTINUOUS
 10
-0.646571
 20
3.599059
  0
VERTEX
  8
AB0CF1S
 62
     3
  6
CONTINUOUS
 10
-0.570988
 20
3.642701
  0
SEQEND
  8
0
  0
POLYLINE
  8
AB0CF1S
 62
     3
  6
CONTINUOUS
 66
     1
 40
0.003000
 41
0.003000
  0
VERTEX
  8
AB0CF1S
 62
     3
  6
CONTINUOUS
 10
-0.646571
 20
3.957220
  0
VERTEX
  8
AB0CF1S
 62
     3
  6
CONTINUOUS
 10
-0.570988
 20
4.000862
  0
SEQEND
  8
0
  0
POLYLINE
  8
AB0CF1S
 62
     3
  6
CONTINUOUS
 66
     1
 40
0.003000
 41
0.003000
  0
VERTEX
  8
AB0CF1S
 62
     3
  6
CONTINUOUS
 10
-0.646571
 20
4.315382
  0
VERTEX
  8
AB0CF1S
 62
     3
  6
CONTINUOUS
 10
-0.570988
 20
4.359024
  0
SEQEND
  8
0
  0
POLYLINE
  8
AB0CF1S
 62
     3
  6
CONTINUOUS
 66
     1
 40
0.003000
 41
0.003000
  0
VERTEX
  8
AB0CF1S
 62
     3
  6
CONTINUOUS
 10
-0.624189
 20
3.202130
  0
VERTEX
  8
AB0CF1S
 62
     3
  6
CONTINUOUS
 10
-0.548602
 20
3.245768
  0
SEQEND
  8
0
  0
POLYLINE
  8
AB0CF1S
 62
     3
  6
CONTINUOUS
 66
     1
 40
0.003000
 41
0.003000
  0
VERTEX
  8
AB0CF1S
 62
     3
  6
CONTINUOUS
 10
-0.624189
 20
3.560291
  0
VERTEX
  8
AB0CF1S
 62
     3
  6
CONTINUOUS
 10
-0.548602
 20
3.603929
  0
SEQEND
  8
0
  0
POLYLINE
  8
AB0CF1S
 62
     3
  6
CONTINUOUS
 66
     1
 40
0.003000
 41
0.003000
  0
VERTEX
  8
AB0CF1S
 62
     3
  6
CONTINUOUS
 10
-0.624189
 20
3.918453
  0
VERTEX
  8
AB0CF1S
 62
     3
  6
CONTINUOUS
 10
-0.548602
 20
3.962091
  0
SEQEND
  8
0
  0
POLYLINE
  8
AB0CF1S
 62
     3
  6
CONTINUOUS
 66
     1
 40
0.003000
 41
0.003000
  0
VERTEX
  8
AB0CF1S
 62
     3
  6
CONTINUOUS
 10
-0.624189
 20
4.276614
  0
VERTEX
  8
AB0CF1S
 62
     3
  6
CONTINUOUS
 10
-0.548602
 20
4.320252
  0
SEQEND
  8
0
  0
POLYLINE
  8
AB0CF1S
 62
     3
  6
CONTINUOUS
 66
     1
 40
0.003000
 41
0.003000
  0
VERTEX
  8
AB0CF1S
 62
     3
  6
CONTINUOUS
 10
-0.509827
 20
3.268154
  0
VERTEX
  8
AB0CF1S
 62
     3
  6
CONTINUOUS
 10
-0.466189
 20
3.192567
  0
SEQEND
  8
0
  0
POLYLINE
  8
AB0CF1S
 62
     3
  6
CONTINUOUS
 66
     1
 40
0.003000
 41
0.003000
  0
VERTEX
  8
AB0CF1S
 62
     3
  6
CONTINUOUS
 10
-0.509827
 20
3.626315
  0
VERTEX
  8
AB0CF1S
 62
     3
  6
CONTINUOUS
 10
-0.466189
 20
3.550728
  0
SEQEND
  8
0
  0
POLYLINE
  8
AB0CF1S
 62
     3
  6
CONTINUOUS
 66
     1
 40
0.003000
 41
0.003000
  0
VERTEX
  8
AB0CF1S
 62
     3
  6
CONTINUOUS
 10
-0.509827
 20
3.984476
  0
VERTEX
  8
AB0CF1S
 62
     3
  6
CONTINUOUS
 10
-0.466189
 20
3.908890
  0
SEQEND
  8
0
  0
POLYLINE
  8
AB0CF1S
 62
     3
  6
CONTINUOUS
 66
     1
 40
0.003000
 41
0.003000
  0
VERTEX
  8
AB0CF1S
 62
     3
  6
CONTINUOUS
 10
-0.509827
 20
4.342638
  0
VERTEX
  8
AB0CF1S
 62
     3
  6
CONTINUOUS
 10
-0.466189
 20
4.267051
  0
SEQEND
  8
0
  0
POLYLINE
  8
AB0CF1S
 62
     3
  6
CONTINUOUS
 66
     1
 40
0.003000
 41
0.003000
  0
VERTEX
  8
AB0CF1S
 62
     3
  6
CONTINUOUS
 10
-0.548602
 20
3.245768
  0
VERTEX
  8
AB0CF1S
 62
     3
  6
CONTINUOUS
 10
-0.504965
 20
3.170181
  0
SEQEND
  8
0
  0
POLYLINE
  8
AB0CF1S
 62
     3
  6
CONTINUOUS
 66
     1
 40
0.003000
 41
0.003000
  0
VERTEX
  8
AB0CF1S
 62
     3
  6
CONTINUOUS
 10
-0.548602
 20
3.603929
  0
VERTEX
  8
AB0CF1S
 62
     3
  6
CONTINUOUS
 10
-0.504965
 20
3.528343
  0
SEQEND
  8
0
  0
POLYLINE
  8
AB0CF1S
 62
     3
  6
CONTINUOUS
 66
     1
 40
0.003000
 41
0.003000
  0
VERTEX
  8
AB0CF1S
 62
     3
  6
CONTINUOUS
 10
-0.548602
 20
3.962091
  0
VERTEX
  8
AB0CF1S
 62
     3
  6
CONTINUOUS
 10
-0.504965
 20
3.886504
  0
SEQEND
  8
0
  0
POLYLINE
  8
AB0CF1S
 62
     3
  6
CONTINUOUS
 66
     1
 40
0.003000
 41
0.003000
  0
VERTEX
  8
AB0CF1S
 62
     3
  6
CONTINUOUS
 10
-0.548602
 20
4.320252
  0
VERTEX
  8
AB0CF1S
 62
     3
  6
CONTINUOUS
 10
-0.504965
 20
4.244665
  0
SEQEND
  8
0
  0
POLYLINE
  8
AB0CF1S
 62
     3
  6
CONTINUOUS
 66
     1
 40
0.003000
 41
0.003000
  0
VERTEX
  8
AB0CF1S
 62
     3
  6
CONTINUOUS
 10
-0.532213
 20
3.306925
  0
VERTEX
  8
AB0CF1S
 62
     3
  6
CONTINUOUS
 10
-0.456630
 20
3.350567
  0
SEQEND
  8
0
  0
POLYLINE
  8
AB0CF1S
 62
     3
  6
CONTINUOUS
 66
     1
 40
0.003000
 41
0.003000
  0
VERTEX
  8
AB0CF1S
 62
     3
  6
CONTINUOUS
 10
-0.532213
 20
3.665087
  0
VERTEX
  8
AB0CF1S
 62
     3
  6
CONTINUOUS
 10
-0.456630
 20
3.708728
  0
SEQEND
  8
0
  0
POLYLINE
  8
AB0CF1S
 62
     3
  6
CONTINUOUS
 66
     1
 40
0.003000
 41
0.003000
  0
VERTEX
  8
AB0CF1S
 62
     3
  6
CONTINUOUS
 10
-0.532213
 20
4.023248
  0
VERTEX
  8
AB0CF1S
 62
     3
  6
CONTINUOUS
 10
-0.456630
 20
4.066890
  0
SEQEND
  8
0
  0
POLYLINE
  8
AB0CF1S
 62
     3
  6
CONTINUOUS
 66
     1
 40
0.003000
 41
0.003000
  0
VERTEX
  8
AB0CF1S
 62
     3
  6
CONTINUOUS
 10
-0.532213
 20
4.381409
  0
VERTEX
  8
AB0CF1S
 62
     3
  6
CONTINUOUS
 10
-0.456630
 20
4.425051
  0
SEQEND
  8
0
  0
POLYLINE
  8
AB0CF1S
 62
     3
  6
CONTINUOUS
 66
     1
 40
0.003000
 41
0.003000
  0
VERTEX
  8
AB0CF1S
 62
     3
  6
CONTINUOUS
 10
-0.509827
 20
3.268154
  0
VERTEX
  8
AB0CF1S
 62
     3
  6
CONTINUOUS
 10
-0.434244
 20
3.311791
  0
SEQEND
  8
0
  0
POLYLINE
  8
AB0CF1S
 62
     3
  6
CONTINUOUS
 66
     1
 40
0.003000
 41
0.003000
  0
VERTEX
  8
AB0CF1S
 62
     3
  6
CONTINUOUS
 10
-0.509827
 20
3.626315
  0
VERTEX
  8
AB0CF1S
 62
     3
  6
CONTINUOUS
 10
-0.434244
 20
3.669953
  0
SEQEND
  8
0
  0
POLYLINE
  8
AB0CF1S
 62
     3
  6
CONTINUOUS
 66
     1
 40
0.003000
 41
0.003000
  0
VERTEX
  8
AB0CF1S
 62
     3
  6
CONTINUOUS
 10
-0.509827
 20
3.984476
  0
VERTEX
  8
AB0CF1S
 62
     3
  6
CONTINUOUS
 10
-0.434244
 20
4.028114
  0
SEQEND
  8
0
  0
POLYLINE
  8
AB0CF1S
 62
     3
  6
CONTINUOUS
 66
     1
 40
0.003000
 41
0.003000
  0
VERTEX
  8
AB0CF1S
 62
     3
  6
CONTINUOUS
 10
-0.509827
 20
4.342638
  0
VERTEX
  8
AB0CF1S
 62
     3
  6
CONTINUOUS
 10
-0.434244
 20
4.386276
  0
SEQEND
  8
0
  0
POLYLINE
  8
AB0CF1S
 62
     3
  6
CONTINUOUS
 66
     1
 40
0.003000
 41
0.003000
  0
VERTEX
  8
AB0CF1S
 62
     3
  6
CONTINUOUS
 10
-0.614626
 20
3.360126
  0
VERTEX
  8
AB0CF1S
 62
     3
  6
CONTINUOUS
 10
-0.570988
 20
3.284539
  0
SEQEND
  8
0
  0
POLYLINE
  8
AB0CF1S
 62
     3
  6
CONTINUOUS
 66
     1
 40
0.003000
 41
0.003000
  0
VERTEX
  8
AB0CF1S
 62
     3
  6
CONTINUOUS
 10
-0.614626
 20
3.718287
  0
VERTEX
  8
AB0CF1S
 62
     3
  6
CONTINUOUS
 10
-0.570988
 20
3.642701
  0
SEQEND
  8
0
  0
POLYLINE
  8
AB0CF1S
 62
     3
  6
CONTINUOUS
 66
     1
 40
0.003000
 41
0.003000
  0
VERTEX
  8
AB0CF1S
 62
     3
  6
CONTINUOUS
 10
-0.614626
 20
4.076449
  0
VERTEX
  8
AB0CF1S
 62
     3
  6
CONTINUOUS
 10
-0.570988
 20
4.000862
  0
SEQEND
  8
0
  0
POLYLINE
  8
AB0CF1S
 62
     3
  6
CONTINUOUS
 66
     1
 40
0.003000
 41
0.003000
  0
VERTEX
  8
AB0CF1S
 62
     3
  6
CONTINUOUS
 10
-0.614626
 20
4.434610
  0
VERTEX
  8
AB0CF1S
 62
     3
  6
CONTINUOUS
 10
-0.570988
 20
4.359024
  0
SEQEND
  8
0
  0
POLYLINE
  8
AB0CF1S
 62
     3
  6
CONTINUOUS
 66
     1
 40
0.003000
 41
0.003000
  0
VERTEX
  8
AB0CF1S
 62
     3
  6
CONTINUOUS
 10
-0.575854
 20
3.382512
  0
VERTEX
  8
AB0CF1S
 62
     3
  6
CONTINUOUS
 10
-0.532213
 20
3.306925
  0
SEQEND
  8
0
  0
POLYLINE
  8
AB0CF1S
 62
     3
  6
CONTINUOUS
 66
     1
 40
0.003000
 41
0.003000
  0
VERTEX
  8
AB0CF1S
 62
     3
  6
CONTINUOUS
 10
-0.575854
 20
3.740673
  0
VERTEX
  8
AB0CF1S
 62
     3
  6
CONTINUOUS
 10
-0.532213
 20
3.665087
  0
SEQEND
  8
0
  0
POLYLINE
  8
AB0CF1S
 62
     3
  6
CONTINUOUS
 66
     1
 40
0.003000
 41
0.003000
  0
VERTEX
  8
AB0CF1S
 62
     3
  6
CONTINUOUS
 10
-0.575854
 20
4.098835
  0
VERTEX
  8
AB0CF1S
 62
     3
  6
CONTINUOUS
 10
-0.532213
 20
4.023248
  0
SEQEND
  8
0
  0
POLYLINE
  8
AB0CF1S
 62
     3
  6
CONTINUOUS
 66
     1
 40
0.003000
 41
0.003000
  0
VERTEX
  8
AB0CF1S
 62
     3
  6
CONTINUOUS
 10
-0.575854
 20
4.456996
  0
VERTEX
  8
AB0CF1S
 62
     3
  6
CONTINUOUS
 10
-0.532213
 20
4.381409
  0
SEQEND
  8
0
  0
POLYLINE
  8
AB0CF1S
 62
     3
  6
CONTINUOUS
 66
     1
 40
0.003000
 41
0.003000
  0
VERTEX
  8
AB0CF1S
 62
     3
  6
CONTINUOUS
 10
-0.575854
 20
4.815157
  0
VERTEX
  8
AB0CF1S
 62
     3
  6
CONTINUOUS
 10
-0.532213
 20
4.739571
  0
SEQEND
  8
0
  0
POLYLINE
  8
AB0CF1S
 62
     3
  6
CONTINUOUS
 66
     1
 40
0.003000
 41
0.003000
  0
VERTEX
  8
AB0CF1S
 62
     3
  6
CONTINUOUS
 10
-0.614626
 20
4.792772
  0
VERTEX
  8
AB0CF1S
 62
     3
  6
CONTINUOUS
 10
-0.570988
 20
4.717185
  0
SEQEND
  8
0
  0
POLYLINE
  8
AB0CF1S
 62
     3
  6
CONTINUOUS
 66
     1
 40
0.003000
 41
0.003000
  0
VERTEX
  8
AB0CF1S
 62
     3
  6
CONTINUOUS
 10
-0.509827
 20
4.700799
  0
VERTEX
  8
AB0CF1S
 62
     3
  6
CONTINUOUS
 10
-0.434244
 20
4.744437
  0
SEQEND
  8
0
  0
POLYLINE
  8
AB0CF1S
 62
     3
  6
CONTINUOUS
 66
     1
 40
0.003000
 41
0.003000
  0
VERTEX
  8
AB0CF1S
 62
     3
  6
CONTINUOUS
 10
-0.532213
 20
4.739571
  0
VERTEX
  8
AB0CF1S
 62
     3
  6
CONTINUOUS
 10
-0.456630
 20
4.783213
  0
SEQEND
  8
0
  0
POLYLINE
  8
AB0CF1S
 62
     3
  6
CONTINUOUS
 66
     1
 40
0.003000
 41
0.003000
  0
VERTEX
  8
AB0CF1S
 62
     3
  6
CONTINUOUS
 10
-0.548602
 20
4.678413
  0
VERTEX
  8
AB0CF1S
 62
     3
  6
CONTINUOUS
 10
-0.504965
 20
4.602827
  0
SEQEND
  8
0
  0
POLYLINE
  8
AB0CF1S
 62
     3
  6
CONTINUOUS
 66
     1
 40
0.003000
 41
0.003000
  0
VERTEX
  8
AB0CF1S
 62
     3
  6
CONTINUOUS
 10
-0.509827
 20
4.700799
  0
VERTEX
  8
AB0CF1S
 62
     3
  6
CONTINUOUS
 10
-0.466189
 20
4.625213
  0
SEQEND
  8
0
  0
POLYLINE
  8
AB0CF1S
 62
     3
  6
CONTINUOUS
 66
     1
 40
0.003000
 41
0.003000
  0
VERTEX
  8
AB0CF1S
 62
     3
  6
CONTINUOUS
 10
-0.624189
 20
4.634776
  0
VERTEX
  8
AB0CF1S
 62
     3
  6
CONTINUOUS
 10
-0.548602
 20
4.678413
  0
SEQEND
  8
0
  0
POLYLINE
  8
AB0CF1S
 62
     3
  6
CONTINUOUS
 66
     1
 40
0.003000
 41
0.003000
  0
VERTEX
  8
AB0CF1S
 62
     3
  6
CONTINUOUS
 10
-0.646571
 20
4.673543
  0
VERTEX
  8
AB0CF1S
 62
     3
  6
CONTINUOUS
 10
-0.570988
 20
4.717185
  0
SEQEND
  8
0
  0
POLYLINE
  8
AB0CF1S
 62
     3
  6
CONTINUOUS
 66
     1
 40
0.003000
 41
0.003000
  0
VERTEX
  8
AB0CF1S
 62
     3
  6
CONTINUOUS
 10
-1.803299
 20
4.815157
  0
VERTEX
  8
AB0CF1S
 62
     3
  6
CONTINUOUS
 10
-1.846937
 20
4.739571
  0
SEQEND
  8
0
  0
POLYLINE
  8
AB0CF1S
 62
     3
  6
CONTINUOUS
 66
     1
 40
0.003000
 41
0.003000
  0
VERTEX
  8
AB0CF1S
 62
     3
  6
CONTINUOUS
 10
-1.764528
 20
4.792772
  0
VERTEX
  8
AB0CF1S
 62
     3
  6
CONTINUOUS
 10
-1.808165
 20
4.717185
  0
SEQEND
  8
0
  0
POLYLINE
  8
AB0CF1S
 62
     3
  6
CONTINUOUS
 66
     1
 40
0.003000
 41
0.003000
  0
VERTEX
  8
AB0CF1S
 62
     3
  6
CONTINUOUS
 10
-1.869323
 20
4.700799
  0
VERTEX
  8
AB0CF1S
 62
     3
  6
CONTINUOUS
 10
-1.944909
 20
4.744437
  0
SEQEND
  8
0
  0
POLYLINE
  8
AB0CF1S
 62
     3
  6
CONTINUOUS
 66
     1
 40
0.003000
 41
0.003000
  0
VERTEX
  8
AB0CF1S
 62
     3
  6
CONTINUOUS
 10
-1.846937
 20
4.739571
  0
VERTEX
  8
AB0CF1S
 62
     3
  6
CONTINUOUS
 10
-1.922524
 20
4.783213
  0
SEQEND
  8
0
  0
POLYLINE
  8
AB0CF1S
 62
     3
  6
CONTINUOUS
 66
     1
 40
0.003000
 41
0.003000
  0
VERTEX
  8
AB0CF1S
 62
     3
  6
CONTINUOUS
 10
-1.830551
 20
4.678413
  0
VERTEX
  8
AB0CF1S
 62
     3
  6
CONTINUOUS
 10
-1.874189
 20
4.602827
  0
SEQEND
  8
0
  0
POLYLINE
  8
AB0CF1S
 62
     3
  6
CONTINUOUS
 66
     1
 40
0.003000
 41
0.003000
  0
VERTEX
  8
AB0CF1S
 62
     3
  6
CONTINUOUS
 10
-1.869323
 20
4.700799
  0
VERTEX
  8
AB0CF1S
 62
     3
  6
CONTINUOUS
 10
-1.912961
 20
4.625213
  0
SEQEND
  8
0
  0
POLYLINE
  8
AB0CF1S
 62
     3
  6
CONTINUOUS
 66
     1
 40
0.003000
 41
0.003000
  0
VERTEX
  8
AB0CF1S
 62
     3
  6
CONTINUOUS
 10
-1.754965
 20
4.634776
  0
VERTEX
  8
AB0CF1S
 62
     3
  6
CONTINUOUS
 10
-1.830551
 20
4.678413
  0
SEQEND
  8
0
  0
POLYLINE
  8
AB0CF1S
 62
     3
  6
CONTINUOUS
 66
     1
 40
0.003000
 41
0.003000
  0
VERTEX
  8
AB0CF1S
 62
     3
  6
CONTINUOUS
 10
-1.732579
 20
4.673543
  0
VERTEX
  8
AB0CF1S
 62
     3
  6
CONTINUOUS
 10
-1.808165
 20
4.717185
  0
SEQEND
  8
0
  0
TEXT
  8
AB0CF1S
 10
3.895646
 20
3.081594
 40
0.144026
  1
-
 41
1.000000
  7
SN0
 71
     0
 72
     5
 11
3.954608
 21
3.081594
  0
TEXT
  8
AB0CF1S
 10
3.897433
 20
3.999386
 40
0.144026
  1
+
 41
1.000000
  7
SN0
 71
     0
 72
     5
 11
3.989832
 21
3.999386
  0
TEXT
  8
AB0CF1S
 10
-0.133669
 20
4.200850
 40
0.144026
  1
-
 41
1.000000
  7
SN0
 71
     0
 72
     5
 11
-0.074707
 21
4.200850
  0
TEXT
  8
AB0CF1S
 10
-0.131878
 20
4.738091
 40
0.144026
  1
+
 41
1.000000
  7
SN0
 71
     0
 72
     5
 11
-0.039479
 21
4.738091
  0
POLYLINE
  8
AB0CF1S
 62
     3
  6
CONTINUOUS
 66
     1
 40
0.003000
 41
0.003000
 70
     1
  0
VERTEX
  8
AB0CF1S
 62
     3
  6
CONTINUOUS
 10
0.466917
 20
3.659130
  0
VERTEX
  8
AB0CF1S
 62
     3
  6
CONTINUOUS
 10
0.435084
 20
3.640568
  0
VERTEX
  8
AB0CF1S
 62
     3
  6
CONTINUOUS
 10
0.435084
 20
3.606066
  0
VERTEX
  8
AB0CF1S
 62
     3
  6
CONTINUOUS
 10
0.466917
 20
3.587504
  0
VERTEX
  8
AB0CF1S
 62
     3
  6
CONTINUOUS
 10
0.498749
 20
3.606060
  0
VERTEX
  8
AB0CF1S
 62
     3
  6
CONTINUOUS
 10
0.498753
 20
3.640562
  0
VERTEX
  8
AB0CF1S
 62
     3
  6
CONTINUOUS
 10
0.466921
 20
3.659126
  0
VERTEX
  8
AB0CF1S
 62
     3
  6
CONTINUOUS
 10
0.466920
 20
3.659127
  0
VERTEX
  8
AB0CF1S
 62
     3
  6
CONTINUOUS
 10
0.466918
 20
3.659129
  0
SEQEND
  8
0
  0
POLYLINE
  8
AB0CF1S
 62
     3
  6
CONTINUOUS
 66
     1
 40
0.003000
 41
0.003000
 70
     1
  0
VERTEX
  8
AB0CF1S
 62
     3
  6
CONTINUOUS
 10
0.466917
 20
3.654650
  0
VERTEX
  8
AB0CF1S
 62
     3
  6
CONTINUOUS
 10
0.439066
 20
3.638410
  0
VERTEX
  8
AB0CF1S
 62
     3
  6
CONTINUOUS
 10
0.439065
 20
3.608224
  0
VERTEX
  8
AB0CF1S
 62
     3
  6
CONTINUOUS
 10
0.466917
 20
3.591984
  0
VERTEX
  8
AB0CF1S
 62
     3
  6
CONTINUOUS
 10
0.494767
 20
3.608218
  0
VERTEX
  8
AB0CF1S
 62
     3
  6
CONTINUOUS
 10
0.494770
 20
3.638404
  0
VERTEX
  8
AB0CF1S
 62
     3
  6
CONTINUOUS
 10
0.466921
 20
3.654646
  0
VERTEX
  8
AB0CF1S
 62
     3
  6
CONTINUOUS
 10
0.466920
 20
3.654647
  0
VERTEX
  8
AB0CF1S
 62
     3
  6
CONTINUOUS
 10
0.466918
 20
3.654649
  0
SEQEND
  8
0
  0
POLYLINE
  8
AB0CF1S
 62
     3
  6
CONTINUOUS
 66
     1
 40
0.003000
 41
0.003000
 70
     1
  0
VERTEX
  8
AB0CF1S
 62
     3
  6
CONTINUOUS
 10
0.466917
 20
3.650173
  0
VERTEX
  8
AB0CF1S
 62
     3
  6
CONTINUOUS
 10
0.443045
 20
3.636254
  0
VERTEX
  8
AB0CF1S
 62
     3
  6
CONTINUOUS
 10
0.443044
 20
3.610380
  0
VERTEX
  8
AB0CF1S
 62
     3
  6
CONTINUOUS
 10
0.466917
 20
3.596461
  0
VERTEX
  8
AB0CF1S
 62
     3
  6
CONTINUOUS
 10
0.490788
 20
3.610375
  0
VERTEX
  8
AB0CF1S
 62
     3
  6
CONTINUOUS
 10
0.490791
 20
3.636247
  0
VERTEX
  8
AB0CF1S
 62
     3
  6
CONTINUOUS
 10
0.466921
 20
3.650169
  0
VERTEX
  8
AB0CF1S
 62
     3
  6
CONTINUOUS
 10
0.466920
 20
3.650170
  0
VERTEX
  8
AB0CF1S
 62
     3
  6
CONTINUOUS
 10
0.466918
 20
3.650172
  0
SEQEND
  8
0
  0
POLYLINE
  8
AB0CF1S
 62
     3
  6
CONTINUOUS
 66
     1
 40
0.003000
 41
0.003000
 70
     1
  0
VERTEX
  8
AB0CF1S
 62
     3
  6
CONTINUOUS
 10
0.466917
 20
3.632264
  0
VERTEX
  8
AB0CF1S
 62
     3
  6
CONTINUOUS
 10
0.458965
 20
3.627626
  0
VERTEX
  8
AB0CF1S
 62
     3
  6
CONTINUOUS
 10
0.458965
 20
3.619006
  0
VERTEX
  8
AB0CF1S
 62
     3
  6
CONTINUOUS
 10
0.466917
 20
3.614370
  0
VERTEX
  8
AB0CF1S
 62
     3
  6
CONTINUOUS
 10
0.474870
 20
3.619005
  0
VERTEX
  8
AB0CF1S
 62
     3
  6
CONTINUOUS
 10
0.474870
 20
3.627623
  0
VERTEX
  8
AB0CF1S
 62
     3
  6
CONTINUOUS
 10
0.466917
 20
3.632260
  0
VERTEX
  8
AB0CF1S
 62
     3
  6
CONTINUOUS
 10
0.466917
 20
3.632261
  0
VERTEX
  8
AB0CF1S
 62
     3
  6
CONTINUOUS
 10
0.466917
 20
3.632263
  0
SEQEND
  8
0
  0
POLYLINE
  8
AB0CF1S
 62
     3
  6
CONTINUOUS
 66
     1
 40
0.003000
 41
0.003000
 70
     1
  0
VERTEX
  8
AB0CF1S
 62
     3
  6
CONTINUOUS
 10
0.466917
 20
3.636740
  0
VERTEX
  8
AB0CF1S
 62
     3
  6
CONTINUOUS
 10
0.454986
 20
3.629782
  0
VERTEX
  8
AB0CF1S
 62
     3
  6
CONTINUOUS
 10
0.454986
 20
3.616850
  0
VERTEX
  8
AB0CF1S
 62
     3
  6
CONTINUOUS
 10
0.466917
 20
3.609894
  0
VERTEX
  8
AB0CF1S
 62
     3
  6
CONTINUOUS
 10
0.478850
 20
3.616847
  0
VERTEX
  8
AB0CF1S
 62
     3
  6
CONTINUOUS
 10
0.478851
 20
3.629778
  0
VERTEX
  8
AB0CF1S
 62
     3
  6
CONTINUOUS
 10
0.466917
 20
3.636736
  0
VERTEX
  8
AB0CF1S
 62
     3
  6
CONTINUOUS
 10
0.466917
 20
3.636737
  0
VERTEX
  8
AB0CF1S
 62
     3
  6
CONTINUOUS
 10
0.466917
 20
3.636739
  0
SEQEND
  8
0
  0
POLYLINE
  8
AB0CF1S
 62
     3
  6
CONTINUOUS
 66
     1
 40
0.003000
 41
0.003000
 70
     1
  0
VERTEX
  8
AB0CF1S
 62
     3
  6
CONTINUOUS
 10
0.466917
 20
3.641220
  0
VERTEX
  8
AB0CF1S
 62
     3
  6
CONTINUOUS
 10
0.451003
 20
3.631940
  0
VERTEX
  8
AB0CF1S
 62
     3
  6
CONTINUOUS
 10
0.451002
 20
3.614691
  0
VERTEX
  8
AB0CF1S
 62
     3
  6
CONTINUOUS
 10
0.466917
 20
3.605413
  0
VERTEX
  8
AB0CF1S
 62
     3
  6
CONTINUOUS
 10
0.482832
 20
3.614689
  0
VERTEX
  8
AB0CF1S
 62
     3
  6
CONTINUOUS
 10
0.482832
 20
3.631936
  0
VERTEX
  8
AB0CF1S
 62
     3
  6
CONTINUOUS
 10
0.466917
 20
3.641217
  0
VERTEX
  8
AB0CF1S
 62
     3
  6
CONTINUOUS
 10
0.466917
 20
3.641218
  0
VERTEX
  8
AB0CF1S
 62
     3
  6
CONTINUOUS
 10
0.466917
 20
3.641219
  0
SEQEND
  8
0
  0
POLYLINE
  8
AB0CF1S
 62
     3
  6
CONTINUOUS
 66
     1
 40
0.003000
 41
0.003000
 70
     1
  0
VERTEX
  8
AB0CF1S
 62
     3
  6
CONTINUOUS
 10
0.466917
 20
3.645701
  0
VERTEX
  8
AB0CF1S
 62
     3
  6
CONTINUOUS
 10
0.447021
 20
3.634100
  0
VERTEX
  8
AB0CF1S
 62
     3
  6
CONTINUOUS
 10
0.447021
 20
3.612534
  0
VERTEX
  8
AB0CF1S
 62
     3
  6
CONTINUOUS
 10
0.466917
 20
3.600933
  0
VERTEX
  8
AB0CF1S
 62
     3
  6
CONTINUOUS
 10
0.486814
 20
3.612531
  0
VERTEX
  8
AB0CF1S
 62
     3
  6
CONTINUOUS
 10
0.486817
 20
3.634094
  0
VERTEX
  8
AB0CF1S
 62
     3
  6
CONTINUOUS
 10
0.466921
 20
3.645697
  0
VERTEX
  8
AB0CF1S
 62
     3
  6
CONTINUOUS
 10
0.466920
 20
3.645698
  0
VERTEX
  8
AB0CF1S
 62
     3
  6
CONTINUOUS
 10
0.466918
 20
3.645700
  0
SEQEND
  8
0
  0
TEXT
  8
AB0CF1S
 10
-0.045157
 20
3.564039
 40
0.144026
  1
TC
 41
1.000000
  7
SN0
 71
     0
 72
     5
 11
0.205434
 21
3.564039
  0
TEXT
  8
AB0CF1S
 10
-0.129638
 20
3.305445
 40
0.144026
  1
-
 41
1.000000
  7
SN0
 71
     0
 72
     5
 11
-0.070675
 21
3.305445
  0
TEXT
  8
AB0CF1S
 10
-0.129642
 20
3.865075
 40
0.144026
  1
+
 41
1.000000
  7
SN0
 71
     0
 72
     5
 11
-0.037243
 21
3.865075
  0
TEXT
  8
AB0CF1S
 10
0.194043
 20
4.472831
 40
0.144026
  1
C1
 41
1.000000
  7
SN0
 71
     0
 72
     5
 11
0.415153
 21
4.472831
  0
POLYLINE
  8
AB0CF1S
 62
     3
  6
CONTINUOUS
 66
     1
 40
0.003000
 41
0.003000
  0
VERTEX
  8
AB0CF1S
 62
     3
  6
CONTINUOUS
 10
0.444185
 20
3.630114
  0
VERTEX
  8
AB0CF1S
 62
     3
  6
CONTINUOUS
 10
0.170618
 20
3.253961
  0
SEQEND
  8
0
  0
POLYLINE
  8
AB0CF1S
 62
     3
  6
CONTINUOUS
 66
     1
 40
0.003000
 41
0.003000
  0
VERTEX
  8
AB0CF1S
 62
     3
  6
CONTINUOUS
 10
0.448732
 20
3.628752
  0
VERTEX
  8
AB0CF1S
 62
     3
  6
CONTINUOUS
 10
0.176154
 20
3.253961
  0
SEQEND
  8
0
  0
POLYLINE
  8
AB0CF1S
 62
     3
  6
CONTINUOUS
 66
     1
 40
0.003000
 41
0.003000
  0
VERTEX
  8
AB0CF1S
 62
     3
  6
CONTINUOUS
 10
0.453280
 20
3.627394
  0
VERTEX
  8
AB0CF1S
 62
     3
  6
CONTINUOUS
 10
0.181693
 20
3.253961
  0
SEQEND
  8
0
  0
POLYLINE
  8
AB0CF1S
 62
     3
  6
CONTINUOUS
 66
     1
 40
0.003000
 41
0.003000
  0
VERTEX
  8
AB0CF1S
 62
     3
  6
CONTINUOUS
 10
0.457827
 20
3.626035
  0
VERTEX
  8
AB0CF1S
 62
     3
  6
CONTINUOUS
 10
0.187228
 20
3.253961
  0
SEQEND
  8
0
  0
POLYLINE
  8
AB0CF1S
 62
     3
  6
CONTINUOUS
 66
     1
 40
0.003000
 41
0.003000
  0
VERTEX
  8
AB0CF1S
 62
     3
  6
CONTINUOUS
 10
0.462370
 20
3.624677
  0
VERTEX
  8
AB0CF1S
 62
     3
  6
CONTINUOUS
 10
0.192764
 20
3.253961
  0
SEQEND
  8
0
  0
POLYLINE
  8
AB0CF1S
 62
     3
  6
CONTINUOUS
 66
     1
 40
0.003000
 41
0.003000
  0
VERTEX
  8
AB0CF1S
 62
     3
  6
CONTINUOUS
 10
0.466917
 20
3.623315
  0
VERTEX
  8
AB0CF1S
 62
     3
  6
CONTINUOUS
 10
0.198299
 20
3.253961
  0
SEQEND
  8
0
  0
POLYLINE
  8
AB0CF1S
 62
     3
  6
CONTINUOUS
 66
     1
 40
0.003000
 41
0.003000
  0
VERTEX
  8
AB0CF1S
 62
     3
  6
CONTINUOUS
 10
0.198295
 20
3.992669
  0
VERTEX
  8
AB0CF1S
 62
     3
  6
CONTINUOUS
 10
0.466917
 20
3.623315
  0
SEQEND
  8
0
  0
POLYLINE
  8
AB0CF1S
 62
     3
  6
CONTINUOUS
 66
     1
 40
0.003000
 41
0.003000
  0
VERTEX
  8
AB0CF1S
 62
     3
  6
CONTINUOUS
 10
0.198295
 20
3.253961
  0
VERTEX
  8
AB0CF1S
 62
     3
  6
CONTINUOUS
 10
-0.204630
 20
3.253961
  0
SEQEND
  8
0
  0
POLYLINE
  8
AB0CF1S
 62
     3
  6
CONTINUOUS
 66
     1
 40
0.003000
 41
0.003000
  0
VERTEX
  8
AB0CF1S
 62
     3
  6
CONTINUOUS
 10
0.198295
 20
3.992669
  0
VERTEX
  8
AB0CF1S
 62
     3
  6
CONTINUOUS
 10
-0.204630
 20
3.992669
  0
SEQEND
  8
0
  0
POLYLINE
  8
AB0CF1S
 62
     3
  6
CONTINUOUS
 66
     1
 40
0.003000
 41
0.003000
  0
VERTEX
  8
AB0CF1S
 62
     3
  6
CONTINUOUS
 10
0.108756
 20
4.619453
  0
VERTEX
  8
AB0CF1S
 62
     3
  6
CONTINUOUS
 10
0.108756
 20
4.708992
  0
SEQEND
  8
0
  0
POLYLINE
  8
AB0CF1S
 62
     3
  6
CONTINUOUS
 66
     1
 40
0.003000
 41
0.003000
  0
VERTEX
  8
AB0CF1S
 62
     3
  6
CONTINUOUS
 10
0.108756
 20
4.328445
  0
VERTEX
  8
AB0CF1S
 62
     3
  6
CONTINUOUS
 10
0.108756
 20
4.417984
  0
SEQEND
  8
0
  0
POLYLINE
  8
AB0CF1S
 62
     3
  6
CONTINUOUS
 66
     1
 40
0.003000
 41
0.003000
  0
VERTEX
  8
AB0CF1S
 62
     3
  6
CONTINUOUS
 10
0.108756
 20
4.328445
  0
VERTEX
  8
AB0CF1S
 62
     3
  6
CONTINUOUS
 10
-0.204630
 20
4.328445
  0
SEQEND
  8
0
  0
POLYLINE
  8
AB0CF1S
 62
     3
  6
CONTINUOUS
 66
     1
 40
0.003000
 41
0.003000
  0
VERTEX
  8
AB0CF1S
 62
     3
  6
CONTINUOUS
 10
0.108756
 20
4.708992
  0
VERTEX
  8
AB0CF1S
 62
     3
  6
CONTINUOUS
 10
-0.204630
 20
4.708992
  0
SEQEND
  8
0
  0
POLYLINE
  8
AB0CF1S
 62
     7
  6
CONTINUOUS
 66
     1
 40
0.003000
 41
0.003000
  0
VERTEX
  8
AB0CF1S
 62
     7
  6
CONTINUOUS
 10
3.377421
 20
4.340776
  0
VERTEX
  8
AB0CF1S
 62
     7
  6
CONTINUOUS
 10
3.395639
 20
4.288912
  0
VERTEX
  8
AB0CF1S
 62
     7
  6
CONTINUOUS
 10
3.435423
 20
4.252592
  0
VERTEX
  8
AB0CF1S
 62
     7
  6
CONTINUOUS
 10
3.488906
 20
4.238909
  0
SEQEND
  8
0
  0
POLYLINE
  8
AB0CF1S
 62
     7
  6
CONTINUOUS
 66
     1
 40
0.003000
 41
0.003000
  0
VERTEX
  8
AB0CF1S
 62
     7
  6
CONTINUOUS
 10
3.488906
 20
4.238909
  0
VERTEX
  8
AB0CF1S
 62
     7
  6
CONTINUOUS
 10
3.529030
 20
4.246504
  0
VERTEX
  8
AB0CF1S
 62
     7
  6
CONTINUOUS
 10
3.563617
 20
4.267604
  0
VERTEX
  8
AB0CF1S
 62
     7
  6
CONTINUOUS
 10
3.588587
 20
4.299681
  0
SEQEND
  8
0
  0
POLYLINE
  8
AB0CF1S
 62
     3
  6
CONTINUOUS
 66
     1
 40
0.003000
 41
0.003000
  0
VERTEX
  8
AB0CF1S
 62
     3
  6
CONTINUOUS
 10
3.377421
 20
4.340776
  0
VERTEX
  8
AB0CF1S
 62
     3
  6
CONTINUOUS
 10
3.395639
 20
4.288912
  0
VERTEX
  8
AB0CF1S
 62
     3
  6
CONTINUOUS
 10
3.435423
 20
4.252592
  0
VERTEX
  8
AB0CF1S
 62
     3
  6
CONTINUOUS
 10
3.488906
 20
4.238909
  0
SEQEND
  8
0
  0
POLYLINE
  8
AB0CF1S
 62
     3
  6
CONTINUOUS
 66
     1
 40
0.003000
 41
0.003000
  0
VERTEX
  8
AB0CF1S
 62
     3
  6
CONTINUOUS
 10
3.488906
 20
4.238909
  0
VERTEX
  8
AB0CF1S
 62
     3
  6
CONTINUOUS
 10
3.529030
 20
4.246504
  0
VERTEX
  8
AB0CF1S
 62
     3
  6
CONTINUOUS
 10
3.563617
 20
4.267604
  0
VERTEX
  8
AB0CF1S
 62
     3
  6
CONTINUOUS
 10
3.588587
 20
4.299681
  0
SEQEND
  8
0
  0
POLYLINE
  8
AB0CF1S
 62
     1
  6
CONTINUOUS
 66
     1
 40
0.003000
 41
0.003000
  0
VERTEX
  8
AB0CF1S
 62
     1
  6
CONTINUOUS
 10
3.064772
 20
3.712839
  0
VERTEX
  8
AB0CF1S
 62
     1
  6
CONTINUOUS
 10
3.140327
 20
3.318264
  0
SEQEND
  8
0
  0
POLYLINE
  8
AB0CF1S
 62
     1
  6
CONTINUOUS
 66
     1
 40
0.003000
 41
0.003000
  0
VERTEX
  8
AB0CF1S
 62
     1
  6
CONTINUOUS
 10
3.098350
 20
4.199760
  0
VERTEX
  8
AB0CF1S
 62
     1
  6
CONTINUOUS
 10
3.064772
 20
3.712839
  0
SEQEND
  8
0
  0
POLYLINE
  8
AB0CF1S
 62
     1
  6
CONTINUOUS
 66
     1
 40
0.003000
 41
0.003000
  0
VERTEX
  8
AB0CF1S
 62
     1
  6
CONTINUOUS
 10
3.325024
 20
4.350874
  0
VERTEX
  8
AB0CF1S
 62
     1
  6
CONTINUOUS
 10
3.098350
 20
4.199760
  0
SEQEND
  8
0
  0
POLYLINE
  8
AB0CF1S
 62
     1
  6
CONTINUOUS
 66
     1
 40
0.003000
 41
0.003000
  0
VERTEX
  8
AB0CF1S
 62
     1
  6
CONTINUOUS
 10
3.627248
 20
4.292106
  0
VERTEX
  8
AB0CF1S
 62
     1
  6
CONTINUOUS
 10
3.325024
 20
4.350874
  0
SEQEND
  8
0
  0
POLYLINE
  8
AB0CF1S
 62
     1
  6
CONTINUOUS
 66
     1
 40
0.003000
 41
0.003000
  0
VERTEX
  8
AB0CF1S
 62
     1
  6
CONTINUOUS
 10
3.824681
 20
4.328004
  0
VERTEX
  8
AB0CF1S
 62
     1
  6
CONTINUOUS
 10
3.627248
 20
4.292106
  0
SEQEND
  8
0
  0
POLYLINE
  8
AB0CF1S
 62
     3
  6
CONTINUOUS
 66
     1
 40
0.003000
 41
0.003000
 70
     1
  0
VERTEX
  8
AB0CF1S
 62
     3
  6
CONTINUOUS
 10
3.488906
 20
3.388268
  0
VERTEX
  8
AB0CF1S
 62
     3
  6
CONTINUOUS
 10
3.454709
 20
3.383886
  0
VERTEX
  8
AB0CF1S
 62
     3
  6
CONTINUOUS
 10
3.426730
 20
3.371721
  0
VERTEX
  8
AB0CF1S
 62
     3
  6
CONTINUOUS
 10
3.404968
 20
3.353328
  0
VERTEX
  8
AB0CF1S
 62
     3
  6
CONTINUOUS
 10
3.389423
 20
3.330264
  0
VERTEX
  8
AB0CF1S
 62
     3
  6
CONTINUOUS
 10
3.380096
 20
3.304087
  0
VERTEX
  8
AB0CF1S
 62
     3
  6
CONTINUOUS
 10
3.376986
 20
3.276353
  0
VERTEX
  8
AB0CF1S
 62
     3
  6
CONTINUOUS
 10
3.380094
 20
3.248618
  0
VERTEX
  8
AB0CF1S
 62
     3
  6
CONTINUOUS
 10
3.389419
 20
3.222440
  0
VERTEX
  8
AB0CF1S
 62
     3
  6
CONTINUOUS
 10
3.404962
 20
3.199376
  0
VERTEX
  8
AB0CF1S
 62
     3
  6
CONTINUOUS
 10
3.426723
 20
3.180981
  0
VERTEX
  8
AB0CF1S
 62
     3
  6
CONTINUOUS
 10
3.454701
 20
3.168813
  0
VERTEX
  8
AB0CF1S
 62
     3
  6
CONTINUOUS
 10
3.488898
 20
3.164429
  0
VERTEX
  8
AB0CF1S
 62
     3
  6
CONTINUOUS
 10
3.523094
 20
3.168807
  0
VERTEX
  8
AB0CF1S
 62
     3
  6
CONTINUOUS
 10
3.551074
 20
3.180970
  0
VERTEX
  8
AB0CF1S
 62
     3
  6
CONTINUOUS
 10
3.572837
 20
3.199360
  0
VERTEX
  8
AB0CF1S
 62
     3
  6
CONTINUOUS
 10
3.588383
 20
3.222422
  0
VERTEX
  8
AB0CF1S
 62
     3
  6
CONTINUOUS
 10
3.597713
 20
3.248598
  0
VERTEX
  8
AB0CF1S
 62
     3
  6
CONTINUOUS
 10
3.600825
 20
3.276332
  0
VERTEX
  8
AB0CF1S
 62
     3
  6
CONTINUOUS
 10
3.597720
 20
3.304066
  0
VERTEX
  8
AB0CF1S
 62
     3
  6
CONTINUOUS
 10
3.588397
 20
3.330245
  0
VERTEX
  8
AB0CF1S
 62
     3
  6
CONTINUOUS
 10
3.572857
 20
3.353311
  0
VERTEX
  8
AB0CF1S
 62
     3
  6
CONTINUOUS
 10
3.551098
 20
3.371707
  0
VERTEX
  8
AB0CF1S
 62
     3
  6
CONTINUOUS
 10
3.523121
 20
3.383877
  0
VERTEX
  8
AB0CF1S
 62
     3
  6
CONTINUOUS
 10
3.488925
 20
3.388264
  0
VERTEX
  8
AB0CF1S
 62
     3
  6
CONTINUOUS
 10
3.488920
 20
3.388265
  0
VERTEX
  8
AB0CF1S
 62
     3
  6
CONTINUOUS
 10
3.488911
 20
3.388267
  0
SEQEND
  8
0
  0
POLYLINE
  8
AB0CF1S
 62
     3
  6
CONTINUOUS
 66
     1
 40
0.003000
 41
0.003000
 70
     1
  0
VERTEX
  8
AB0CF1S
 62
     3
  6
CONTINUOUS
 10
3.488906
 20
3.746429
  0
VERTEX
  8
AB0CF1S
 62
     3
  6
CONTINUOUS
 10
3.454709
 20
3.742048
  0
VERTEX
  8
AB0CF1S
 62
     3
  6
CONTINUOUS
 10
3.426730
 20
3.729882
  0
VERTEX
  8
AB0CF1S
 62
     3
  6
CONTINUOUS
 10
3.404968
 20
3.711489
  0
VERTEX
  8
AB0CF1S
 62
     3
  6
CONTINUOUS
 10
3.389423
 20
3.688426
  0
VERTEX
  8
AB0CF1S
 62
     3
  6
CONTINUOUS
 10
3.380096
 20
3.662249
  0
VERTEX
  8
AB0CF1S
 62
     3
  6
CONTINUOUS
 10
3.376986
 20
3.634514
  0
VERTEX
  8
AB0CF1S
 62
     3
  6
CONTINUOUS
 10
3.380094
 20
3.606780
  0
VERTEX
  8
AB0CF1S
 62
     3
  6
CONTINUOUS
 10
3.389419
 20
3.580602
  0
VERTEX
  8
AB0CF1S
 62
     3
  6
CONTINUOUS
 10
3.404962
 20
3.557537
  0
VERTEX
  8
AB0CF1S
 62
     3
  6
CONTINUOUS
 10
3.426723
 20
3.539142
  0
VERTEX
  8
AB0CF1S
 62
     3
  6
CONTINUOUS
 10
3.454701
 20
3.526975
  0
VERTEX
  8
AB0CF1S
 62
     3
  6
CONTINUOUS
 10
3.488898
 20
3.522591
  0
VERTEX
  8
AB0CF1S
 62
     3
  6
CONTINUOUS
 10
3.523094
 20
3.526968
  0
VERTEX
  8
AB0CF1S
 62
     3
  6
CONTINUOUS
 10
3.551074
 20
3.539131
  0
VERTEX
  8
AB0CF1S
 62
     3
  6
CONTINUOUS
 10
3.572837
 20
3.557522
  0
VERTEX
  8
AB0CF1S
 62
     3
  6
CONTINUOUS
 10
3.588383
 20
3.580583
  0
VERTEX
  8
AB0CF1S
 62
     3
  6
CONTINUOUS
 10
3.597713
 20
3.606759
  0
VERTEX
  8
AB0CF1S
 62
     3
  6
CONTINUOUS
 10
3.600825
 20
3.634493
  0
VERTEX
  8
AB0CF1S
 62
     3
  6
CONTINUOUS
 10
3.597720
 20
3.662228
  0
VERTEX
  8
AB0CF1S
 62
     3
  6
CONTINUOUS
 10
3.588397
 20
3.688406
  0
VERTEX
  8
AB0CF1S
 62
     3
  6
CONTINUOUS
 10
3.572857
 20
3.711472
  0
VERTEX
  8
AB0CF1S
 62
     3
  6
CONTINUOUS
 10
3.551098
 20
3.729868
  0
VERTEX
  8
AB0CF1S
 62
     3
  6
CONTINUOUS
 10
3.523121
 20
3.742038
  0
VERTEX
  8
AB0CF1S
 62
     3
  6
CONTINUOUS
 10
3.488925
 20
3.746425
  0
VERTEX
  8
AB0CF1S
 62
     3
  6
CONTINUOUS
 10
3.488920
 20
3.746426
  0
VERTEX
  8
AB0CF1S
 62
     3
  6
CONTINUOUS
 10
3.488911
 20
3.746428
  0
SEQEND
  8
0
  0
POLYLINE
  8
AB0CF1S
 62
     3
  6
CONTINUOUS
 66
     1
 40
0.003000
 41
0.003000
 70
     1
  0
VERTEX
  8
AB0CF1S
 62
     3
  6
CONTINUOUS
 10
3.488906
 20
4.104591
  0
VERTEX
  8
AB0CF1S
 62
     3
  6
CONTINUOUS
 10
3.454709
 20
4.100209
  0
VERTEX
  8
AB0CF1S
 62
     3
  6
CONTINUOUS
 10
3.426730
 20
4.088044
  0
VERTEX
  8
AB0CF1S
 62
     3
  6
CONTINUOUS
 10
3.404968
 20
4.069651
  0
VERTEX
  8
AB0CF1S
 62
     3
  6
CONTINUOUS
 10
3.389423
 20
4.046587
  0
VERTEX
  8
AB0CF1S
 62
     3
  6
CONTINUOUS
 10
3.380096
 20
4.020410
  0
VERTEX
  8
AB0CF1S
 62
     3
  6
CONTINUOUS
 10
3.376986
 20
3.992676
  0
VERTEX
  8
AB0CF1S
 62
     3
  6
CONTINUOUS
 10
3.380094
 20
3.964941
  0
VERTEX
  8
AB0CF1S
 62
     3
  6
CONTINUOUS
 10
3.389419
 20
3.938763
  0
VERTEX
  8
AB0CF1S
 62
     3
  6
CONTINUOUS
 10
3.404962
 20
3.915699
  0
VERTEX
  8
AB0CF1S
 62
     3
  6
CONTINUOUS
 10
3.426723
 20
3.897304
  0
VERTEX
  8
AB0CF1S
 62
     3
  6
CONTINUOUS
 10
3.454701
 20
3.885136
  0
VERTEX
  8
AB0CF1S
 62
     3
  6
CONTINUOUS
 10
3.488898
 20
3.880752
  0
VERTEX
  8
AB0CF1S
 62
     3
  6
CONTINUOUS
 10
3.523094
 20
3.885130
  0
VERTEX
  8
AB0CF1S
 62
     3
  6
CONTINUOUS
 10
3.551074
 20
3.897292
  0
VERTEX
  8
AB0CF1S
 62
     3
  6
CONTINUOUS
 10
3.572837
 20
3.915683
  0
VERTEX
  8
AB0CF1S
 62
     3
  6
CONTINUOUS
 10
3.588383
 20
3.938745
  0
VERTEX
  8
AB0CF1S
 62
     3
  6
CONTINUOUS
 10
3.597713
 20
3.964921
  0
VERTEX
  8
AB0CF1S
 62
     3
  6
CONTINUOUS
 10
3.600825
 20
3.992655
  0
VERTEX
  8
AB0CF1S
 62
     3
  6
CONTINUOUS
 10
3.597720
 20
4.020389
  0
VERTEX
  8
AB0CF1S
 62
     3
  6
CONTINUOUS
 10
3.588397
 20
4.046568
  0
VERTEX
  8
AB0CF1S
 62
     3
  6
CONTINUOUS
 10
3.572857
 20
4.069633
  0
VERTEX
  8
AB0CF1S
 62
     3
  6
CONTINUOUS
 10
3.551098
 20
4.088030
  0
VERTEX
  8
AB0CF1S
 62
     3
  6
CONTINUOUS
 10
3.523121
 20
4.100200
  0
VERTEX
  8
AB0CF1S
 62
     3
  6
CONTINUOUS
 10
3.488925
 20
4.104587
  0
VERTEX
  8
AB0CF1S
 62
     3
  6
CONTINUOUS
 10
3.488920
 20
4.104588
  0
VERTEX
  8
AB0CF1S
 62
     3
  6
CONTINUOUS
 10
3.488911
 20
4.104590
  0
SEQEND
  8
0
  0
TEXT
  8
AB0CF1S
 10
3.675819
 20
3.909843
 40
0.144026
  1
8
 41
1.000000
  7
SN0
 71
     0
 72
     5
 11
3.768218
 21
3.909843
  0
TEXT
  8
AB0CF1S
 10
3.675819
 20
3.551681
 40
0.144026
  1
9
 41
1.000000
  7
SN0
 71
     0
 72
     5
 11
3.768218
 21
3.551681
  0
TEXT
  8
AB0CF1S
 10
3.653437
 20
3.193520
 40
0.144026
  1
10
 41
1.000000
  7
SN0
 71
     0
 72
     5
 11
3.838235
 21
3.193520
  0
TEXT
  8
AB0CF1S
 10
3.985720
 20
3.538295
 40
0.144026
  1
DC (mA)
 41
1.000000
  7
SN0
 71
     0
 72
     5
 11
4.683565
 21
3.538295
  0
POLYLINE
  8
AB0CF1S
 62
     3
  6
CONTINUOUS
 66
     1
 40
0.003000
 41
0.003000
  0
VERTEX
  8
AB0CF1S
 62
     3
  6
CONTINUOUS
 10
3.824681
 20
4.328004
  0
VERTEX
  8
AB0CF1S
 62
     3
  6
CONTINUOUS
 10
3.824681
 20
2.985339
  0
SEQEND
  8
0
  0
POLYLINE
  8
AB0CF1S
 62
     3
  6
CONTINUOUS
 66
     1
 40
0.003000
 41
0.003000
  0
VERTEX
  8
AB0CF1S
 62
     3
  6
CONTINUOUS
 10
3.287441
 20
4.325819
  0
VERTEX
  8
AB0CF1S
 62
     3
  6
CONTINUOUS
 10
3.287441
 20
3.119650
  0
SEQEND
  8
0
  0
POLYLINE
  8
AB0CF1S
 62
     3
  6
CONTINUOUS
 66
     1
 40
0.003000
 41
0.003000
  0
VERTEX
  8
AB0CF1S
 62
     3
  6
CONTINUOUS
 10
3.109776
 20
3.477811
  0
VERTEX
  8
AB0CF1S
 62
     3
  6
CONTINUOUS
 10
3.824681
 20
3.477811
  0
SEQEND
  8
0
  0
POLYLINE
  8
AB0CF1S
 62
     3
  6
CONTINUOUS
 66
     1
 40
0.003000
 41
0.003000
  0
VERTEX
  8
AB0CF1S
 62
     3
  6
CONTINUOUS
 10
3.118350
 20
3.433043
  0
VERTEX
  8
AB0CF1S
 62
     3
  6
CONTINUOUS
 10
3.824681
 20
3.433043
  0
SEQEND
  8
0
  0
POLYLINE
  8
AB0CF1S
 62
     3
  6
CONTINUOUS
 66
     1
 40
0.003000
 41
0.003000
  0
VERTEX
  8
AB0CF1S
 62
     3
  6
CONTINUOUS
 10
3.074122
 20
3.119650
  0
VERTEX
  8
AB0CF1S
 62
     3
  6
CONTINUOUS
 10
3.824681
 20
3.119650
  0
SEQEND
  8
0
  0
POLYLINE
  8
AB0CF1S
 62
     3
  6
CONTINUOUS
 66
     1
 40
0.003000
 41
0.003000
  0
VERTEX
  8
AB0CF1S
 62
     3
  6
CONTINUOUS
 10
3.029354
 20
2.985339
  0
VERTEX
  8
AB0CF1S
 62
     3
  6
CONTINUOUS
 10
3.824681
 20
2.985339
  0
SEQEND
  8
0
  0
POLYLINE
  8
AB0CF1S
 62
     3
  6
CONTINUOUS
 66
     1
 40
0.003000
 41
0.003000
  0
VERTEX
  8
AB0CF1S
 62
     3
  6
CONTINUOUS
 10
3.382740
 20
3.240898
  0
VERTEX
  8
AB0CF1S
 62
     3
  6
CONTINUOUS
 10
3.458327
 20
3.284539
  0
SEQEND
  8
0
  0
POLYLINE
  8
AB0CF1S
 62
     3
  6
CONTINUOUS
 66
     1
 40
0.003000
 41
0.003000
  0
VERTEX
  8
AB0CF1S
 62
     3
  6
CONTINUOUS
 10
3.382740
 20
3.599059
  0
VERTEX
  8
AB0CF1S
 62
     3
  6
CONTINUOUS
 10
3.458327
 20
3.642701
  0
SEQEND
  8
0
  0
POLYLINE
  8
AB0CF1S
 62
     3
  6
CONTINUOUS
 66
     1
 40
0.003000
 41
0.003000
  0
VERTEX
  8
AB0CF1S
 62
     3
  6
CONTINUOUS
 10
3.382740
 20
3.957220
  0
VERTEX
  8
AB0CF1S
 62
     3
  6
CONTINUOUS
 10
3.458327
 20
4.000862
  0
SEQEND
  8
0
  0
POLYLINE
  8
AB0CF1S
 62
     3
  6
CONTINUOUS
 66
     1
 40
0.003000
 41
0.003000
  0
VERTEX
  8
AB0CF1S
 62
     3
  6
CONTINUOUS
 10
3.382740
 20
4.315382
  0
VERTEX
  8
AB0CF1S
 62
     3
  6
CONTINUOUS
 10
3.414181
 20
4.333539
  0
SEQEND
  8
0
  0
POLYLINE
  8
AB0CF1S
 62
     3
  6
CONTINUOUS
 66
     1
 40
0.003000
 41
0.003000
  0
VERTEX
  8
AB0CF1S
 62
     3
  6
CONTINUOUS
 10
3.405126
 20
3.202130
  0
VERTEX
  8
AB0CF1S
 62
     3
  6
CONTINUOUS
 10
3.480709
 20
3.245768
  0
SEQEND
  8
0
  0
POLYLINE
  8
AB0CF1S
 62
     3
  6
CONTINUOUS
 66
     1
 40
0.003000
 41
0.003000
  0
VERTEX
  8
AB0CF1S
 62
     3
  6
CONTINUOUS
 10
3.405126
 20
3.560291
  0
VERTEX
  8
AB0CF1S
 62
     3
  6
CONTINUOUS
 10
3.480709
 20
3.603929
  0
SEQEND
  8
0
  0
POLYLINE
  8
AB0CF1S
 62
     3
  6
CONTINUOUS
 66
     1
 40
0.003000
 41
0.003000
  0
VERTEX
  8
AB0CF1S
 62
     3
  6
CONTINUOUS
 10
3.405126
 20
3.918453
  0
VERTEX
  8
AB0CF1S
 62
     3
  6
CONTINUOUS
 10
3.480709
 20
3.962091
  0
SEQEND
  8
0
  0
POLYLINE
  8
AB0CF1S
 62
     3
  6
CONTINUOUS
 66
     1
 40
0.003000
 41
0.003000
  0
VERTEX
  8
AB0CF1S
 62
     3
  6
CONTINUOUS
 10
3.405126
 20
4.276614
  0
VERTEX
  8
AB0CF1S
 62
     3
  6
CONTINUOUS
 10
3.480709
 20
4.320252
  0
SEQEND
  8
0
  0
POLYLINE
  8
AB0CF1S
 62
     3
  6
CONTINUOUS
 66
     1
 40
0.003000
 41
0.003000
  0
VERTEX
  8
AB0CF1S
 62
     3
  6
CONTINUOUS
 10
3.519484
 20
3.268154
  0
VERTEX
  8
AB0CF1S
 62
     3
  6
CONTINUOUS
 10
3.563122
 20
3.192567
  0
SEQEND
  8
0
  0
POLYLINE
  8
AB0CF1S
 62
     3
  6
CONTINUOUS
 66
     1
 40
0.003000
 41
0.003000
  0
VERTEX
  8
AB0CF1S
 62
     3
  6
CONTINUOUS
 10
3.519484
 20
3.626315
  0
VERTEX
  8
AB0CF1S
 62
     3
  6
CONTINUOUS
 10
3.563122
 20
3.550728
  0
SEQEND
  8
0
  0
POLYLINE
  8
AB0CF1S
 62
     3
  6
CONTINUOUS
 66
     1
 40
0.003000
 41
0.003000
  0
VERTEX
  8
AB0CF1S
 62
     3
  6
CONTINUOUS
 10
3.519484
 20
3.984476
  0
VERTEX
  8
AB0CF1S
 62
     3
  6
CONTINUOUS
 10
3.563122
 20
3.908890
  0
SEQEND
  8
0
  0
POLYLINE
  8
AB0CF1S
 62
     3
  6
CONTINUOUS
 66
     1
 40
0.003000
 41
0.003000
  0
VERTEX
  8
AB0CF1S
 62
     3
  6
CONTINUOUS
 10
3.538720
 20
4.309323
  0
VERTEX
  8
AB0CF1S
 62
     3
  6
CONTINUOUS
 10
3.563122
 20
4.267051
  0
SEQEND
  8
0
  0
POLYLINE
  8
AB0CF1S
 62
     3
  6
CONTINUOUS
 66
     1
 40
0.003000
 41
0.003000
  0
VERTEX
  8
AB0CF1S
 62
     3
  6
CONTINUOUS
 10
3.480709
 20
3.245768
  0
VERTEX
  8
AB0CF1S
 62
     3
  6
CONTINUOUS
 10
3.524350
 20
3.170181
  0
SEQEND
  8
0
  0
POLYLINE
  8
AB0CF1S
 62
     3
  6
CONTINUOUS
 66
     1
 40
0.003000
 41
0.003000
  0
VERTEX
  8
AB0CF1S
 62
     3
  6
CONTINUOUS
 10
3.480709
 20
3.603929
  0
VERTEX
  8
AB0CF1S
 62
     3
  6
CONTINUOUS
 10
3.524350
 20
3.528343
  0
SEQEND
  8
0
  0
POLYLINE
  8
AB0CF1S
 62
     3
  6
CONTINUOUS
 66
     1
 40
0.003000
 41
0.003000
  0
VERTEX
  8
AB0CF1S
 62
     3
  6
CONTINUOUS
 10
3.480709
 20
3.962091
  0
VERTEX
  8
AB0CF1S
 62
     3
  6
CONTINUOUS
 10
3.524350
 20
3.886504
  0
SEQEND
  8
0
  0
POLYLINE
  8
AB0CF1S
 62
     3
  6
CONTINUOUS
 66
     1
 40
0.003000
 41
0.003000
  0
VERTEX
  8
AB0CF1S
 62
     3
  6
CONTINUOUS
 10
3.480709
 20
4.320252
  0
VERTEX
  8
AB0CF1S
 62
     3
  6
CONTINUOUS
 10
3.524350
 20
4.244665
  0
SEQEND
  8
0
  0
POLYLINE
  8
AB0CF1S
 62
     3
  6
CONTINUOUS
 66
     1
 40
0.003000
 41
0.003000
  0
VERTEX
  8
AB0CF1S
 62
     3
  6
CONTINUOUS
 10
3.497098
 20
3.306925
  0
VERTEX
  8
AB0CF1S
 62
     3
  6
CONTINUOUS
 10
3.572681
 20
3.350567
  0
SEQEND
  8
0
  0
POLYLINE
  8
AB0CF1S
 62
     3
  6
CONTINUOUS
 66
     1
 40
0.003000
 41
0.003000
  0
VERTEX
  8
AB0CF1S
 62
     3
  6
CONTINUOUS
 10
3.497098
 20
3.665087
  0
VERTEX
  8
AB0CF1S
 62
     3
  6
CONTINUOUS
 10
3.572681
 20
3.708728
  0
SEQEND
  8
0
  0
POLYLINE
  8
AB0CF1S
 62
     3
  6
CONTINUOUS
 66
     1
 40
0.003000
 41
0.003000
  0
VERTEX
  8
AB0CF1S
 62
     3
  6
CONTINUOUS
 10
3.497098
 20
4.023248
  0
VERTEX
  8
AB0CF1S
 62
     3
  6
CONTINUOUS
 10
3.572681
 20
4.066890
  0
SEQEND
  8
0
  0
POLYLINE
  8
AB0CF1S
 62
     3
  6
CONTINUOUS
 66
     1
 40
0.003000
 41
0.003000
  0
VERTEX
  8
AB0CF1S
 62
     3
  6
CONTINUOUS
 10
3.519484
 20
3.268154
  0
VERTEX
  8
AB0CF1S
 62
     3
  6
CONTINUOUS
 10
3.595067
 20
3.311791
  0
SEQEND
  8
0
  0
POLYLINE
  8
AB0CF1S
 62
     3
  6
CONTINUOUS
 66
     1
 40
0.003000
 41
0.003000
  0
VERTEX
  8
AB0CF1S
 62
     3
  6
CONTINUOUS
 10
3.519484
 20
3.626315
  0
VERTEX
  8
AB0CF1S
 62
     3
  6
CONTINUOUS
 10
3.595067
 20
3.669953
  0
SEQEND
  8
0
  0
POLYLINE
  8
AB0CF1S
 62
     3
  6
CONTINUOUS
 66
     1
 40
0.003000
 41
0.003000
  0
VERTEX
  8
AB0CF1S
 62
     3
  6
CONTINUOUS
 10
3.519484
 20
3.984476
  0
VERTEX
  8
AB0CF1S
 62
     3
  6
CONTINUOUS
 10
3.595067
 20
4.028114
  0
SEQEND
  8
0
  0
POLYLINE
  8
AB0CF1S
 62
     3
  6
CONTINUOUS
 66
     1
 40
0.003000
 41
0.003000
  0
VERTEX
  8
AB0CF1S
 62
     3
  6
CONTINUOUS
 10
3.414685
 20
3.360126
  0
VERTEX
  8
AB0CF1S
 62
     3
  6
CONTINUOUS
 10
3.458327
 20
3.284539
  0
SEQEND
  8
0
  0
POLYLINE
  8
AB0CF1S
 62
     3
  6
CONTINUOUS
 66
     1
 40
0.003000
 41
0.003000
  0
VERTEX
  8
AB0CF1S
 62
     3
  6
CONTINUOUS
 10
3.414685
 20
3.718287
  0
VERTEX
  8
AB0CF1S
 62
     3
  6
CONTINUOUS
 10
3.458327
 20
3.642701
  0
SEQEND
  8
0
  0
POLYLINE
  8
AB0CF1S
 62
     3
  6
CONTINUOUS
 66
     1
 40
0.003000
 41
0.003000
  0
VERTEX
  8
AB0CF1S
 62
     3
  6
CONTINUOUS
 10
3.414685
 20
4.076449
  0
VERTEX
  8
AB0CF1S
 62
     3
  6
CONTINUOUS
 10
3.458327
 20
4.000862
  0
SEQEND
  8
0
  0
POLYLINE
  8
AB0CF1S
 62
     3
  6
CONTINUOUS
 66
     1
 40
0.003000
 41
0.003000
  0
VERTEX
  8
AB0CF1S
 62
     3
  6
CONTINUOUS
 10
3.453457
 20
3.382512
  0
VERTEX
  8
AB0CF1S
 62
     3
  6
CONTINUOUS
 10
3.497098
 20
3.306925
  0
SEQEND
  8
0
  0
POLYLINE
  8
AB0CF1S
 62
     3
  6
CONTINUOUS
 66
     1
 40
0.003000
 41
0.003000
  0
VERTEX
  8
AB0CF1S
 62
     3
  6
CONTINUOUS
 10
3.453457
 20
3.740673
  0
VERTEX
  8
AB0CF1S
 62
     3
  6
CONTINUOUS
 10
3.497098
 20
3.665087
  0
SEQEND
  8
0
  0
POLYLINE
  8
AB0CF1S
 62
     3
  6
CONTINUOUS
 66
     1
 40
0.003000
 41
0.003000
  0
VERTEX
  8
AB0CF1S
 62
     3
  6
CONTINUOUS
 10
3.453457
 20
4.098835
  0
VERTEX
  8
AB0CF1S
 62
     3
  6
CONTINUOUS
 10
3.497098
 20
4.023248
  0
SEQEND
  8
0
  0
POLYLINE
  8
AB0CF1S
 62
     3
  6
CONTINUOUS
 66
     1
 40
0.003000
 41
0.003000
  0
VERTEX
  8
AB0CF1S
 62
     3
  6
CONTINUOUS
 10
3.287441
 20
4.194134
  0
VERTEX
  8
AB0CF1S
 62
     3
  6
CONTINUOUS
 10
3.824681
 20
4.194134
  0
SEQEND
  8
0
  0
POLYLINE
  8
AB0CF1S
 62
     3
  6
CONTINUOUS
 66
     1
 40
0.003000
 41
0.003000
  0
VERTEX
  8
AB0CF1S
 62
     3
  6
CONTINUOUS
 10
3.287441
 20
4.149366
  0
VERTEX
  8
AB0CF1S
 62
     3
  6
CONTINUOUS
 10
3.824681
 20
4.149366
  0
SEQEND
  8
0
  0
POLYLINE
  8
AB0CF1S
 62
     3
  6
CONTINUOUS
 66
     1
 40
0.003000
 41
0.003000
  0
VERTEX
  8
AB0CF1S
 62
     3
  6
CONTINUOUS
 10
3.287441
 20
3.835972
  0
VERTEX
  8
AB0CF1S
 62
     3
  6
CONTINUOUS
 10
3.824681
 20
3.835972
  0
SEQEND
  8
0
  0
POLYLINE
  8
AB0CF1S
 62
     3
  6
CONTINUOUS
 66
     1
 40
0.003000
 41
0.003000
  0
VERTEX
  8
AB0CF1S
 62
     3
  6
CONTINUOUS
 10
3.287441
 20
3.791205
  0
VERTEX
  8
AB0CF1S
 62
     3
  6
CONTINUOUS
 10
3.824681
 20
3.791205
  0
SEQEND
  8
0
  0
POLYLINE
  8
AB0CF1S
 62
     3
  6
CONTINUOUS
 66
     1
 40
0.003000
 41
0.003000
  0
VERTEX
  8
AB0CF1S
 62
     3
  6
CONTINUOUS
 10
4.138071
 20
3.209189
  0
VERTEX
  8
AB0CF1S
 62
     3
  6
CONTINUOUS
 10
4.138071
 20
3.433043
  0
SEQEND
  8
0
  0
POLYLINE
  8
AB0CF1S
 62
     3
  6
CONTINUOUS
 66
     1
 40
0.003000
 41
0.003000
  0
VERTEX
  8
AB0CF1S
 62
     3
  6
CONTINUOUS
 10
4.138071
 20
3.970283
  0
VERTEX
  8
AB0CF1S
 62
     3
  6
CONTINUOUS
 10
3.824681
 20
3.970283
  0
SEQEND
  8
0
  0
POLYLINE
  8
AB0CF1S
 62
     3
  6
CONTINUOUS
 66
     1
 40
0.003000
 41
0.003000
  0
VERTEX
  8
AB0CF1S
 62
     3
  6
CONTINUOUS
 10
4.138071
 20
3.209189
  0
VERTEX
  8
AB0CF1S
 62
     3
  6
CONTINUOUS
 10
3.824681
 20
3.209189
  0
SEQEND
  8
0
  0
POLYLINE
  8
AB0CF1S
 62
     3
  6
CONTINUOUS
 66
     1
 40
0.003000
 41
0.003000
  0
VERTEX
  8
AB0CF1S
 62
     3
  6
CONTINUOUS
 10
4.138071
 20
3.746433
  0
VERTEX
  8
AB0CF1S
 62
     3
  6
CONTINUOUS
 10
4.138071
 20
3.970283
  0
SEQEND
  8
0
  0
POLYLINE
  8
AB0CF1S
 62
     3
  6
CONTINUOUS
 66
     1
 40
0.003000
 41
0.003000
 70
     1
  0
VERTEX
  8
AB0CF1S
 62
     3
  6
CONTINUOUS
 10
-1.211961
 20
4.523193
  0
VERTEX
  8
AB0CF1S
 62
     3
  6
CONTINUOUS
 10
-1.245534
 20
4.509217
  0
VERTEX
  8
AB0CF1S
 62
     3
  6
CONTINUOUS
 10
-1.256726
 20
4.478429
  0
VERTEX
  8
AB0CF1S
 62
     3
  6
CONTINUOUS
 10
-1.245537
 20
4.447639
  0
VERTEX
  8
AB0CF1S
 62
     3
  6
CONTINUOUS
 10
-1.211965
 20
4.433661
  0
VERTEX
  8
AB0CF1S
 62
     3
  6
CONTINUOUS
 10
-1.178390
 20
4.447632
  0
VERTEX
  8
AB0CF1S
 62
     3
  6
CONTINUOUS
 10
-1.167195
 20
4.478419
  0
VERTEX
  8
AB0CF1S
 62
     3
  6
CONTINUOUS
 10
-1.178382
 20
4.509209
  0
VERTEX
  8
AB0CF1S
 62
     3
  6
CONTINUOUS
 10
-1.211953
 20
4.523189
  0
VERTEX
  8
AB0CF1S
 62
     3
  6
CONTINUOUS
 10
-1.211955
 20
4.523190
  0
VERTEX
  8
AB0CF1S
 62
     3
  6
CONTINUOUS
 10
-1.211959
 20
4.523192
  0
SEQEND
  8
0
  0
POLYLINE
  8
AB0CF1S
 62
     7
  6
CONTINUOUS
 66
     1
 40
0.003000
 41
0.003000
  0
VERTEX
  8
AB0CF1S
 62
     7
  6
CONTINUOUS
 10
1.586614
 20
4.340776
  0
VERTEX
  8
AB0CF1S
 62
     7
  6
CONTINUOUS
 10
1.604832
 20
4.288912
  0
VERTEX
  8
AB0CF1S
 62
     7
  6
CONTINUOUS
 10
1.644616
 20
4.252592
  0
VERTEX
  8
AB0CF1S
 62
     7
  6
CONTINUOUS
 10
1.698098
 20
4.238909
  0
SEQEND
  8
0
  0
POLYLINE
  8
AB0CF1S
 62
     7
  6
CONTINUOUS
 66
     1
 40
0.003000
 41
0.003000
  0
VERTEX
  8
AB0CF1S
 62
     7
  6
CONTINUOUS
 10
1.698098
 20
4.238909
  0
VERTEX
  8
AB0CF1S
 62
     7
  6
CONTINUOUS
 10
1.738223
 20
4.246504
  0
VERTEX
  8
AB0CF1S
 62
     7
  6
CONTINUOUS
 10
1.772810
 20
4.267604
  0
VERTEX
  8
AB0CF1S
 62
     7
  6
CONTINUOUS
 10
1.797780
 20
4.299681
  0
SEQEND
  8
0
  0
POLYLINE
  8
AB0CF1S
 62
     3
  6
CONTINUOUS
 66
     1
 40
0.003000
 41
0.003000
  0
VERTEX
  8
AB0CF1S
 62
     3
  6
CONTINUOUS
 10
1.586614
 20
4.340776
  0
VERTEX
  8
AB0CF1S
 62
     3
  6
CONTINUOUS
 10
1.604832
 20
4.288912
  0
VERTEX
  8
AB0CF1S
 62
     3
  6
CONTINUOUS
 10
1.644616
 20
4.252592
  0
VERTEX
  8
AB0CF1S
 62
     3
  6
CONTINUOUS
 10
1.698098
 20
4.238909
  0
SEQEND
  8
0
  0
POLYLINE
  8
AB0CF1S
 62
     3
  6
CONTINUOUS
 66
     1
 40
0.003000
 41
0.003000
  0
VERTEX
  8
AB0CF1S
 62
     3
  6
CONTINUOUS
 10
1.698098
 20
4.238909
  0
VERTEX
  8
AB0CF1S
 62
     3
  6
CONTINUOUS
 10
1.738223
 20
4.246504
  0
VERTEX
  8
AB0CF1S
 62
     3
  6
CONTINUOUS
 10
1.772810
 20
4.267604
  0
VERTEX
  8
AB0CF1S
 62
     3
  6
CONTINUOUS
 10
1.797780
 20
4.299681
  0
SEQEND
  8
0
  0
POLYLINE
  8
AB0CF1S
 62
     1
  6
CONTINUOUS
 66
     1
 40
0.003000
 41
0.003000
  0
VERTEX
  8
AB0CF1S
 62
     1
  6
CONTINUOUS
 10
3.140327
 20
3.318264
  0
VERTEX
  8
AB0CF1S
 62
     1
  6
CONTINUOUS
 10
3.029354
 20
2.985339
  0
SEQEND
  8
0
  0
POLYLINE
  8
AB0CF1S
 62
     3
  6
CONTINUOUS
 66
     1
 40
0.003000
 41
0.003000
 70
     1
  0
VERTEX
  8
AB0CF1S
 62
     3
  6
CONTINUOUS
 10
1.698098
 20
3.388268
  0
VERTEX
  8
AB0CF1S
 62
     3
  6
CONTINUOUS
 10
1.663902
 20
3.383886
  0
VERTEX
  8
AB0CF1S
 62
     3
  6
CONTINUOUS
 10
1.635923
 20
3.371721
  0
VERTEX
  8
AB0CF1S
 62
     3
  6
CONTINUOUS
 10
1.614161
 20
3.353328
  0
VERTEX
  8
AB0CF1S
 62
     3
  6
CONTINUOUS
 10
1.598616
 20
3.330264
  0
VERTEX
  8
AB0CF1S
 62
     3
  6
CONTINUOUS
 10
1.589289
 20
3.304087
  0
VERTEX
  8
AB0CF1S
 62
     3
  6
CONTINUOUS
 10
1.586179
 20
3.276353
  0
VERTEX
  8
AB0CF1S
 62
     3
  6
CONTINUOUS
 10
1.589287
 20
3.248618
  0
VERTEX
  8
AB0CF1S
 62
     3
  6
CONTINUOUS
 10
1.598612
 20
3.222440
  0
VERTEX
  8
AB0CF1S
 62
     3
  6
CONTINUOUS
 10
1.614155
 20
3.199376
  0
VERTEX
  8
AB0CF1S
 62
     3
  6
CONTINUOUS
 10
1.635916
 20
3.180981
  0
VERTEX
  8
AB0CF1S
 62
     3
  6
CONTINUOUS
 10
1.663894
 20
3.168813
  0
VERTEX
  8
AB0CF1S
 62
     3
  6
CONTINUOUS
 10
1.698091
 20
3.164429
  0
VERTEX
  8
AB0CF1S
 62
     3
  6
CONTINUOUS
 10
1.732287
 20
3.168807
  0
VERTEX
  8
AB0CF1S
 62
     3
  6
CONTINUOUS
 10
1.760266
 20
3.180970
  0
VERTEX
  8
AB0CF1S
 62
     3
  6
CONTINUOUS
 10
1.782030
 20
3.199360
  0
VERTEX
  8
AB0CF1S
 62
     3
  6
CONTINUOUS
 10
1.797576
 20
3.222422
  0
VERTEX
  8
AB0CF1S
 62
     3
  6
CONTINUOUS
 10
1.806906
 20
3.248598
  0
VERTEX
  8
AB0CF1S
 62
     3
  6
CONTINUOUS
 10
1.810018
 20
3.276332
  0
VERTEX
  8
AB0CF1S
 62
     3
  6
CONTINUOUS
 10
1.806913
 20
3.304066
  0
VERTEX
  8
AB0CF1S
 62
     3
  6
CONTINUOUS
 10
1.797590
 20
3.330245
  0
VERTEX
  8
AB0CF1S
 62
     3
  6
CONTINUOUS
 10
1.782050
 20
3.353311
  0
VERTEX
  8
AB0CF1S
 62
     3
  6
CONTINUOUS
 10
1.760291
 20
3.371707
  0
VERTEX
  8
AB0CF1S
 62
     3
  6
CONTINUOUS
 10
1.732314
 20
3.383877
  0
VERTEX
  8
AB0CF1S
 62
     3
  6
CONTINUOUS
 10
1.698118
 20
3.388264
  0
VERTEX
  8
AB0CF1S
 62
     3
  6
CONTINUOUS
 10
1.698113
 20
3.388265
  0
VERTEX
  8
AB0CF1S
 62
     3
  6
CONTINUOUS
 10
1.698104
 20
3.388267
  0
SEQEND
  8
0
  0
POLYLINE
  8
AB0CF1S
 62
     3
  6
CONTINUOUS
 66
     1
 40
0.003000
 41
0.003000
 70
     1
  0
VERTEX
  8
AB0CF1S
 62
     3
  6
CONTINUOUS
 10
1.698098
 20
3.746429
  0
VERTEX
  8
AB0CF1S
 62
     3
  6
CONTINUOUS
 10
1.663902
 20
3.742048
  0
VERTEX
  8
AB0CF1S
 62
     3
  6
CONTINUOUS
 10
1.635923
 20
3.729882
  0
VERTEX
  8
AB0CF1S
 62
     3
  6
CONTINUOUS
 10
1.614161
 20
3.711489
  0
VERTEX
  8
AB0CF1S
 62
     3
  6
CONTINUOUS
 10
1.598616
 20
3.688426
  0
VERTEX
  8
AB0CF1S
 62
     3
  6
CONTINUOUS
 10
1.589289
 20
3.662249
  0
VERTEX
  8
AB0CF1S
 62
     3
  6
CONTINUOUS
 10
1.586179
 20
3.634514
  0
VERTEX
  8
AB0CF1S
 62
     3
  6
CONTINUOUS
 10
1.589287
 20
3.606780
  0
VERTEX
  8
AB0CF1S
 62
     3
  6
CONTINUOUS
 10
1.598612
 20
3.580602
  0
VERTEX
  8
AB0CF1S
 62
     3
  6
CONTINUOUS
 10
1.614155
 20
3.557537
  0
VERTEX
  8
AB0CF1S
 62
     3
  6
CONTINUOUS
 10
1.635916
 20
3.539142
  0
VERTEX
  8
AB0CF1S
 62
     3
  6
CONTINUOUS
 10
1.663894
 20
3.526975
  0
VERTEX
  8
AB0CF1S
 62
     3
  6
CONTINUOUS
 10
1.698091
 20
3.522591
  0
VERTEX
  8
AB0CF1S
 62
     3
  6
CONTINUOUS
 10
1.732287
 20
3.526968
  0
VERTEX
  8
AB0CF1S
 62
     3
  6
CONTINUOUS
 10
1.760266
 20
3.539131
  0
VERTEX
  8
AB0CF1S
 62
     3
  6
CONTINUOUS
 10
1.782030
 20
3.557522
  0
VERTEX
  8
AB0CF1S
 62
     3
  6
CONTINUOUS
 10
1.797576
 20
3.580583
  0
VERTEX
  8
AB0CF1S
 62
     3
  6
CONTINUOUS
 10
1.806906
 20
3.606759
  0
VERTEX
  8
AB0CF1S
 62
     3
  6
CONTINUOUS
 10
1.810018
 20
3.634493
  0
VERTEX
  8
AB0CF1S
 62
     3
  6
CONTINUOUS
 10
1.806913
 20
3.662228
  0
VERTEX
  8
AB0CF1S
 62
     3
  6
CONTINUOUS
 10
1.797590
 20
3.688406
  0
VERTEX
  8
AB0CF1S
 62
     3
  6
CONTINUOUS
 10
1.782050
 20
3.711472
  0
VERTEX
  8
AB0CF1S
 62
     3
  6
CONTINUOUS
 10
1.760291
 20
3.729868
  0
VERTEX
  8
AB0CF1S
 62
     3
  6
CONTINUOUS
 10
1.732314
 20
3.742038
  0
VERTEX
  8
AB0CF1S
 62
     3
  6
CONTINUOUS
 10
1.698118
 20
3.746425
  0
VERTEX
  8
AB0CF1S
 62
     3
  6
CONTINUOUS
 10
1.698113
 20
3.746426
  0
VERTEX
  8
AB0CF1S
 62
     3
  6
CONTINUOUS
 10
1.698104
 20
3.746428
  0
SEQEND
  8
0
  0
POLYLINE
  8
AB0CF1S
 62
     3
  6
CONTINUOUS
 66
     1
 40
0.003000
 41
0.003000
 70
     1
  0
VERTEX
  8
AB0CF1S
 62
     3
  6
CONTINUOUS
 10
1.698098
 20
4.104591
  0
VERTEX
  8
AB0CF1S
 62
     3
  6
CONTINUOUS
 10
1.663902
 20
4.100209
  0
VERTEX
  8
AB0CF1S
 62
     3
  6
CONTINUOUS
 10
1.635923
 20
4.088044
  0
VERTEX
  8
AB0CF1S
 62
     3
  6
CONTINUOUS
 10
1.614161
 20
4.069651
  0
VERTEX
  8
AB0CF1S
 62
     3
  6
CONTINUOUS
 10
1.598616
 20
4.046587
  0
VERTEX
  8
AB0CF1S
 62
     3
  6
CONTINUOUS
 10
1.589289
 20
4.020410
  0
VERTEX
  8
AB0CF1S
 62
     3
  6
CONTINUOUS
 10
1.586179
 20
3.992676
  0
VERTEX
  8
AB0CF1S
 62
     3
  6
CONTINUOUS
 10
1.589287
 20
3.964941
  0
VERTEX
  8
AB0CF1S
 62
     3
  6
CONTINUOUS
 10
1.598612
 20
3.938763
  0
VERTEX
  8
AB0CF1S
 62
     3
  6
CONTINUOUS
 10
1.614155
 20
3.915699
  0
VERTEX
  8
AB0CF1S
 62
     3
  6
CONTINUOUS
 10
1.635916
 20
3.897304
  0
VERTEX
  8
AB0CF1S
 62
     3
  6
CONTINUOUS
 10
1.663894
 20
3.885136
  0
VERTEX
  8
AB0CF1S
 62
     3
  6
CONTINUOUS
 10
1.698091
 20
3.880752
  0
VERTEX
  8
AB0CF1S
 62
     3
  6
CONTINUOUS
 10
1.732287
 20
3.885130
  0
VERTEX
  8
AB0CF1S
 62
     3
  6
CONTINUOUS
 10
1.760266
 20
3.897292
  0
VERTEX
  8
AB0CF1S
 62
     3
  6
CONTINUOUS
 10
1.782030
 20
3.915683
  0
VERTEX
  8
AB0CF1S
 62
     3
  6
CONTINUOUS
 10
1.797576
 20
3.938745
  0
VERTEX
  8
AB0CF1S
 62
     3
  6
CONTINUOUS
 10
1.806906
 20
3.964921
  0
VERTEX
  8
AB0CF1S
 62
     3
  6
CONTINUOUS
 10
1.810018
 20
3.992655
  0
VERTEX
  8
AB0CF1S
 62
     3
  6
CONTINUOUS
 10
1.806913
 20
4.020389
  0
VERTEX
  8
AB0CF1S
 62
     3
  6
CONTINUOUS
 10
1.797590
 20
4.046568
  0
VERTEX
  8
AB0CF1S
 62
     3
  6
CONTINUOUS
 10
1.782050
 20
4.069633
  0
VERTEX
  8
AB0CF1S
 62
     3
  6
CONTINUOUS
 10
1.760291
 20
4.088030
  0
VERTEX
  8
AB0CF1S
 62
     3
  6
CONTINUOUS
 10
1.732314
 20
4.100200
  0
VERTEX
  8
AB0CF1S
 62
     3
  6
CONTINUOUS
 10
1.698118
 20
4.104587
  0
VERTEX
  8
AB0CF1S
 62
     3
  6
CONTINUOUS
 10
1.698113
 20
4.104588
  0
VERTEX
  8
AB0CF1S
 62
     3
  6
CONTINUOUS
 10
1.698104
 20
4.104590
  0
SEQEND
  8
0
  0
TEXT
  8
AB0CF1S
 10
1.885012
 20
3.909843
 40
0.144026
  1
8
 41
1.000000
  7
SN0
 71
     0
 72
     5
 11
1.977411
 21
3.909843
  0
TEXT
  8
AB0CF1S
 10
1.885012
 20
3.551681
 40
0.144026
  1
9
 41
1.000000
  7
SN0
 71
     0
 72
     5
 11
1.977411
 21
3.551681
  0
TEXT
  8
AB0CF1S
 10
1.862630
 20
3.193520
 40
0.144026
  1
10
 41
1.000000
  7
SN0
 71
     0
 72
     5
 11
2.047427
 21
3.193520
  0
TEXT
  8
AB0CF1S
 10
0.480260
 20
4.262591
 40
0.144026
  1
(NO)
 41
1.000000
  7
SN0
 71
     0
 72
     5
 11
0.889763
 21
4.262591
  0
TEXT
  8
AB0CF1S
 10
0.480260
 20
4.486441
 40
0.144026
  1
(SSR)
 41
1.000000
  7
SN0
 71
     0
 72
     5
 11
0.898032
 21
4.486441
  0
TEXT
  8
AB0CF1S
 10
0.480260
 20
4.710291
 40
0.144026
  1
(mA)
 41
1.000000
  7
SN0
 71
     0
 72
     5
 11
0.858843
 21
4.710291
  0
POLYLINE
  8
AB0CF1S
 62
     3
  6
CONTINUOUS
 66
     1
 40
0.003000
 41
0.003000
 70
     1
  0
VERTEX
  8
AB0CF1S
 62
     3
  6
CONTINUOUS
 10
2.347264
 20
3.612118
  0
VERTEX
  8
AB0CF1S
 62
     3
  6
CONTINUOUS
 10
2.327371
 20
3.600519
  0
VERTEX
  8
AB0CF1S
 62
     3
  6
CONTINUOUS
 10
2.327370
 20
3.578957
  0
VERTEX
  8
AB0CF1S
 62
     3
  6
CONTINUOUS
 10
2.347264
 20
3.567358
  0
VERTEX
  8
AB0CF1S
 62
     3
  6
CONTINUOUS
 10
2.367157
 20
3.578954
  0
VERTEX
  8
AB0CF1S
 62
     3
  6
CONTINUOUS
 10
2.367159
 20
3.600513
  0
VERTEX
  8
AB0CF1S
 62
     3
  6
CONTINUOUS
 10
2.347268
 20
3.612114
  0
VERTEX
  8
AB0CF1S
 62
     3
  6
CONTINUOUS
 10
2.347267
 20
3.612115
  0
VERTEX
  8
AB0CF1S
 62
     3
  6
CONTINUOUS
 10
2.347265
 20
3.612117
  0
SEQEND
  8
0
  0
TEXT
  8
AB0CF1S
 10
2.422256
 20
3.305445
 40
0.144026
  1
Pt100
 41
1.000000
  7
SN0
 71
     0
 72
     5
 11
2.857645
 21
3.305445
  0
TEXT
  8
AB0CF1S
 10
-3.050984
 20
3.543894
 40
0.144026
  1
A2
 41
1.000000
  7
SN0
 71
     0
 72
     5
 11
-2.843536
 21
3.543894
  0
TEXT
  8
AB0CF1S
 10
-2.709524
 20
3.540445
 40
0.144026
  1
A1
 41
1.000000
  7
SN0
 71
     0
 72
     5
 11
-2.502076
 21
3.540445
  0
POLYLINE
  8
AB0CF1S
 62
     3
  6
CONTINUOUS
 66
     1
 40
0.003000
 41
0.003000
 70
     1
  0
VERTEX
  8
AB0CF1S
 62
     3
  6
CONTINUOUS
 10
-1.211961
 20
4.384406
  0
VERTEX
  8
AB0CF1S
 62
     3
  6
CONTINUOUS
 10
-1.245534
 20
4.370430
  0
VERTEX
  8
AB0CF1S
 62
     3
  6
CONTINUOUS
 10
-1.256726
 20
4.339641
  0
VERTEX
  8
AB0CF1S
 62
     3
  6
CONTINUOUS
 10
-1.245537
 20
4.308852
  0
VERTEX
  8
AB0CF1S
 62
     3
  6
CONTINUOUS
 10
-1.211965
 20
4.294874
  0
VERTEX
  8
AB0CF1S
 62
     3
  6
CONTINUOUS
 10
-1.178390
 20
4.308845
  0
VERTEX
  8
AB0CF1S
 62
     3
  6
CONTINUOUS
 10
-1.167195
 20
4.339632
  0
VERTEX
  8
AB0CF1S
 62
     3
  6
CONTINUOUS
 10
-1.178382
 20
4.370422
  0
VERTEX
  8
AB0CF1S
 62
     3
  6
CONTINUOUS
 10
-1.211953
 20
4.384402
  0
VERTEX
  8
AB0CF1S
 62
     3
  6
CONTINUOUS
 10
-1.211955
 20
4.384403
  0
VERTEX
  8
AB0CF1S
 62
     3
  6
CONTINUOUS
 10
-1.211959
 20
4.384404
  0
SEQEND
  8
0
  0
POLYLINE
  8
AB0CF1S
 62
     3
  6
CONTINUOUS
 66
     1
 40
0.003000
 41
0.003000
 70
     1
  0
VERTEX
  8
AB0CF1S
 62
     3
  6
CONTINUOUS
 10
-1.211961
 20
4.661980
  0
VERTEX
  8
AB0CF1S
 62
     3
  6
CONTINUOUS
 10
-1.245534
 20
4.648005
  0
VERTEX
  8
AB0CF1S
 62
     3
  6
CONTINUOUS
 10
-1.256726
 20
4.617216
  0
VERTEX
  8
AB0CF1S
 62
     3
  6
CONTINUOUS
 10
-1.245537
 20
4.586426
  0
VERTEX
  8
AB0CF1S
 62
     3
  6
CONTINUOUS
 10
-1.211965
 20
4.572449
  0
VERTEX
  8
AB0CF1S
 62
     3
  6
CONTINUOUS
 10
-1.178390
 20
4.586420
  0
VERTEX
  8
AB0CF1S
 62
     3
  6
CONTINUOUS
 10
-1.167195
 20
4.617207
  0
VERTEX
  8
AB0CF1S
 62
     3
  6
CONTINUOUS
 10
-1.178382
 20
4.647997
  0
VERTEX
  8
AB0CF1S
 62
     3
  6
CONTINUOUS
 10
-1.211953
 20
4.661976
  0
VERTEX
  8
AB0CF1S
 62
     3
  6
CONTINUOUS
 10
-1.211955
 20
4.661977
  0
VERTEX
  8
AB0CF1S
 62
     3
  6
CONTINUOUS
 10
-1.211959
 20
4.661979
  0
SEQEND
  8
0
  0
TEXT
  8
AB0CF1S
 10
-1.391488
 20
4.106835
 40
0.096237
  1
 RS232
 41
1.000000
  7
SN0
 71
     0
 72
     5
 11
-1.035196
 21
4.106835
  0
TEXT
  8
AB0CF1S
 10
-1.391488
 20
3.963571
 40
0.096237
  1
(RS485)
 41
1.000000
  7
SN0
 71
     0
 72
     5
 11
-0.987019
 21
3.963571
  0
TEXT
  8
AB0CF1S
 10
-2.726311
 20
4.572441
 40
0.144026
  1
Power
 41
1.000000
  7
SN0
 71
     0
 72
     5
 11
-2.278339
 21
4.572441
  0
TEXT
  8
AB0CF1S
 10
-2.726311
 20
4.357547
 40
0.144026
  1
supply
 41
1.000000
  7
SN0
 71
     0
 72
     5
 11
-2.257846
 21
4.357547
  0
POLYLINE
  8
AB0CF1S
 62
     3
  6
CONTINUOUS
 66
     1
 40
0.003000
 41
0.003000
  0
VERTEX
  8
AB0CF1S
 62
     3
  6
CONTINUOUS
 10
2.033874
 20
4.328004
  0
VERTEX
  8
AB0CF1S
 62
     3
  6
CONTINUOUS
 10
2.033874
 20
2.985339
  0
SEQEND
  8
0
  0
POLYLINE
  8
AB0CF1S
 62
     3
  6
CONTINUOUS
 66
     1
 40
0.003000
 41
0.003000
  0
VERTEX
  8
AB0CF1S
 62
     3
  6
CONTINUOUS
 10
1.496634
 20
4.325819
  0
VERTEX
  8
AB0CF1S
 62
     3
  6
CONTINUOUS
 10
1.496634
 20
3.119650
  0
SEQEND
  8
0
  0
POLYLINE
  8
AB0CF1S
 62
     3
  6
CONTINUOUS
 66
     1
 40
0.003000
 41
0.003000
  0
VERTEX
  8
AB0CF1S
 62
     3
  6
CONTINUOUS
 10
1.318969
 20
3.477811
  0
VERTEX
  8
AB0CF1S
 62
     3
  6
CONTINUOUS
 10
2.033874
 20
3.477811
  0
SEQEND
  8
0
  0
POLYLINE
  8
AB0CF1S
 62
     3
  6
CONTINUOUS
 66
     1
 40
0.003000
 41
0.003000
  0
VERTEX
  8
AB0CF1S
 62
     3
  6
CONTINUOUS
 10
1.327543
 20
3.433043
  0
VERTEX
  8
AB0CF1S
 62
     3
  6
CONTINUOUS
 10
2.033874
 20
3.433043
  0
SEQEND
  8
0
  0
POLYLINE
  8
AB0CF1S
 62
     3
  6
CONTINUOUS
 66
     1
 40
0.003000
 41
0.003000
  0
VERTEX
  8
AB0CF1S
 62
     3
  6
CONTINUOUS
 10
1.283315
 20
3.119650
  0
VERTEX
  8
AB0CF1S
 62
     3
  6
CONTINUOUS
 10
2.033874
 20
3.119650
  0
SEQEND
  8
0
  0
POLYLINE
  8
AB0CF1S
 62
     3
  6
CONTINUOUS
 66
     1
 40
0.003000
 41
0.003000
  0
VERTEX
  8
AB0CF1S
 62
     3
  6
CONTINUOUS
 10
1.238547
 20
2.985339
  0
VERTEX
  8
AB0CF1S
 62
     3
  6
CONTINUOUS
 10
2.033874
 20
2.985339
  0
SEQEND
  8
0
  0
POLYLINE
  8
AB0CF1S
 62
     3
  6
CONTINUOUS
 66
     1
 40
0.003000
 41
0.003000
  0
VERTEX
  8
AB0CF1S
 62
     3
  6
CONTINUOUS
 10
1.591933
 20
3.240898
  0
VERTEX
  8
AB0CF1S
 62
     3
  6
CONTINUOUS
 10
1.667520
 20
3.284539
  0
SEQEND
  8
0
  0
POLYLINE
  8
AB0CF1S
 62
     3
  6
CONTINUOUS
 66
     1
 40
0.003000
 41
0.003000
  0
VERTEX
  8
AB0CF1S
 62
     3
  6
CONTINUOUS
 10
1.591933
 20
3.599059
  0
VERTEX
  8
AB0CF1S
 62
     3
  6
CONTINUOUS
 10
1.667520
 20
3.642701
  0
SEQEND
  8
0
  0
POLYLINE
  8
AB0CF1S
 62
     3
  6
CONTINUOUS
 66
     1
 40
0.003000
 41
0.003000
  0
VERTEX
  8
AB0CF1S
 62
     3
  6
CONTINUOUS
 10
1.591933
 20
3.957220
  0
VERTEX
  8
AB0CF1S
 62
     3
  6
CONTINUOUS
 10
1.667520
 20
4.000862
  0
SEQEND
  8
0
  0
POLYLINE
  8
AB0CF1S
 62
     3
  6
CONTINUOUS
 66
     1
 40
0.003000
 41
0.003000
  0
VERTEX
  8
AB0CF1S
 62
     3
  6
CONTINUOUS
 10
1.591933
 20
4.315382
  0
VERTEX
  8
AB0CF1S
 62
     3
  6
CONTINUOUS
 10
1.623374
 20
4.333539
  0
SEQEND
  8
0
  0
POLYLINE
  8
AB0CF1S
 62
     3
  6
CONTINUOUS
 66
     1
 40
0.003000
 41
0.003000
  0
VERTEX
  8
AB0CF1S
 62
     3
  6
CONTINUOUS
 10
1.614319
 20
3.202130
  0
VERTEX
  8
AB0CF1S
 62
     3
  6
CONTINUOUS
 10
1.689902
 20
3.245768
  0
SEQEND
  8
0
  0
POLYLINE
  8
AB0CF1S
 62
     3
  6
CONTINUOUS
 66
     1
 40
0.003000
 41
0.003000
  0
VERTEX
  8
AB0CF1S
 62
     3
  6
CONTINUOUS
 10
1.614319
 20
3.560291
  0
VERTEX
  8
AB0CF1S
 62
     3
  6
CONTINUOUS
 10
1.689902
 20
3.603929
  0
SEQEND
  8
0
  0
POLYLINE
  8
AB0CF1S
 62
     3
  6
CONTINUOUS
 66
     1
 40
0.003000
 41
0.003000
  0
VERTEX
  8
AB0CF1S
 62
     3
  6
CONTINUOUS
 10
1.614319
 20
3.918453
  0
VERTEX
  8
AB0CF1S
 62
     3
  6
CONTINUOUS
 10
1.689902
 20
3.962091
  0
SEQEND
  8
0
  0
POLYLINE
  8
AB0CF1S
 62
     3
  6
CONTINUOUS
 66
     1
 40
0.003000
 41
0.003000
  0
VERTEX
  8
AB0CF1S
 62
     3
  6
CONTINUOUS
 10
1.614319
 20
4.276614
  0
VERTEX
  8
AB0CF1S
 62
     3
  6
CONTINUOUS
 10
1.689902
 20
4.320252
  0
SEQEND
  8
0
  0
POLYLINE
  8
AB0CF1S
 62
     3
  6
CONTINUOUS
 66
     1
 40
0.003000
 41
0.003000
  0
VERTEX
  8
AB0CF1S
 62
     3
  6
CONTINUOUS
 10
1.728677
 20
3.268154
  0
VERTEX
  8
AB0CF1S
 62
     3
  6
CONTINUOUS
 10
1.772315
 20
3.192567
  0
SEQEND
  8
0
  0
POLYLINE
  8
AB0CF1S
 62
     3
  6
CONTINUOUS
 66
     1
 40
0.003000
 41
0.003000
  0
VERTEX
  8
AB0CF1S
 62
     3
  6
CONTINUOUS
 10
1.728677
 20
3.626315
  0
VERTEX
  8
AB0CF1S
 62
     3
  6
CONTINUOUS
 10
1.772315
 20
3.550728
  0
SEQEND
  8
0
  0
POLYLINE
  8
AB0CF1S
 62
     3
  6
CONTINUOUS
 66
     1
 40
0.003000
 41
0.003000
  0
VERTEX
  8
AB0CF1S
 62
     3
  6
CONTINUOUS
 10
1.728677
 20
3.984476
  0
VERTEX
  8
AB0CF1S
 62
     3
  6
CONTINUOUS
 10
1.772315
 20
3.908890
  0
SEQEND
  8
0
  0
POLYLINE
  8
AB0CF1S
 62
     3
  6
CONTINUOUS
 66
     1
 40
0.003000
 41
0.003000
  0
VERTEX
  8
AB0CF1S
 62
     3
  6
CONTINUOUS
 10
1.747913
 20
4.309323
  0
VERTEX
  8
AB0CF1S
 62
     3
  6
CONTINUOUS
 10
1.772315
 20
4.267051
  0
SEQEND
  8
0
  0
POLYLINE
  8
AB0CF1S
 62
     3
  6
CONTINUOUS
 66
     1
 40
0.003000
 41
0.003000
  0
VERTEX
  8
AB0CF1S
 62
     3
  6
CONTINUOUS
 10
1.689902
 20
3.245768
  0
VERTEX
  8
AB0CF1S
 62
     3
  6
CONTINUOUS
 10
1.733543
 20
3.170181
  0
SEQEND
  8
0
  0
POLYLINE
  8
AB0CF1S
 62
     3
  6
CONTINUOUS
 66
     1
 40
0.003000
 41
0.003000
  0
VERTEX
  8
AB0CF1S
 62
     3
  6
CONTINUOUS
 10
1.689902
 20
3.603929
  0
VERTEX
  8
AB0CF1S
 62
     3
  6
CONTINUOUS
 10
1.733543
 20
3.528343
  0
SEQEND
  8
0
  0
POLYLINE
  8
AB0CF1S
 62
     3
  6
CONTINUOUS
 66
     1
 40
0.003000
 41
0.003000
  0
VERTEX
  8
AB0CF1S
 62
     3
  6
CONTINUOUS
 10
1.689902
 20
3.962091
  0
VERTEX
  8
AB0CF1S
 62
     3
  6
CONTINUOUS
 10
1.733543
 20
3.886504
  0
SEQEND
  8
0
  0
POLYLINE
  8
AB0CF1S
 62
     3
  6
CONTINUOUS
 66
     1
 40
0.003000
 41
0.003000
  0
VERTEX
  8
AB0CF1S
 62
     3
  6
CONTINUOUS
 10
1.689902
 20
4.320252
  0
VERTEX
  8
AB0CF1S
 62
     3
  6
CONTINUOUS
 10
1.733543
 20
4.244665
  0
SEQEND
  8
0
  0
POLYLINE
  8
AB0CF1S
 62
     3
  6
CONTINUOUS
 66
     1
 40
0.003000
 41
0.003000
  0
VERTEX
  8
AB0CF1S
 62
     3
  6
CONTINUOUS
 10
1.706291
 20
3.306925
  0
VERTEX
  8
AB0CF1S
 62
     3
  6
CONTINUOUS
 10
1.781874
 20
3.350567
  0
SEQEND
  8
0
  0
POLYLINE
  8
AB0CF1S
 62
     3
  6
CONTINUOUS
 66
     1
 40
0.003000
 41
0.003000
  0
VERTEX
  8
AB0CF1S
 62
     3
  6
CONTINUOUS
 10
1.706291
 20
3.665087
  0
VERTEX
  8
AB0CF1S
 62
     3
  6
CONTINUOUS
 10
1.781874
 20
3.708728
  0
SEQEND
  8
0
  0
POLYLINE
  8
AB0CF1S
 62
     3
  6
CONTINUOUS
 66
     1
 40
0.003000
 41
0.003000
  0
VERTEX
  8
AB0CF1S
 62
     3
  6
CONTINUOUS
 10
1.706291
 20
4.023248
  0
VERTEX
  8
AB0CF1S
 62
     3
  6
CONTINUOUS
 10
1.781874
 20
4.066890
  0
SEQEND
  8
0
  0
POLYLINE
  8
AB0CF1S
 62
     3
  6
CONTINUOUS
 66
     1
 40
0.003000
 41
0.003000
  0
VERTEX
  8
AB0CF1S
 62
     3
  6
CONTINUOUS
 10
1.728677
 20
3.268154
  0
VERTEX
  8
AB0CF1S
 62
     3
  6
CONTINUOUS
 10
1.804260
 20
3.311791
  0
SEQEND
  8
0
  0
POLYLINE
  8
AB0CF1S
 62
     3
  6
CONTINUOUS
 66
     1
 40
0.003000
 41
0.003000
  0
VERTEX
  8
AB0CF1S
 62
     3
  6
CONTINUOUS
 10
1.728677
 20
3.626315
  0
VERTEX
  8
AB0CF1S
 62
     3
  6
CONTINUOUS
 10
1.804260
 20
3.669953
  0
SEQEND
  8
0
  0
POLYLINE
  8
AB0CF1S
 62
     3
  6
CONTINUOUS
 66
     1
 40
0.003000
 41
0.003000
  0
VERTEX
  8
AB0CF1S
 62
     3
  6
CONTINUOUS
 10
1.728677
 20
3.984476
  0
VERTEX
  8
AB0CF1S
 62
     3
  6
CONTINUOUS
 10
1.804260
 20
4.028114
  0
SEQEND
  8
0
  0
POLYLINE
  8
AB0CF1S
 62
     3
  6
CONTINUOUS
 66
     1
 40
0.003000
 41
0.003000
  0
VERTEX
  8
AB0CF1S
 62
     3
  6
CONTINUOUS
 10
1.623878
 20
3.360126
  0
VERTEX
  8
AB0CF1S
 62
     3
  6
CONTINUOUS
 10
1.667520
 20
3.284539
  0
SEQEND
  8
0
  0
POLYLINE
  8
AB0CF1S
 62
     3
  6
CONTINUOUS
 66
     1
 40
0.003000
 41
0.003000
  0
VERTEX
  8
AB0CF1S
 62
     3
  6
CONTINUOUS
 10
1.623878
 20
3.718287
  0
VERTEX
  8
AB0CF1S
 62
     3
  6
CONTINUOUS
 10
1.667520
 20
3.642701
  0
SEQEND
  8
0
  0
POLYLINE
  8
AB0CF1S
 62
     3
  6
CONTINUOUS
 66
     1
 40
0.003000
 41
0.003000
  0
VERTEX
  8
AB0CF1S
 62
     3
  6
CONTINUOUS
 10
1.623878
 20
4.076449
  0
VERTEX
  8
AB0CF1S
 62
     3
  6
CONTINUOUS
 10
1.667520
 20
4.000862
  0
SEQEND
  8
0
  0
POLYLINE
  8
AB0CF1S
 62
     3
  6
CONTINUOUS
 66
     1
 40
0.003000
 41
0.003000
  0
VERTEX
  8
AB0CF1S
 62
     3
  6
CONTINUOUS
 10
1.662650
 20
3.382512
  0
VERTEX
  8
AB0CF1S
 62
     3
  6
CONTINUOUS
 10
1.706291
 20
3.306925
  0
SEQEND
  8
0
  0
POLYLINE
  8
AB0CF1S
 62
     3
  6
CONTINUOUS
 66
     1
 40
0.003000
 41
0.003000
  0
VERTEX
  8
AB0CF1S
 62
     3
  6
CONTINUOUS
 10
1.662650
 20
3.740673
  0
VERTEX
  8
AB0CF1S
 62
     3
  6
CONTINUOUS
 10
1.706291
 20
3.665087
  0
SEQEND
  8
0
  0
POLYLINE
  8
AB0CF1S
 62
     3
  6
CONTINUOUS
 66
     1
 40
0.003000
 41
0.003000
  0
VERTEX
  8
AB0CF1S
 62
     3
  6
CONTINUOUS
 10
1.662650
 20
4.098835
  0
VERTEX
  8
AB0CF1S
 62
     3
  6
CONTINUOUS
 10
1.706291
 20
4.023248
  0
SEQEND
  8
0
  0
POLYLINE
  8
AB0CF1S
 62
     3
  6
CONTINUOUS
 66
     1
 40
0.003000
 41
0.003000
  0
VERTEX
  8
AB0CF1S
 62
     3
  6
CONTINUOUS
 10
1.496634
 20
4.194134
  0
VERTEX
  8
AB0CF1S
 62
     3
  6
CONTINUOUS
 10
2.033874
 20
4.194134
  0
SEQEND
  8
0
  0
POLYLINE
  8
AB0CF1S
 62
     3
  6
CONTINUOUS
 66
     1
 40
0.003000
 41
0.003000
  0
VERTEX
  8
AB0CF1S
 62
     3
  6
CONTINUOUS
 10
1.496634
 20
4.149366
  0
VERTEX
  8
AB0CF1S
 62
     3
  6
CONTINUOUS
 10
2.033874
 20
4.149366
  0
SEQEND
  8
0
  0
POLYLINE
  8
AB0CF1S
 62
     3
  6
CONTINUOUS
 66
     1
 40
0.003000
 41
0.003000
  0
VERTEX
  8
AB0CF1S
 62
     3
  6
CONTINUOUS
 10
1.496634
 20
3.835972
  0
VERTEX
  8
AB0CF1S
 62
     3
  6
CONTINUOUS
 10
2.033874
 20
3.835972
  0
SEQEND
  8
0
  0
POLYLINE
  8
AB0CF1S
 62
     3
  6
CONTINUOUS
 66
     1
 40
0.003000
 41
0.003000
  0
VERTEX
  8
AB0CF1S
 62
     3
  6
CONTINUOUS
 10
1.496634
 20
3.791205
  0
VERTEX
  8
AB0CF1S
 62
     3
  6
CONTINUOUS
 10
2.033874
 20
3.791205
  0
SEQEND
  8
0
  0
POLYLINE
  8
AB0CF1S
 62
     3
  6
CONTINUOUS
 66
     1
 40
0.003000
 41
0.003000
  0
VERTEX
  8
AB0CF1S
 62
     3
  6
CONTINUOUS
 10
-2.801303
 20
3.231575
  0
VERTEX
  8
AB0CF1S
 62
     3
  6
CONTINUOUS
 10
-2.174520
 20
3.231575
  0
SEQEND
  8
0
  0
POLYLINE
  8
AB0CF1S
 62
     3
  6
CONTINUOUS
 66
     1
 40
0.003000
 41
0.003000
  0
VERTEX
  8
AB0CF1S
 62
     3
  6
CONTINUOUS
 10
-2.801303
 20
3.231575
  0
VERTEX
  8
AB0CF1S
 62
     3
  6
CONTINUOUS
 10
-2.801303
 20
3.701661
  0
SEQEND
  8
0
  0
POLYLINE
  8
AB0CF1S
 62
     3
  6
CONTINUOUS
 66
     1
 40
0.003000
 41
0.003000
  0
VERTEX
  8
AB0CF1S
 62
     3
  6
CONTINUOUS
 10
-2.801303
 20
3.701661
  0
VERTEX
  8
AB0CF1S
 62
     3
  6
CONTINUOUS
 10
-2.890843
 20
3.903130
  0
SEQEND
  8
0
  0
POLYLINE
  8
AB0CF1S
 62
     3
  6
CONTINUOUS
 66
     1
 40
0.003000
 41
0.003000
  0
VERTEX
  8
AB0CF1S
 62
     3
  6
CONTINUOUS
 10
-2.801303
 20
3.903130
  0
VERTEX
  8
AB0CF1S
 62
     3
  6
CONTINUOUS
 10
-2.801303
 20
3.992669
  0
SEQEND
  8
0
  0
POLYLINE
  8
AB0CF1S
 62
     3
  6
CONTINUOUS
 66
     1
 40
0.003000
 41
0.003000
  0
VERTEX
  8
AB0CF1S
 62
     3
  6
CONTINUOUS
 10
-2.801303
 20
3.992669
  0
VERTEX
  8
AB0CF1S
 62
     3
  6
CONTINUOUS
 10
-2.174520
 20
3.992669
  0
SEQEND
  8
0
  0
POLYLINE
  8
AB0CF1S
 62
     3
  6
CONTINUOUS
 66
     1
 40
0.003000
 41
0.003000
  0
VERTEX
  8
AB0CF1S
 62
     3
  6
CONTINUOUS
 10
-2.487909
 20
3.612122
  0
VERTEX
  8
AB0CF1S
 62
     3
  6
CONTINUOUS
 10
-2.174520
 20
3.612122
  0
SEQEND
  8
0
  0
POLYLINE
  8
AB0CF1S
 62
     3
  6
CONTINUOUS
 66
     1
 40
0.003000
 41
0.003000
  0
VERTEX
  8
AB0CF1S
 62
     3
  6
CONTINUOUS
 10
-2.487909
 20
3.903130
  0
VERTEX
  8
AB0CF1S
 62
     3
  6
CONTINUOUS
 10
-2.487909
 20
3.992669
  0
SEQEND
  8
0
  0
POLYLINE
  8
AB0CF1S
 62
     3
  6
CONTINUOUS
 66
     1
 40
0.003000
 41
0.003000
  0
VERTEX
  8
AB0CF1S
 62
     3
  6
CONTINUOUS
 10
-2.487909
 20
3.701661
  0
VERTEX
  8
AB0CF1S
 62
     3
  6
CONTINUOUS
 10
-2.577449
 20
3.903130
  0
SEQEND
  8
0
  0
POLYLINE
  8
AB0CF1S
 62
     3
  6
CONTINUOUS
 66
     1
 40
0.003000
 41
0.003000
  0
VERTEX
  8
AB0CF1S
 62
     3
  6
CONTINUOUS
 10
-2.487909
 20
3.612122
  0
VERTEX
  8
AB0CF1S
 62
     3
  6
CONTINUOUS
 10
-2.487909
 20
3.701661
  0
SEQEND
  8
0
  0
POLYLINE
  8
AB0CF1S
 62
     3
  6
CONTINUOUS
 66
     1
 40
0.003000
 41
0.003000
  0
VERTEX
  8
AB0CF1S
 62
     3
  6
CONTINUOUS
 10
2.347264
 20
3.209189
  0
VERTEX
  8
AB0CF1S
 62
     3
  6
CONTINUOUS
 10
2.347264
 20
3.656894
  0
SEQEND
  8
0
  0
POLYLINE
  8
AB0CF1S
 62
     3
  6
CONTINUOUS
 66
     1
 40
0.003000
 41
0.003000
  0
VERTEX
  8
AB0CF1S
 62
     3
  6
CONTINUOUS
 10
2.280110
 20
3.656894
  0
VERTEX
  8
AB0CF1S
 62
     3
  6
CONTINUOUS
 10
2.280110
 20
3.925512
  0
SEQEND
  8
0
  0
POLYLINE
  8
AB0CF1S
 62
     3
  6
CONTINUOUS
 66
     1
 40
0.003000
 41
0.003000
  0
VERTEX
  8
AB0CF1S
 62
     3
  6
CONTINUOUS
 10
2.414421
 20
3.656894
  0
VERTEX
  8
AB0CF1S
 62
     3
  6
CONTINUOUS
 10
2.414421
 20
3.925512
  0
SEQEND
  8
0
  0
POLYLINE
  8
AB0CF1S
 62
     3
  6
CONTINUOUS
 66
     1
 40
0.003000
 41
0.003000
  0
VERTEX
  8
AB0CF1S
 62
     3
  6
CONTINUOUS
 10
2.280110
 20
3.656894
  0
VERTEX
  8
AB0CF1S
 62
     3
  6
CONTINUOUS
 10
2.414421
 20
3.656894
  0
SEQEND
  8
0
  0
POLYLINE
  8
AB0CF1S
 62
     3
  6
CONTINUOUS
 66
     1
 40
0.003000
 41
0.003000
  0
VERTEX
  8
AB0CF1S
 62
     3
  6
CONTINUOUS
 10
2.280110
 20
3.925512
  0
VERTEX
  8
AB0CF1S
 62
     3
  6
CONTINUOUS
 10
2.414421
 20
3.925512
  0
SEQEND
  8
0
  0
POLYLINE
  8
AB0CF1S
 62
     3
  6
CONTINUOUS
 66
     1
 40
0.003000
 41
0.003000
  0
VERTEX
  8
AB0CF1S
 62
     3
  6
CONTINUOUS
 10
2.347264
 20
3.970283
  0
VERTEX
  8
AB0CF1S
 62
     3
  6
CONTINUOUS
 10
2.033874
 20
3.970283
  0
SEQEND
  8
0
  0
POLYLINE
  8
AB0CF1S
 62
     3
  6
CONTINUOUS
 66
     1
 40
0.003000
 41
0.003000
  0
VERTEX
  8
AB0CF1S
 62
     3
  6
CONTINUOUS
 10
2.347264
 20
3.209189
  0
VERTEX
  8
AB0CF1S
 62
     3
  6
CONTINUOUS
 10
2.033874
 20
3.209189
  0
SEQEND
  8
0
  0
POLYLINE
  8
AB0CF1S
 62
     3
  6
CONTINUOUS
 66
     1
 40
0.003000
 41
0.003000
  0
VERTEX
  8
AB0CF1S
 62
     3
  6
CONTINUOUS
 10
2.347264
 20
3.589736
  0
VERTEX
  8
AB0CF1S
 62
     3
  6
CONTINUOUS
 10
2.033874
 20
3.589736
  0
SEQEND
  8
0
  0
POLYLINE
  8
AB0CF1S
 62
     3
  6
CONTINUOUS
 66
     1
 40
0.003000
 41
0.003000
  0
VERTEX
  8
AB0CF1S
 62
     3
  6
CONTINUOUS
 10
2.347264
 20
3.925512
  0
VERTEX
  8
AB0CF1S
 62
     3
  6
CONTINUOUS
 10
2.347264
 20
3.970283
  0
SEQEND
  8
0
  0
POLYLINE
  8
AB0CF1S
 62
     3
  6
CONTINUOUS
 66
     1
 40
0.003000
 41
0.003000
  0
VERTEX
  8
AB0CF1S
 62
     3
  6
CONTINUOUS
 10
-2.174520
 20
2.985339
  0
VERTEX
  8
AB0CF1S
 62
     3
  6
CONTINUOUS
 10
-0.204630
 20
2.985339
  0
SEQEND
  8
0
  0
POLYLINE
  8
AB0CF1S
 62
     3
  6
CONTINUOUS
 66
     1
 40
0.003000
 41
0.003000
  0
VERTEX
  8
AB0CF1S
 62
     3
  6
CONTINUOUS
 10
-1.323886
 20
4.247858
  0
VERTEX
  8
AB0CF1S
 62
     3
  6
CONTINUOUS
 10
-1.100035
 20
4.247858
  0
SEQEND
  8
0
  0
POLYLINE
  8
AB0CF1S
 62
     3
  6
CONTINUOUS
 66
     1
 40
0.003000
 41
0.003000
  0
VERTEX
  8
AB0CF1S
 62
     3
  6
CONTINUOUS
 10
-1.323886
 20
4.708992
  0
VERTEX
  8
AB0CF1S
 62
     3
  6
CONTINUOUS
 10
-1.100035
 20
4.708992
  0
SEQEND
  8
0
  0
POLYLINE
  8
AB0CF1S
 62
     3
  6
CONTINUOUS
 66
     1
 40
0.003000
 41
0.003000
  0
VERTEX
  8
AB0CF1S
 62
     3
  6
CONTINUOUS
 10
-1.323886
 20
4.708992
  0
VERTEX
  8
AB0CF1S
 62
     3
  6
CONTINUOUS
 10
-1.323886
 20
4.247858
  0
SEQEND
  8
0
  0
POLYLINE
  8
AB0CF1S
 62
     3
  6
CONTINUOUS
 66
     1
 40
0.003000
 41
0.003000
  0
VERTEX
  8
AB0CF1S
 62
     3
  6
CONTINUOUS
 10
-1.100035
 20
4.708992
  0
VERTEX
  8
AB0CF1S
 62
     3
  6
CONTINUOUS
 10
-1.100035
 20
4.247858
  0
SEQEND
  8
0
  0
POLYLINE
  8
AB0CF1S
 62
     3
  6
CONTINUOUS
 66
     1
 40
0.003000
 41
0.003000
  0
VERTEX
  8
AB0CF1S
 62
     3
  6
CONTINUOUS
 10
-0.741874
 20
3.791205
  0
VERTEX
  8
AB0CF1S
 62
     3
  6
CONTINUOUS
 10
-0.204630
 20
3.791205
  0
SEQEND
  8
0
  0
POLYLINE
  8
AB0CF1S
 62
     3
  6
CONTINUOUS
 66
     1
 40
0.003000
 41
0.003000
  0
VERTEX
  8
AB0CF1S
 62
     3
  6
CONTINUOUS
 10
-0.741874
 20
3.835972
  0
VERTEX
  8
AB0CF1S
 62
     3
  6
CONTINUOUS
 10
-0.204630
 20
3.835972
  0
SEQEND
  8
0
  0
POLYLINE
  8
AB0CF1S
 62
     3
  6
CONTINUOUS
 66
     1
 40
0.003000
 41
0.003000
  0
VERTEX
  8
AB0CF1S
 62
     3
  6
CONTINUOUS
 10
-0.741874
 20
4.149366
  0
VERTEX
  8
AB0CF1S
 62
     3
  6
CONTINUOUS
 10
-0.204630
 20
4.149366
  0
SEQEND
  8
0
  0
POLYLINE
  8
AB0CF1S
 62
     3
  6
CONTINUOUS
 66
     1
 40
0.003000
 41
0.003000
  0
VERTEX
  8
AB0CF1S
 62
     3
  6
CONTINUOUS
 10
-0.741874
 20
4.194134
  0
VERTEX
  8
AB0CF1S
 62
     3
  6
CONTINUOUS
 10
-0.204630
 20
4.194134
  0
SEQEND
  8
0
  0
POLYLINE
  8
AB0CF1S
 62
     3
  6
CONTINUOUS
 66
     1
 40
0.003000
 41
0.003000
  0
VERTEX
  8
AB0CF1S
 62
     3
  6
CONTINUOUS
 10
-0.741874
 20
4.507528
  0
VERTEX
  8
AB0CF1S
 62
     3
  6
CONTINUOUS
 10
-0.204630
 20
4.507528
  0
SEQEND
  8
0
  0
POLYLINE
  8
AB0CF1S
 62
     3
  6
CONTINUOUS
 66
     1
 40
0.003000
 41
0.003000
  0
VERTEX
  8
AB0CF1S
 62
     3
  6
CONTINUOUS
 10
-0.741874
 20
4.552295
  0
VERTEX
  8
AB0CF1S
 62
     3
  6
CONTINUOUS
 10
-0.204630
 20
4.552295
  0
SEQEND
  8
0
  0
POLYLINE
  8
AB0CF1S
 62
     3
  6
CONTINUOUS
 66
     1
 40
0.003000
 41
0.003000
  0
VERTEX
  8
AB0CF1S
 62
     3
  6
CONTINUOUS
 10
-0.741874
 20
4.865689
  0
VERTEX
  8
AB0CF1S
 62
     3
  6
CONTINUOUS
 10
-0.741874
 20
3.119650
  0
SEQEND
  8
0
  0
POLYLINE
  8
AB0CF1S
 62
     3
  6
CONTINUOUS
 66
     1
 40
0.003000
 41
0.003000
  0
VERTEX
  8
AB0CF1S
 62
     3
  6
CONTINUOUS
 10
-1.637276
 20
4.865689
  0
VERTEX
  8
AB0CF1S
 62
     3
  6
CONTINUOUS
 10
-1.637276
 20
3.119650
  0
SEQEND
  8
0
  0
POLYLINE
  8
AB0CF1S
 62
     3
  6
CONTINUOUS
 66
     1
 40
0.003000
 41
0.003000
  0
VERTEX
  8
AB0CF1S
 62
     3
  6
CONTINUOUS
 10
-2.174520
 20
4.865689
  0
VERTEX
  8
AB0CF1S
 62
     3
  6
CONTINUOUS
 10
-0.204630
 20
4.865689
  0
SEQEND
  8
0
  0
POLYLINE
  8
AB0CF1S
 62
     3
  6
CONTINUOUS
 66
     1
 40
0.003000
 41
0.003000
  0
VERTEX
  8
AB0CF1S
 62
     3
  6
CONTINUOUS
 10
-2.174520
 20
4.552295
  0
VERTEX
  8
AB0CF1S
 62
     3
  6
CONTINUOUS
 10
-1.637276
 20
4.552295
  0
SEQEND
  8
0
  0
POLYLINE
  8
AB0CF1S
 62
     3
  6
CONTINUOUS
 66
     1
 40
0.003000
 41
0.003000
  0
VERTEX
  8
AB0CF1S
 62
     3
  6
CONTINUOUS
 10
-2.174520
 20
4.507528
  0
VERTEX
  8
AB0CF1S
 62
     3
  6
CONTINUOUS
 10
-1.637276
 20
4.507528
  0
SEQEND
  8
0
  0
POLYLINE
  8
AB0CF1S
 62
     3
  6
CONTINUOUS
 66
     1
 40
0.003000
 41
0.003000
  0
VERTEX
  8
AB0CF1S
 62
     3
  6
CONTINUOUS
 10
-2.174520
 20
4.194134
  0
VERTEX
  8
AB0CF1S
 62
     3
  6
CONTINUOUS
 10
-1.637276
 20
4.194134
  0
SEQEND
  8
0
  0
POLYLINE
  8
AB0CF1S
 62
     3
  6
CONTINUOUS
 66
     1
 40
0.003000
 41
0.003000
  0
VERTEX
  8
AB0CF1S
 62
     3
  6
CONTINUOUS
 10
-2.174520
 20
4.149366
  0
VERTEX
  8
AB0CF1S
 62
     3
  6
CONTINUOUS
 10
-1.637276
 20
4.149366
  0
SEQEND
  8
0
  0
POLYLINE
  8
AB0CF1S
 62
     3
  6
CONTINUOUS
 66
     1
 40
0.003000
 41
0.003000
  0
VERTEX
  8
AB0CF1S
 62
     3
  6
CONTINUOUS
 10
-2.174520
 20
3.835972
  0
VERTEX
  8
AB0CF1S
 62
     3
  6
CONTINUOUS
 10
-1.637276
 20
3.835972
  0
SEQEND
  8
0
  0
POLYLINE
  8
AB0CF1S
 62
     3
  6
CONTINUOUS
 66
     1
 40
0.003000
 41
0.003000
  0
VERTEX
  8
AB0CF1S
 62
     3
  6
CONTINUOUS
 10
-2.174520
 20
3.791205
  0
VERTEX
  8
AB0CF1S
 62
     3
  6
CONTINUOUS
 10
-1.637276
 20
3.791205
  0
SEQEND
  8
0
  0
POLYLINE
  8
AB0CF1S
 62
     3
  6
CONTINUOUS
 66
     1
 40
0.003000
 41
0.003000
  0
VERTEX
  8
AB0CF1S
 62
     3
  6
CONTINUOUS
 10
-2.174520
 20
3.477811
  0
VERTEX
  8
AB0CF1S
 62
     3
  6
CONTINUOUS
 10
-0.204630
 20
3.477811
  0
SEQEND
  8
0
  0
POLYLINE
  8
AB0CF1S
 62
     3
  6
CONTINUOUS
 66
     1
 40
0.003000
 41
0.003000
  0
VERTEX
  8
AB0CF1S
 62
     3
  6
CONTINUOUS
 10
-2.174520
 20
3.433043
  0
VERTEX
  8
AB0CF1S
 62
     3
  6
CONTINUOUS
 10
-0.204630
 20
3.433043
  0
SEQEND
  8
0
  0
POLYLINE
  8
AB0CF1S
 62
     3
  6
CONTINUOUS
 66
     1
 40
0.003000
 41
0.003000
  0
VERTEX
  8
AB0CF1S
 62
     3
  6
CONTINUOUS
 10
-2.174520
 20
3.119650
  0
VERTEX
  8
AB0CF1S
 62
     3
  6
CONTINUOUS
 10
-0.204630
 20
3.119650
  0
SEQEND
  8
0
  0
POLYLINE
  8
AB0CF1S
 62
     3
  6
CONTINUOUS
 66
     1
 40
0.003000
 41
0.003000
  0
VERTEX
  8
AB0CF1S
 62
     3
  6
CONTINUOUS
 10
-0.204630
 20
5.000000
  0
VERTEX
  8
AB0CF1S
 62
     3
  6
CONTINUOUS
 10
-0.204630
 20
2.985339
  0
SEQEND
  8
0
  0
POLYLINE
  8
AB0CF1S
 62
     3
  6
CONTINUOUS
 66
     1
 40
0.003000
 41
0.003000
  0
VERTEX
  8
AB0CF1S
 62
     3
  6
CONTINUOUS
 10
-2.174520
 20
5.000000
  0
VERTEX
  8
AB0CF1S
 62
     3
  6
CONTINUOUS
 10
-0.204630
 20
5.000000
  0
SEQEND
  8
0
  0
POLYLINE
  8
AB0CF1S
 62
     3
  6
CONTINUOUS
 66
     1
 40
0.003000
 41
0.003000
  0
VERTEX
  8
AB0CF1S
 62
     3
  6
CONTINUOUS
 10
-2.174520
 20
2.985339
  0
VERTEX
  8
AB0CF1S
 62
     3
  6
CONTINUOUS
 10
-2.174520
 20
5.000000
  0
SEQEND
  8
0
  0
ENDSEC
  0
EOF
