  0
SECTION
  2
HEADER
  9
$ACADVER
  1
AC1006
  9
$EXTMIN
 10
-3.052594
 20
0.000496
  9
$EXTMAX
 10
3.856488
 20
3.246945
  9
$LTSCALE
 40
0.000394
  9
$PDMODE
 70
    35
  9
$PDSIZE
 40
0.000315
  0
ENDSEC
  0
SECTION
  2
TABLES
  0
TABLE
  2
LTYPE
 70
     9
  0
LTYPE
  2
CONTINUOUS
 70
    64
  3
Solid line
 72
    65
 73
     0
 40
0.000000
  0
LTYPE
  2
DASHED
 70
    64
  3
__ __ __ __ __ __ __ __ __ __ __ __ __ __ __
 72
    65
 73
     2
 40
0.000003
 49
0.000002
 49
-0.000001
  0
LTYPE
  2
HIDDEN
 70
    64
  3
 _ _ _ _ _ _ _ _ _ _ _ _ _ _ _ _ _ _ _ _ _ _
 72
    65
 73
     2
 40
0.000001
 49
0.000001
 49
-0.000000
  0
LTYPE
  2
CENTER
 70
    64
  3
____ _ ____ _ ____ _ ____ _ ____ _ ____ _ ____
 72
    65
 73
     4
 40
0.000008
 49
0.000005
 49
-0.000001
 49
0.000001
 49
-0.000001
  0
LTYPE
  2
PHANTOM
 70
    64
  3
_____ _ _ _____ _ _ _____ _ _ _____ _ _ ____
 72
    65
 73
     6
 40
0.000010
 49
0.000005
 49
-0.000001
 49
0.000001
 49
-0.000001
 49
0.000001
 49
-0.000001
  0
LTYPE
  2
DOT
 70
    64
  3
...............................................
 72
    65
 73
     2
 40
0.000001
 49
0.000000
 49
-0.000001
  0
LTYPE
  2
DASHDOT
 70
    64
  3
__ . __ . __ . __ . __ . __ . __ . __ . __ . __
 72
    65
 73
     4
 40
0.000004
 49
0.000002
 49
-0.000001
 49
0.000000
 49
-0.000001
  0
LTYPE
  2
BORDER
 70
    64
  3
__ __ . __ __ . __ __ . __ __ . __ __ . __ __
 72
    65
 73
     6
 40
0.000007
 49
0.000002
 49
-0.000001
 49
0.000002
 49
-0.000001
 49
0.000000
 49
-0.000001
  0
LTYPE
  2
DIVIDE
 70
    64
  3
__ . . __ . . __ . . __ . . __ . . __ . . __
 72
    65
 73
     6
 40
0.000005
 49
0.000002
 49
-0.000001
 49
0.000000
 49
-0.000001
 49
0.000000
 49
-0.000001
  0
LTYPE
  2
DOTDOT
 70
    64
  3
 . .  . .  . .  . .  . .  . . 
 72
    65
 73
     5
 40
0.000002
 49
-0.000001
 49
0.000000
 49
-0.000001
 49
0.000000
 49
-0.000001
  0
ENDTAB
  0
TABLE
  2
STYLE
 70
     2
  0
STYLE
 70
     0
  2
SN0
 40
0.000000
 41
0.000004
 50
0.000000
 71
     0
 42
0.000000
  3
AGaramond
  0
STYLE
 70
    68
  2
SV0
 40
0.000000
 41
0.000004
 50
0.000000
 71
     0
 42
0.000000
  3
AGaramond
  0
ENDTAB
  0
TABLE
  2
LAYER
 70
     5
  0
LAYER
  2
FOREGROUND
 70
    64
 62
     7
  6
CONTINUOUS
  0
LAYER
  2
BACKGROUND
 70
    65
 62
    -7
  6
CONTINUOUS
  0
LAYER
  2
AB0CF1H
 70
    64
 62
     7
  6
CONTINUOUS
  0
LAYER
  2
0O0RAH
 70
    64
 62
     7
  6
CONTINUOUS
  0
LAYER
  2
0O0ZEIT
 70
    64
 62
     7
  6
CONTINUOUS
  0
ENDTAB
  0
ENDSEC
  0
SECTION
  2
ENTITIES
  0
POLYLINE
  8
AB0CF1H
 62
     1
  6
CONTINUOUS
 66
     1
 40
0.003000
 41
0.003000
  0
VERTEX
  8
AB0CF1H
 62
     1
  6
CONTINUOUS
 10
-1.444878
 20
1.585453
  0
VERTEX
  8
AB0CF1H
 62
     1
  6
CONTINUOUS
 10
-1.732508
 20
1.545583
  0
SEQEND
  8
0
  0
POLYLINE
  8
AB0CF1H
 62
     1
  6
CONTINUOUS
 66
     1
 40
0.003000
 41
0.003000
  0
VERTEX
  8
AB0CF1H
 62
     1
  6
CONTINUOUS
 10
-1.392547
 20
1.605803
  0
VERTEX
  8
AB0CF1H
 62
     1
  6
CONTINUOUS
 10
-1.444878
 20
1.585453
  0
SEQEND
  8
0
  0
POLYLINE
  8
AB0CF1H
 62
     1
  6
CONTINUOUS
 66
     1
 40
0.003000
 41
0.003000
  0
VERTEX
  8
AB0CF1H
 62
     1
  6
CONTINUOUS
 10
-1.395453
 20
1.698835
  0
VERTEX
  8
AB0CF1H
 62
     1
  6
CONTINUOUS
 10
-1.392547
 20
1.605803
  0
SEQEND
  8
0
  0
POLYLINE
  8
AB0CF1H
 62
     1
  6
CONTINUOUS
 66
     1
 40
0.003000
 41
0.003000
  0
VERTEX
  8
AB0CF1H
 62
     1
  6
CONTINUOUS
 10
-1.421618
 20
1.765701
  0
VERTEX
  8
AB0CF1H
 62
     1
  6
CONTINUOUS
 10
-1.395453
 20
1.698835
  0
SEQEND
  8
0
  0
POLYLINE
  8
AB0CF1H
 62
     1
  6
CONTINUOUS
 66
     1
 40
0.003000
 41
0.003000
  0
VERTEX
  8
AB0CF1H
 62
     1
  6
CONTINUOUS
 10
-1.372193
 20
1.881988
  0
VERTEX
  8
AB0CF1H
 62
     1
  6
CONTINUOUS
 10
-1.421618
 20
1.765701
  0
SEQEND
  8
0
  0
POLYLINE
  8
AB0CF1H
 62
     1
  6
CONTINUOUS
 66
     1
 40
0.003000
 41
0.003000
  0
VERTEX
  8
AB0CF1H
 62
     1
  6
CONTINUOUS
 10
-1.354752
 20
1.992465
  0
VERTEX
  8
AB0CF1H
 62
     1
  6
CONTINUOUS
 10
-1.372193
 20
1.881988
  0
SEQEND
  8
0
  0
POLYLINE
  8
AB0CF1H
 62
     1
  6
CONTINUOUS
 66
     1
 40
0.003000
 41
0.003000
  0
VERTEX
  8
AB0CF1H
 62
     1
  6
CONTINUOUS
 10
-1.383823
 20
2.134917
  0
VERTEX
  8
AB0CF1H
 62
     1
  6
CONTINUOUS
 10
-1.354752
 20
1.992465
  0
SEQEND
  8
0
  0
POLYLINE
  8
AB0CF1H
 62
     1
  6
CONTINUOUS
 66
     1
 40
0.003000
 41
0.003000
  0
VERTEX
  8
AB0CF1H
 62
     1
  6
CONTINUOUS
 10
-1.369287
 20
2.297724
  0
VERTEX
  8
AB0CF1H
 62
     1
  6
CONTINUOUS
 10
-1.383823
 20
2.134917
  0
SEQEND
  8
0
  0
POLYLINE
  8
AB0CF1H
 62
     1
  6
CONTINUOUS
 66
     1
 40
0.003000
 41
0.003000
  0
VERTEX
  8
AB0CF1H
 62
     1
  6
CONTINUOUS
 10
-1.375102
 20
2.440177
  0
VERTEX
  8
AB0CF1H
 62
     1
  6
CONTINUOUS
 10
-1.369287
 20
2.297724
  0
SEQEND
  8
0
  0
POLYLINE
  8
AB0CF1H
 62
     1
  6
CONTINUOUS
 66
     1
 40
0.003000
 41
0.003000
  0
VERTEX
  8
AB0CF1H
 62
     1
  6
CONTINUOUS
 10
-1.456504
 20
2.448898
  0
VERTEX
  8
AB0CF1H
 62
     1
  6
CONTINUOUS
 10
-1.375102
 20
2.440177
  0
SEQEND
  8
0
  0
POLYLINE
  8
AB0CF1H
 62
     1
  6
CONTINUOUS
 66
     1
 40
0.003000
 41
0.003000
  0
VERTEX
  8
AB0CF1H
 62
     1
  6
CONTINUOUS
 10
-1.593146
 20
2.501228
  0
VERTEX
  8
AB0CF1H
 62
     1
  6
CONTINUOUS
 10
-1.456504
 20
2.448898
  0
SEQEND
  8
0
  0
POLYLINE
  8
AB0CF1H
 62
     1
  6
CONTINUOUS
 66
     1
 40
0.003000
 41
0.003000
  0
VERTEX
  8
AB0CF1H
 62
     1
  6
CONTINUOUS
 10
-1.732508
 20
2.546736
  0
VERTEX
  8
AB0CF1H
 62
     1
  6
CONTINUOUS
 10
-1.593146
 20
2.501228
  0
SEQEND
  8
0
  0
POLYLINE
  8
AB0CF1H
 62
     1
  6
CONTINUOUS
 66
     1
 40
0.003000
 41
0.003000
  0
VERTEX
  8
AB0CF1H
 62
     1
  6
CONTINUOUS
 10
1.309181
 20
1.271413
  0
VERTEX
  8
AB0CF1H
 62
     1
  6
CONTINUOUS
 10
1.314811
 20
0.854516
  0
SEQEND
  8
0
  0
POLYLINE
  8
AB0CF1H
 62
     1
  6
CONTINUOUS
 66
     1
 40
0.003000
 41
0.003000
  0
VERTEX
  8
AB0CF1H
 62
     1
  6
CONTINUOUS
 10
1.314469
 20
1.583594
  0
VERTEX
  8
AB0CF1H
 62
     1
  6
CONTINUOUS
 10
1.309181
 20
1.271413
  0
SEQEND
  8
0
  0
POLYLINE
  8
AB0CF1H
 62
     1
  6
CONTINUOUS
 66
     1
 40
0.003000
 41
0.003000
  0
VERTEX
  8
AB0CF1H
 62
     1
  6
CONTINUOUS
 10
1.351512
 20
1.869319
  0
VERTEX
  8
AB0CF1H
 62
     1
  6
CONTINUOUS
 10
1.314469
 20
1.583594
  0
SEQEND
  8
0
  0
POLYLINE
  8
AB0CF1H
 62
     1
  6
CONTINUOUS
 66
     1
 40
0.003000
 41
0.003000
  0
VERTEX
  8
AB0CF1H
 62
     1
  6
CONTINUOUS
 10
1.293307
 20
2.149756
  0
VERTEX
  8
AB0CF1H
 62
     1
  6
CONTINUOUS
 10
1.351512
 20
1.869319
  0
SEQEND
  8
0
  0
POLYLINE
  8
AB0CF1H
 62
     1
  6
CONTINUOUS
 66
     1
 40
0.003000
 41
0.003000
  0
VERTEX
  8
AB0CF1H
 62
     1
  6
CONTINUOUS
 10
1.325051
 20
2.477811
  0
VERTEX
  8
AB0CF1H
 62
     1
  6
CONTINUOUS
 10
1.293307
 20
2.149756
  0
SEQEND
  8
0
  0
POLYLINE
  8
AB0CF1H
 62
     1
  6
CONTINUOUS
 66
     1
 40
0.003000
 41
0.003000
  0
VERTEX
  8
AB0CF1H
 62
     1
  6
CONTINUOUS
 10
1.356799
 20
2.774118
  0
VERTEX
  8
AB0CF1H
 62
     1
  6
CONTINUOUS
 10
1.325051
 20
2.477811
  0
SEQEND
  8
0
  0
POLYLINE
  8
AB0CF1H
 62
     1
  6
CONTINUOUS
 66
     1
 40
0.003000
 41
0.003000
  0
VERTEX
  8
AB0CF1H
 62
     1
  6
CONTINUOUS
 10
1.346220
 20
3.118047
  0
VERTEX
  8
AB0CF1H
 62
     1
  6
CONTINUOUS
 10
1.356799
 20
2.774118
  0
SEQEND
  8
0
  0
POLYLINE
  8
AB0CF1H
 62
     1
  6
CONTINUOUS
 66
     1
 40
0.003000
 41
0.003000
  0
VERTEX
  8
AB0CF1H
 62
     1
  6
CONTINUOUS
 10
1.316819
 20
3.245445
  0
VERTEX
  8
AB0CF1H
 62
     1
  6
CONTINUOUS
 10
1.346220
 20
3.118047
  0
SEQEND
  8
0
  0
TEXT
  8
AB0CF1H
 10
0.610992
 20
3.002453
 40
0.083603
  1
11
 41
1.000000
  7
SN0
 71
     0
 72
     5
 11
0.718083
 21
3.002453
  0
TEXT
  8
AB0CF1H
 10
0.610992
 20
2.781551
 40
0.083603
  1
12
 41
1.000000
  7
SN0
 71
     0
 72
     5
 11
0.718083
 21
2.781551
  0
TEXT
  8
AB0CF1H
 10
0.610992
 20
2.560650
 40
0.083603
  1
13
 41
1.000000
  7
SN0
 71
     0
 72
     5
 11
0.718083
 21
2.560650
  0
TEXT
  8
AB0CF1H
 10
0.610992
 20
2.339748
 40
0.083603
  1
14
 41
1.000000
  7
SN0
 71
     0
 72
     5
 11
0.718083
 21
2.339748
  0
TEXT
  8
AB0CF1H
 10
0.610992
 20
2.118850
 40
0.083603
  1
15
 41
1.000000
  7
SN0
 71
     0
 72
     5
 11
0.718083
 21
2.118850
  0
TEXT
  8
AB0CF1H
 10
0.610992
 20
1.897949
 40
0.083603
  1
16
 41
1.000000
  7
SN0
 71
     0
 72
     5
 11
0.718083
 21
1.897949
  0
TEXT
  8
AB0CF1H
 10
0.610992
 20
1.677047
 40
0.083603
  1
17
 41
1.000000
  7
SN0
 71
     0
 72
     5
 11
0.718083
 21
1.677047
  0
TEXT
  8
AB0CF1H
 10
0.610992
 20
1.456146
 40
0.083603
  1
18
 41
1.000000
  7
SN0
 71
     0
 72
     5
 11
0.718083
 21
1.456146
  0
TEXT
  8
AB0CF1H
 10
0.610992
 20
1.235244
 40
0.083603
  1
19
 41
1.000000
  7
SN0
 71
     0
 72
     5
 11
0.718083
 21
1.235244
  0
TEXT
  8
AB0CF1H
 10
0.610992
 20
1.014343
 40
0.083603
  1
20
 41
1.000000
  7
SN0
 71
     0
 72
     5
 11
0.718083
 21
1.014343
  0
TEXT
  8
AB0CF1H
 10
-0.382799
 20
1.014343
 40
0.083603
  1
10
 41
1.000000
  7
SN0
 71
     0
 72
     5
 11
-0.275708
 21
1.014343
  0
TEXT
  8
AB0CF1H
 10
-0.347717
 20
1.235244
 40
0.083603
  1
9
 41
1.000000
  7
SN0
 71
     0
 72
     5
 11
-0.294171
 21
1.235244
  0
TEXT
  8
AB0CF1H
 10
-0.347717
 20
1.456146
 40
0.083603
  1
8
 41
1.000000
  7
SN0
 71
     0
 72
     5
 11
-0.294171
 21
1.456146
  0
TEXT
  8
AB0CF1H
 10
-0.347717
 20
1.677047
 40
0.083603
  1
7
 41
1.000000
  7
SN0
 71
     0
 72
     5
 11
-0.294171
 21
1.677047
  0
TEXT
  8
AB0CF1H
 10
-0.347717
 20
1.897949
 40
0.083603
  1
6
 41
1.000000
  7
SN0
 71
     0
 72
     5
 11
-0.294171
 21
1.897949
  0
TEXT
  8
AB0CF1H
 10
-0.347717
 20
2.118850
 40
0.083603
  1
5
 41
1.000000
  7
SN0
 71
     0
 72
     5
 11
-0.294171
 21
2.118850
  0
TEXT
  8
AB0CF1H
 10
-0.354732
 20
2.339748
 40
0.083603
  1
4
 41
1.000000
  7
SN0
 71
     0
 72
     5
 11
-0.301187
 21
2.339748
  0
TEXT
  8
AB0CF1H
 10
-0.347717
 20
2.560650
 40
0.083603
  1
3
 41
1.000000
  7
SN0
 71
     0
 72
     5
 11
-0.294171
 21
2.560650
  0
TEXT
  8
AB0CF1H
 10
-0.347717
 20
2.781551
 40
0.083603
  1
2
 41
1.000000
  7
SN0
 71
     0
 72
     5
 11
-0.294171
 21
2.781551
  0
TEXT
  8
AB0CF1H
 10
-0.333681
 20
3.002453
 40
0.083603
  1
1
 41
1.000000
  7
SN0
 71
     0
 72
     5
 11
-0.280136
 21
3.002453
  0
POLYLINE
  8
AB0CF1H
 62
     3
  6
CONTINUOUS
 66
     1
 40
0.003000
 41
0.003000
 70
     1
  0
VERTEX
  8
AB0CF1H
 62
     3
  6
CONTINUOUS
 10
-0.173209
 20
1.062421
  0
VERTEX
  8
AB0CF1H
 62
     3
  6
CONTINUOUS
 10
-0.182814
 20
1.098513
  0
VERTEX
  8
AB0CF1H
 62
     3
  6
CONTINUOUS
 10
-0.206879
 20
1.120169
  0
VERTEX
  8
AB0CF1H
 62
     3
  6
CONTINUOUS
 10
-0.238174
 20
1.127388
  0
VERTEX
  8
AB0CF1H
 62
     3
  6
CONTINUOUS
 10
-0.269469
 20
1.120171
  0
VERTEX
  8
AB0CF1H
 62
     3
  6
CONTINUOUS
 10
-0.293534
 20
1.098517
  0
VERTEX
  8
AB0CF1H
 62
     3
  6
CONTINUOUS
 10
-0.303142
 20
1.062425
  0
VERTEX
  8
AB0CF1H
 62
     3
  6
CONTINUOUS
 10
-0.293541
 20
1.026333
  0
VERTEX
  8
AB0CF1H
 62
     3
  6
CONTINUOUS
 10
-0.269479
 20
1.004676
  0
VERTEX
  8
AB0CF1H
 62
     3
  6
CONTINUOUS
 10
-0.238186
 20
0.997454
  0
VERTEX
  8
AB0CF1H
 62
     3
  6
CONTINUOUS
 10
-0.206891
 20
1.004668
  0
VERTEX
  8
AB0CF1H
 62
     3
  6
CONTINUOUS
 10
-0.182823
 20
1.026320
  0
VERTEX
  8
AB0CF1H
 62
     3
  6
CONTINUOUS
 10
-0.173213
 20
1.062409
  0
VERTEX
  8
AB0CF1H
 62
     3
  6
CONTINUOUS
 10
-0.173213
 20
1.062409
  0
VERTEX
  8
AB0CF1H
 62
     3
  6
CONTINUOUS
 10
-0.173212
 20
1.062413
  0
VERTEX
  8
AB0CF1H
 62
     3
  6
CONTINUOUS
 10
-0.173210
 20
1.062418
  0
SEQEND
  8
0
  0
POLYLINE
  8
AB0CF1H
 62
     3
  6
CONTINUOUS
 66
     1
 40
0.003000
 41
0.003000
 70
     1
  0
VERTEX
  8
AB0CF1H
 62
     3
  6
CONTINUOUS
 10
0.580453
 20
1.062421
  0
VERTEX
  8
AB0CF1H
 62
     3
  6
CONTINUOUS
 10
0.570847
 20
1.098513
  0
VERTEX
  8
AB0CF1H
 62
     3
  6
CONTINUOUS
 10
0.546782
 20
1.120169
  0
VERTEX
  8
AB0CF1H
 62
     3
  6
CONTINUOUS
 10
0.515488
 20
1.127388
  0
VERTEX
  8
AB0CF1H
 62
     3
  6
CONTINUOUS
 10
0.484193
 20
1.120171
  0
VERTEX
  8
AB0CF1H
 62
     3
  6
CONTINUOUS
 10
0.460127
 20
1.098517
  0
VERTEX
  8
AB0CF1H
 62
     3
  6
CONTINUOUS
 10
0.450520
 20
1.062425
  0
VERTEX
  8
AB0CF1H
 62
     3
  6
CONTINUOUS
 10
0.460121
 20
1.026333
  0
VERTEX
  8
AB0CF1H
 62
     3
  6
CONTINUOUS
 10
0.484182
 20
1.004676
  0
VERTEX
  8
AB0CF1H
 62
     3
  6
CONTINUOUS
 10
0.515475
 20
0.997454
  0
VERTEX
  8
AB0CF1H
 62
     3
  6
CONTINUOUS
 10
0.546770
 20
1.004668
  0
VERTEX
  8
AB0CF1H
 62
     3
  6
CONTINUOUS
 10
0.570838
 20
1.026320
  0
VERTEX
  8
AB0CF1H
 62
     3
  6
CONTINUOUS
 10
0.580449
 20
1.062409
  0
VERTEX
  8
AB0CF1H
 62
     3
  6
CONTINUOUS
 10
0.580449
 20
1.062409
  0
VERTEX
  8
AB0CF1H
 62
     3
  6
CONTINUOUS
 10
0.580450
 20
1.062413
  0
VERTEX
  8
AB0CF1H
 62
     3
  6
CONTINUOUS
 10
0.580452
 20
1.062418
  0
SEQEND
  8
0
  0
POLYLINE
  8
AB0CF1H
 62
     3
  6
CONTINUOUS
 66
     1
 40
0.003000
 41
0.003000
 70
     1
  0
VERTEX
  8
AB0CF1H
 62
     3
  6
CONTINUOUS
 10
-0.173209
 20
1.283323
  0
VERTEX
  8
AB0CF1H
 62
     3
  6
CONTINUOUS
 10
-0.182814
 20
1.319414
  0
VERTEX
  8
AB0CF1H
 62
     3
  6
CONTINUOUS
 10
-0.206879
 20
1.341070
  0
VERTEX
  8
AB0CF1H
 62
     3
  6
CONTINUOUS
 10
-0.238174
 20
1.348290
  0
VERTEX
  8
AB0CF1H
 62
     3
  6
CONTINUOUS
 10
-0.269469
 20
1.341073
  0
VERTEX
  8
AB0CF1H
 62
     3
  6
CONTINUOUS
 10
-0.293534
 20
1.319419
  0
VERTEX
  8
AB0CF1H
 62
     3
  6
CONTINUOUS
 10
-0.303142
 20
1.283327
  0
VERTEX
  8
AB0CF1H
 62
     3
  6
CONTINUOUS
 10
-0.293541
 20
1.247235
  0
VERTEX
  8
AB0CF1H
 62
     3
  6
CONTINUOUS
 10
-0.269479
 20
1.225577
  0
VERTEX
  8
AB0CF1H
 62
     3
  6
CONTINUOUS
 10
-0.238186
 20
1.218355
  0
VERTEX
  8
AB0CF1H
 62
     3
  6
CONTINUOUS
 10
-0.206891
 20
1.225570
  0
VERTEX
  8
AB0CF1H
 62
     3
  6
CONTINUOUS
 10
-0.182823
 20
1.247221
  0
VERTEX
  8
AB0CF1H
 62
     3
  6
CONTINUOUS
 10
-0.173213
 20
1.283311
  0
VERTEX
  8
AB0CF1H
 62
     3
  6
CONTINUOUS
 10
-0.173212
 20
1.283314
  0
VERTEX
  8
AB0CF1H
 62
     3
  6
CONTINUOUS
 10
-0.173210
 20
1.283320
  0
SEQEND
  8
0
  0
POLYLINE
  8
AB0CF1H
 62
     3
  6
CONTINUOUS
 66
     1
 40
0.003000
 41
0.003000
 70
     1
  0
VERTEX
  8
AB0CF1H
 62
     3
  6
CONTINUOUS
 10
-0.173209
 20
1.504224
  0
VERTEX
  8
AB0CF1H
 62
     3
  6
CONTINUOUS
 10
-0.182814
 20
1.540316
  0
VERTEX
  8
AB0CF1H
 62
     3
  6
CONTINUOUS
 10
-0.206879
 20
1.561972
  0
VERTEX
  8
AB0CF1H
 62
     3
  6
CONTINUOUS
 10
-0.238174
 20
1.569191
  0
VERTEX
  8
AB0CF1H
 62
     3
  6
CONTINUOUS
 10
-0.269469
 20
1.561974
  0
VERTEX
  8
AB0CF1H
 62
     3
  6
CONTINUOUS
 10
-0.293534
 20
1.540320
  0
VERTEX
  8
AB0CF1H
 62
     3
  6
CONTINUOUS
 10
-0.303142
 20
1.504228
  0
VERTEX
  8
AB0CF1H
 62
     3
  6
CONTINUOUS
 10
-0.293541
 20
1.468136
  0
VERTEX
  8
AB0CF1H
 62
     3
  6
CONTINUOUS
 10
-0.269479
 20
1.446479
  0
VERTEX
  8
AB0CF1H
 62
     3
  6
CONTINUOUS
 10
-0.238186
 20
1.439257
  0
VERTEX
  8
AB0CF1H
 62
     3
  6
CONTINUOUS
 10
-0.206891
 20
1.446471
  0
VERTEX
  8
AB0CF1H
 62
     3
  6
CONTINUOUS
 10
-0.182823
 20
1.468123
  0
VERTEX
  8
AB0CF1H
 62
     3
  6
CONTINUOUS
 10
-0.173213
 20
1.504213
  0
VERTEX
  8
AB0CF1H
 62
     3
  6
CONTINUOUS
 10
-0.173212
 20
1.504216
  0
VERTEX
  8
AB0CF1H
 62
     3
  6
CONTINUOUS
 10
-0.173210
 20
1.504221
  0
SEQEND
  8
0
  0
POLYLINE
  8
AB0CF1H
 62
     3
  6
CONTINUOUS
 66
     1
 40
0.003000
 41
0.003000
 70
     1
  0
VERTEX
  8
AB0CF1H
 62
     3
  6
CONTINUOUS
 10
-0.173209
 20
1.725126
  0
VERTEX
  8
AB0CF1H
 62
     3
  6
CONTINUOUS
 10
-0.182814
 20
1.761217
  0
VERTEX
  8
AB0CF1H
 62
     3
  6
CONTINUOUS
 10
-0.206879
 20
1.782873
  0
VERTEX
  8
AB0CF1H
 62
     3
  6
CONTINUOUS
 10
-0.238174
 20
1.790093
  0
VERTEX
  8
AB0CF1H
 62
     3
  6
CONTINUOUS
 10
-0.269469
 20
1.782876
  0
VERTEX
  8
AB0CF1H
 62
     3
  6
CONTINUOUS
 10
-0.293534
 20
1.761222
  0
VERTEX
  8
AB0CF1H
 62
     3
  6
CONTINUOUS
 10
-0.303142
 20
1.725130
  0
VERTEX
  8
AB0CF1H
 62
     3
  6
CONTINUOUS
 10
-0.293541
 20
1.689038
  0
VERTEX
  8
AB0CF1H
 62
     3
  6
CONTINUOUS
 10
-0.269479
 20
1.667380
  0
VERTEX
  8
AB0CF1H
 62
     3
  6
CONTINUOUS
 10
-0.238186
 20
1.660158
  0
VERTEX
  8
AB0CF1H
 62
     3
  6
CONTINUOUS
 10
-0.206891
 20
1.667373
  0
VERTEX
  8
AB0CF1H
 62
     3
  6
CONTINUOUS
 10
-0.182823
 20
1.689024
  0
VERTEX
  8
AB0CF1H
 62
     3
  6
CONTINUOUS
 10
-0.173213
 20
1.725114
  0
VERTEX
  8
AB0CF1H
 62
     3
  6
CONTINUOUS
 10
-0.173213
 20
1.725114
  0
VERTEX
  8
AB0CF1H
 62
     3
  6
CONTINUOUS
 10
-0.173212
 20
1.725117
  0
VERTEX
  8
AB0CF1H
 62
     3
  6
CONTINUOUS
 10
-0.173210
 20
1.725123
  0
SEQEND
  8
0
  0
POLYLINE
  8
AB0CF1H
 62
     3
  6
CONTINUOUS
 66
     1
 40
0.003000
 41
0.003000
 70
     1
  0
VERTEX
  8
AB0CF1H
 62
     3
  6
CONTINUOUS
 10
-0.173209
 20
1.946028
  0
VERTEX
  8
AB0CF1H
 62
     3
  6
CONTINUOUS
 10
-0.182814
 20
1.982119
  0
VERTEX
  8
AB0CF1H
 62
     3
  6
CONTINUOUS
 10
-0.206879
 20
2.003775
  0
VERTEX
  8
AB0CF1H
 62
     3
  6
CONTINUOUS
 10
-0.238174
 20
2.010995
  0
VERTEX
  8
AB0CF1H
 62
     3
  6
CONTINUOUS
 10
-0.269469
 20
2.003778
  0
VERTEX
  8
AB0CF1H
 62
     3
  6
CONTINUOUS
 10
-0.293534
 20
1.982123
  0
VERTEX
  8
AB0CF1H
 62
     3
  6
CONTINUOUS
 10
-0.303142
 20
1.946031
  0
VERTEX
  8
AB0CF1H
 62
     3
  6
CONTINUOUS
 10
-0.293541
 20
1.909939
  0
VERTEX
  8
AB0CF1H
 62
     3
  6
CONTINUOUS
 10
-0.269479
 20
1.888282
  0
VERTEX
  8
AB0CF1H
 62
     3
  6
CONTINUOUS
 10
-0.238186
 20
1.881060
  0
VERTEX
  8
AB0CF1H
 62
     3
  6
CONTINUOUS
 10
-0.206891
 20
1.888274
  0
VERTEX
  8
AB0CF1H
 62
     3
  6
CONTINUOUS
 10
-0.182823
 20
1.909926
  0
VERTEX
  8
AB0CF1H
 62
     3
  6
CONTINUOUS
 10
-0.173213
 20
1.946016
  0
VERTEX
  8
AB0CF1H
 62
     3
  6
CONTINUOUS
 10
-0.173212
 20
1.946019
  0
VERTEX
  8
AB0CF1H
 62
     3
  6
CONTINUOUS
 10
-0.173210
 20
1.946024
  0
SEQEND
  8
0
  0
POLYLINE
  8
AB0CF1H
 62
     3
  6
CONTINUOUS
 66
     1
 40
0.003000
 41
0.003000
 70
     1
  0
VERTEX
  8
AB0CF1H
 62
     3
  6
CONTINUOUS
 10
-0.173209
 20
2.166929
  0
VERTEX
  8
AB0CF1H
 62
     3
  6
CONTINUOUS
 10
-0.182814
 20
2.203021
  0
VERTEX
  8
AB0CF1H
 62
     3
  6
CONTINUOUS
 10
-0.206879
 20
2.224676
  0
VERTEX
  8
AB0CF1H
 62
     3
  6
CONTINUOUS
 10
-0.238174
 20
2.231896
  0
VERTEX
  8
AB0CF1H
 62
     3
  6
CONTINUOUS
 10
-0.269469
 20
2.224679
  0
VERTEX
  8
AB0CF1H
 62
     3
  6
CONTINUOUS
 10
-0.293534
 20
2.203025
  0
VERTEX
  8
AB0CF1H
 62
     3
  6
CONTINUOUS
 10
-0.303142
 20
2.166933
  0
VERTEX
  8
AB0CF1H
 62
     3
  6
CONTINUOUS
 10
-0.293541
 20
2.130841
  0
VERTEX
  8
AB0CF1H
 62
     3
  6
CONTINUOUS
 10
-0.269479
 20
2.109184
  0
VERTEX
  8
AB0CF1H
 62
     3
  6
CONTINUOUS
 10
-0.238186
 20
2.101962
  0
VERTEX
  8
AB0CF1H
 62
     3
  6
CONTINUOUS
 10
-0.206891
 20
2.109176
  0
VERTEX
  8
AB0CF1H
 62
     3
  6
CONTINUOUS
 10
-0.182823
 20
2.130828
  0
VERTEX
  8
AB0CF1H
 62
     3
  6
CONTINUOUS
 10
-0.173213
 20
2.166917
  0
VERTEX
  8
AB0CF1H
 62
     3
  6
CONTINUOUS
 10
-0.173212
 20
2.166920
  0
VERTEX
  8
AB0CF1H
 62
     3
  6
CONTINUOUS
 10
-0.173210
 20
2.166926
  0
SEQEND
  8
0
  0
POLYLINE
  8
AB0CF1H
 62
     3
  6
CONTINUOUS
 66
     1
 40
0.003000
 41
0.003000
 70
     1
  0
VERTEX
  8
AB0CF1H
 62
     3
  6
CONTINUOUS
 10
-0.173209
 20
2.387827
  0
VERTEX
  8
AB0CF1H
 62
     3
  6
CONTINUOUS
 10
-0.182814
 20
2.423918
  0
VERTEX
  8
AB0CF1H
 62
     3
  6
CONTINUOUS
 10
-0.206879
 20
2.445574
  0
VERTEX
  8
AB0CF1H
 62
     3
  6
CONTINUOUS
 10
-0.238174
 20
2.452794
  0
VERTEX
  8
AB0CF1H
 62
     3
  6
CONTINUOUS
 10
-0.269469
 20
2.445577
  0
VERTEX
  8
AB0CF1H
 62
     3
  6
CONTINUOUS
 10
-0.293534
 20
2.423923
  0
VERTEX
  8
AB0CF1H
 62
     3
  6
CONTINUOUS
 10
-0.303142
 20
2.387831
  0
VERTEX
  8
AB0CF1H
 62
     3
  6
CONTINUOUS
 10
-0.293541
 20
2.351739
  0
VERTEX
  8
AB0CF1H
 62
     3
  6
CONTINUOUS
 10
-0.269479
 20
2.330081
  0
VERTEX
  8
AB0CF1H
 62
     3
  6
CONTINUOUS
 10
-0.238186
 20
2.322859
  0
VERTEX
  8
AB0CF1H
 62
     3
  6
CONTINUOUS
 10
-0.206891
 20
2.330074
  0
VERTEX
  8
AB0CF1H
 62
     3
  6
CONTINUOUS
 10
-0.182823
 20
2.351725
  0
VERTEX
  8
AB0CF1H
 62
     3
  6
CONTINUOUS
 10
-0.173213
 20
2.387815
  0
VERTEX
  8
AB0CF1H
 62
     3
  6
CONTINUOUS
 10
-0.173212
 20
2.387818
  0
VERTEX
  8
AB0CF1H
 62
     3
  6
CONTINUOUS
 10
-0.173210
 20
2.387824
  0
SEQEND
  8
0
  0
POLYLINE
  8
AB0CF1H
 62
     3
  6
CONTINUOUS
 66
     1
 40
0.003000
 41
0.003000
 70
     1
  0
VERTEX
  8
AB0CF1H
 62
     3
  6
CONTINUOUS
 10
-0.173209
 20
2.608728
  0
VERTEX
  8
AB0CF1H
 62
     3
  6
CONTINUOUS
 10
-0.182814
 20
2.644820
  0
VERTEX
  8
AB0CF1H
 62
     3
  6
CONTINUOUS
 10
-0.206879
 20
2.666476
  0
VERTEX
  8
AB0CF1H
 62
     3
  6
CONTINUOUS
 10
-0.238174
 20
2.673695
  0
VERTEX
  8
AB0CF1H
 62
     3
  6
CONTINUOUS
 10
-0.269469
 20
2.666478
  0
VERTEX
  8
AB0CF1H
 62
     3
  6
CONTINUOUS
 10
-0.293534
 20
2.644824
  0
VERTEX
  8
AB0CF1H
 62
     3
  6
CONTINUOUS
 10
-0.303142
 20
2.608732
  0
VERTEX
  8
AB0CF1H
 62
     3
  6
CONTINUOUS
 10
-0.293541
 20
2.572640
  0
VERTEX
  8
AB0CF1H
 62
     3
  6
CONTINUOUS
 10
-0.269479
 20
2.550983
  0
VERTEX
  8
AB0CF1H
 62
     3
  6
CONTINUOUS
 10
-0.238186
 20
2.543761
  0
VERTEX
  8
AB0CF1H
 62
     3
  6
CONTINUOUS
 10
-0.206891
 20
2.550975
  0
VERTEX
  8
AB0CF1H
 62
     3
  6
CONTINUOUS
 10
-0.182823
 20
2.572627
  0
VERTEX
  8
AB0CF1H
 62
     3
  6
CONTINUOUS
 10
-0.173213
 20
2.608717
  0
VERTEX
  8
AB0CF1H
 62
     3
  6
CONTINUOUS
 10
-0.173212
 20
2.608720
  0
VERTEX
  8
AB0CF1H
 62
     3
  6
CONTINUOUS
 10
-0.173210
 20
2.608725
  0
SEQEND
  8
0
  0
POLYLINE
  8
AB0CF1H
 62
     3
  6
CONTINUOUS
 66
     1
 40
0.003000
 41
0.003000
 70
     1
  0
VERTEX
  8
AB0CF1H
 62
     3
  6
CONTINUOUS
 10
-0.173209
 20
2.829630
  0
VERTEX
  8
AB0CF1H
 62
     3
  6
CONTINUOUS
 10
-0.182814
 20
2.865721
  0
VERTEX
  8
AB0CF1H
 62
     3
  6
CONTINUOUS
 10
-0.206879
 20
2.887377
  0
VERTEX
  8
AB0CF1H
 62
     3
  6
CONTINUOUS
 10
-0.238174
 20
2.894597
  0
VERTEX
  8
AB0CF1H
 62
     3
  6
CONTINUOUS
 10
-0.269469
 20
2.887380
  0
VERTEX
  8
AB0CF1H
 62
     3
  6
CONTINUOUS
 10
-0.293534
 20
2.865726
  0
VERTEX
  8
AB0CF1H
 62
     3
  6
CONTINUOUS
 10
-0.303142
 20
2.829634
  0
VERTEX
  8
AB0CF1H
 62
     3
  6
CONTINUOUS
 10
-0.293541
 20
2.793542
  0
VERTEX
  8
AB0CF1H
 62
     3
  6
CONTINUOUS
 10
-0.269479
 20
2.771884
  0
VERTEX
  8
AB0CF1H
 62
     3
  6
CONTINUOUS
 10
-0.238186
 20
2.764662
  0
VERTEX
  8
AB0CF1H
 62
     3
  6
CONTINUOUS
 10
-0.206891
 20
2.771877
  0
VERTEX
  8
AB0CF1H
 62
     3
  6
CONTINUOUS
 10
-0.182823
 20
2.793528
  0
VERTEX
  8
AB0CF1H
 62
     3
  6
CONTINUOUS
 10
-0.173213
 20
2.829618
  0
VERTEX
  8
AB0CF1H
 62
     3
  6
CONTINUOUS
 10
-0.173212
 20
2.829621
  0
VERTEX
  8
AB0CF1H
 62
     3
  6
CONTINUOUS
 10
-0.173210
 20
2.829627
  0
SEQEND
  8
0
  0
POLYLINE
  8
AB0CF1H
 62
     3
  6
CONTINUOUS
 66
     1
 40
0.003000
 41
0.003000
 70
     1
  0
VERTEX
  8
AB0CF1H
 62
     3
  6
CONTINUOUS
 10
0.580453
 20
1.283323
  0
VERTEX
  8
AB0CF1H
 62
     3
  6
CONTINUOUS
 10
0.570847
 20
1.319414
  0
VERTEX
  8
AB0CF1H
 62
     3
  6
CONTINUOUS
 10
0.546782
 20
1.341070
  0
VERTEX
  8
AB0CF1H
 62
     3
  6
CONTINUOUS
 10
0.515488
 20
1.348290
  0
VERTEX
  8
AB0CF1H
 62
     3
  6
CONTINUOUS
 10
0.484193
 20
1.341073
  0
VERTEX
  8
AB0CF1H
 62
     3
  6
CONTINUOUS
 10
0.460127
 20
1.319419
  0
VERTEX
  8
AB0CF1H
 62
     3
  6
CONTINUOUS
 10
0.450520
 20
1.283327
  0
VERTEX
  8
AB0CF1H
 62
     3
  6
CONTINUOUS
 10
0.460121
 20
1.247235
  0
VERTEX
  8
AB0CF1H
 62
     3
  6
CONTINUOUS
 10
0.484182
 20
1.225577
  0
VERTEX
  8
AB0CF1H
 62
     3
  6
CONTINUOUS
 10
0.515475
 20
1.218355
  0
VERTEX
  8
AB0CF1H
 62
     3
  6
CONTINUOUS
 10
0.546770
 20
1.225570
  0
VERTEX
  8
AB0CF1H
 62
     3
  6
CONTINUOUS
 10
0.570838
 20
1.247221
  0
VERTEX
  8
AB0CF1H
 62
     3
  6
CONTINUOUS
 10
0.580449
 20
1.283311
  0
VERTEX
  8
AB0CF1H
 62
     3
  6
CONTINUOUS
 10
0.580450
 20
1.283314
  0
VERTEX
  8
AB0CF1H
 62
     3
  6
CONTINUOUS
 10
0.580452
 20
1.283320
  0
SEQEND
  8
0
  0
POLYLINE
  8
AB0CF1H
 62
     3
  6
CONTINUOUS
 66
     1
 40
0.003000
 41
0.003000
 70
     1
  0
VERTEX
  8
AB0CF1H
 62
     3
  6
CONTINUOUS
 10
0.580453
 20
1.504224
  0
VERTEX
  8
AB0CF1H
 62
     3
  6
CONTINUOUS
 10
0.570847
 20
1.540316
  0
VERTEX
  8
AB0CF1H
 62
     3
  6
CONTINUOUS
 10
0.546782
 20
1.561972
  0
VERTEX
  8
AB0CF1H
 62
     3
  6
CONTINUOUS
 10
0.515488
 20
1.569191
  0
VERTEX
  8
AB0CF1H
 62
     3
  6
CONTINUOUS
 10
0.484193
 20
1.561974
  0
VERTEX
  8
AB0CF1H
 62
     3
  6
CONTINUOUS
 10
0.460127
 20
1.540320
  0
VERTEX
  8
AB0CF1H
 62
     3
  6
CONTINUOUS
 10
0.450520
 20
1.504228
  0
VERTEX
  8
AB0CF1H
 62
     3
  6
CONTINUOUS
 10
0.460121
 20
1.468136
  0
VERTEX
  8
AB0CF1H
 62
     3
  6
CONTINUOUS
 10
0.484182
 20
1.446479
  0
VERTEX
  8
AB0CF1H
 62
     3
  6
CONTINUOUS
 10
0.515475
 20
1.439257
  0
VERTEX
  8
AB0CF1H
 62
     3
  6
CONTINUOUS
 10
0.546770
 20
1.446471
  0
VERTEX
  8
AB0CF1H
 62
     3
  6
CONTINUOUS
 10
0.570838
 20
1.468123
  0
VERTEX
  8
AB0CF1H
 62
     3
  6
CONTINUOUS
 10
0.580449
 20
1.504213
  0
VERTEX
  8
AB0CF1H
 62
     3
  6
CONTINUOUS
 10
0.580450
 20
1.504216
  0
VERTEX
  8
AB0CF1H
 62
     3
  6
CONTINUOUS
 10
0.580452
 20
1.504221
  0
SEQEND
  8
0
  0
POLYLINE
  8
AB0CF1H
 62
     3
  6
CONTINUOUS
 66
     1
 40
0.003000
 41
0.003000
 70
     1
  0
VERTEX
  8
AB0CF1H
 62
     3
  6
CONTINUOUS
 10
0.580453
 20
1.725126
  0
VERTEX
  8
AB0CF1H
 62
     3
  6
CONTINUOUS
 10
0.570847
 20
1.761217
  0
VERTEX
  8
AB0CF1H
 62
     3
  6
CONTINUOUS
 10
0.546782
 20
1.782873
  0
VERTEX
  8
AB0CF1H
 62
     3
  6
CONTINUOUS
 10
0.515488
 20
1.790093
  0
VERTEX
  8
AB0CF1H
 62
     3
  6
CONTINUOUS
 10
0.484193
 20
1.782876
  0
VERTEX
  8
AB0CF1H
 62
     3
  6
CONTINUOUS
 10
0.460127
 20
1.761222
  0
VERTEX
  8
AB0CF1H
 62
     3
  6
CONTINUOUS
 10
0.450520
 20
1.725130
  0
VERTEX
  8
AB0CF1H
 62
     3
  6
CONTINUOUS
 10
0.460121
 20
1.689038
  0
VERTEX
  8
AB0CF1H
 62
     3
  6
CONTINUOUS
 10
0.484182
 20
1.667380
  0
VERTEX
  8
AB0CF1H
 62
     3
  6
CONTINUOUS
 10
0.515475
 20
1.660158
  0
VERTEX
  8
AB0CF1H
 62
     3
  6
CONTINUOUS
 10
0.546770
 20
1.667373
  0
VERTEX
  8
AB0CF1H
 62
     3
  6
CONTINUOUS
 10
0.570838
 20
1.689024
  0
VERTEX
  8
AB0CF1H
 62
     3
  6
CONTINUOUS
 10
0.580449
 20
1.725114
  0
VERTEX
  8
AB0CF1H
 62
     3
  6
CONTINUOUS
 10
0.580449
 20
1.725114
  0
VERTEX
  8
AB0CF1H
 62
     3
  6
CONTINUOUS
 10
0.580450
 20
1.725117
  0
VERTEX
  8
AB0CF1H
 62
     3
  6
CONTINUOUS
 10
0.580452
 20
1.725123
  0
SEQEND
  8
0
  0
POLYLINE
  8
AB0CF1H
 62
     3
  6
CONTINUOUS
 66
     1
 40
0.003000
 41
0.003000
 70
     1
  0
VERTEX
  8
AB0CF1H
 62
     3
  6
CONTINUOUS
 10
0.580453
 20
1.946028
  0
VERTEX
  8
AB0CF1H
 62
     3
  6
CONTINUOUS
 10
0.570847
 20
1.982119
  0
VERTEX
  8
AB0CF1H
 62
     3
  6
CONTINUOUS
 10
0.546782
 20
2.003775
  0
VERTEX
  8
AB0CF1H
 62
     3
  6
CONTINUOUS
 10
0.515488
 20
2.010995
  0
VERTEX
  8
AB0CF1H
 62
     3
  6
CONTINUOUS
 10
0.484193
 20
2.003778
  0
VERTEX
  8
AB0CF1H
 62
     3
  6
CONTINUOUS
 10
0.460127
 20
1.982123
  0
VERTEX
  8
AB0CF1H
 62
     3
  6
CONTINUOUS
 10
0.450520
 20
1.946031
  0
VERTEX
  8
AB0CF1H
 62
     3
  6
CONTINUOUS
 10
0.460121
 20
1.909939
  0
VERTEX
  8
AB0CF1H
 62
     3
  6
CONTINUOUS
 10
0.484182
 20
1.888282
  0
VERTEX
  8
AB0CF1H
 62
     3
  6
CONTINUOUS
 10
0.515475
 20
1.881060
  0
VERTEX
  8
AB0CF1H
 62
     3
  6
CONTINUOUS
 10
0.546770
 20
1.888274
  0
VERTEX
  8
AB0CF1H
 62
     3
  6
CONTINUOUS
 10
0.570838
 20
1.909926
  0
VERTEX
  8
AB0CF1H
 62
     3
  6
CONTINUOUS
 10
0.580449
 20
1.946016
  0
VERTEX
  8
AB0CF1H
 62
     3
  6
CONTINUOUS
 10
0.580450
 20
1.946019
  0
VERTEX
  8
AB0CF1H
 62
     3
  6
CONTINUOUS
 10
0.580452
 20
1.946024
  0
SEQEND
  8
0
  0
POLYLINE
  8
AB0CF1H
 62
     3
  6
CONTINUOUS
 66
     1
 40
0.003000
 41
0.003000
 70
     1
  0
VERTEX
  8
AB0CF1H
 62
     3
  6
CONTINUOUS
 10
0.580453
 20
2.166929
  0
VERTEX
  8
AB0CF1H
 62
     3
  6
CONTINUOUS
 10
0.570847
 20
2.203021
  0
VERTEX
  8
AB0CF1H
 62
     3
  6
CONTINUOUS
 10
0.546782
 20
2.224676
  0
VERTEX
  8
AB0CF1H
 62
     3
  6
CONTINUOUS
 10
0.515488
 20
2.231896
  0
VERTEX
  8
AB0CF1H
 62
     3
  6
CONTINUOUS
 10
0.484193
 20
2.224679
  0
VERTEX
  8
AB0CF1H
 62
     3
  6
CONTINUOUS
 10
0.460127
 20
2.203025
  0
VERTEX
  8
AB0CF1H
 62
     3
  6
CONTINUOUS
 10
0.450520
 20
2.166933
  0
VERTEX
  8
AB0CF1H
 62
     3
  6
CONTINUOUS
 10
0.460121
 20
2.130841
  0
VERTEX
  8
AB0CF1H
 62
     3
  6
CONTINUOUS
 10
0.484182
 20
2.109184
  0
VERTEX
  8
AB0CF1H
 62
     3
  6
CONTINUOUS
 10
0.515475
 20
2.101962
  0
VERTEX
  8
AB0CF1H
 62
     3
  6
CONTINUOUS
 10
0.546770
 20
2.109176
  0
VERTEX
  8
AB0CF1H
 62
     3
  6
CONTINUOUS
 10
0.570838
 20
2.130828
  0
VERTEX
  8
AB0CF1H
 62
     3
  6
CONTINUOUS
 10
0.580449
 20
2.166917
  0
VERTEX
  8
AB0CF1H
 62
     3
  6
CONTINUOUS
 10
0.580450
 20
2.166920
  0
VERTEX
  8
AB0CF1H
 62
     3
  6
CONTINUOUS
 10
0.580452
 20
2.166926
  0
SEQEND
  8
0
  0
POLYLINE
  8
AB0CF1H
 62
     3
  6
CONTINUOUS
 66
     1
 40
0.003000
 41
0.003000
 70
     1
  0
VERTEX
  8
AB0CF1H
 62
     3
  6
CONTINUOUS
 10
0.580453
 20
2.387827
  0
VERTEX
  8
AB0CF1H
 62
     3
  6
CONTINUOUS
 10
0.570847
 20
2.423918
  0
VERTEX
  8
AB0CF1H
 62
     3
  6
CONTINUOUS
 10
0.546782
 20
2.445574
  0
VERTEX
  8
AB0CF1H
 62
     3
  6
CONTINUOUS
 10
0.515488
 20
2.452794
  0
VERTEX
  8
AB0CF1H
 62
     3
  6
CONTINUOUS
 10
0.484193
 20
2.445577
  0
VERTEX
  8
AB0CF1H
 62
     3
  6
CONTINUOUS
 10
0.460127
 20
2.423923
  0
VERTEX
  8
AB0CF1H
 62
     3
  6
CONTINUOUS
 10
0.450520
 20
2.387831
  0
VERTEX
  8
AB0CF1H
 62
     3
  6
CONTINUOUS
 10
0.460121
 20
2.351739
  0
VERTEX
  8
AB0CF1H
 62
     3
  6
CONTINUOUS
 10
0.484182
 20
2.330081
  0
VERTEX
  8
AB0CF1H
 62
     3
  6
CONTINUOUS
 10
0.515475
 20
2.322859
  0
VERTEX
  8
AB0CF1H
 62
     3
  6
CONTINUOUS
 10
0.546770
 20
2.330074
  0
VERTEX
  8
AB0CF1H
 62
     3
  6
CONTINUOUS
 10
0.570838
 20
2.351725
  0
VERTEX
  8
AB0CF1H
 62
     3
  6
CONTINUOUS
 10
0.580449
 20
2.387815
  0
VERTEX
  8
AB0CF1H
 62
     3
  6
CONTINUOUS
 10
0.580450
 20
2.387818
  0
VERTEX
  8
AB0CF1H
 62
     3
  6
CONTINUOUS
 10
0.580452
 20
2.387824
  0
SEQEND
  8
0
  0
POLYLINE
  8
AB0CF1H
 62
     3
  6
CONTINUOUS
 66
     1
 40
0.003000
 41
0.003000
 70
     1
  0
VERTEX
  8
AB0CF1H
 62
     3
  6
CONTINUOUS
 10
0.580453
 20
2.608728
  0
VERTEX
  8
AB0CF1H
 62
     3
  6
CONTINUOUS
 10
0.570847
 20
2.644820
  0
VERTEX
  8
AB0CF1H
 62
     3
  6
CONTINUOUS
 10
0.546782
 20
2.666476
  0
VERTEX
  8
AB0CF1H
 62
     3
  6
CONTINUOUS
 10
0.515488
 20
2.673695
  0
VERTEX
  8
AB0CF1H
 62
     3
  6
CONTINUOUS
 10
0.484193
 20
2.666478
  0
VERTEX
  8
AB0CF1H
 62
     3
  6
CONTINUOUS
 10
0.460127
 20
2.644824
  0
VERTEX
  8
AB0CF1H
 62
     3
  6
CONTINUOUS
 10
0.450520
 20
2.608732
  0
VERTEX
  8
AB0CF1H
 62
     3
  6
CONTINUOUS
 10
0.460121
 20
2.572640
  0
VERTEX
  8
AB0CF1H
 62
     3
  6
CONTINUOUS
 10
0.484182
 20
2.550983
  0
VERTEX
  8
AB0CF1H
 62
     3
  6
CONTINUOUS
 10
0.515475
 20
2.543761
  0
VERTEX
  8
AB0CF1H
 62
     3
  6
CONTINUOUS
 10
0.546770
 20
2.550975
  0
VERTEX
  8
AB0CF1H
 62
     3
  6
CONTINUOUS
 10
0.570838
 20
2.572627
  0
VERTEX
  8
AB0CF1H
 62
     3
  6
CONTINUOUS
 10
0.580449
 20
2.608717
  0
VERTEX
  8
AB0CF1H
 62
     3
  6
CONTINUOUS
 10
0.580450
 20
2.608720
  0
VERTEX
  8
AB0CF1H
 62
     3
  6
CONTINUOUS
 10
0.580452
 20
2.608725
  0
SEQEND
  8
0
  0
POLYLINE
  8
AB0CF1H
 62
     3
  6
CONTINUOUS
 66
     1
 40
0.003000
 41
0.003000
 70
     1
  0
VERTEX
  8
AB0CF1H
 62
     3
  6
CONTINUOUS
 10
0.580453
 20
2.829630
  0
VERTEX
  8
AB0CF1H
 62
     3
  6
CONTINUOUS
 10
0.570847
 20
2.865721
  0
VERTEX
  8
AB0CF1H
 62
     3
  6
CONTINUOUS
 10
0.546782
 20
2.887377
  0
VERTEX
  8
AB0CF1H
 62
     3
  6
CONTINUOUS
 10
0.515488
 20
2.894597
  0
VERTEX
  8
AB0CF1H
 62
     3
  6
CONTINUOUS
 10
0.484193
 20
2.887380
  0
VERTEX
  8
AB0CF1H
 62
     3
  6
CONTINUOUS
 10
0.460127
 20
2.865726
  0
VERTEX
  8
AB0CF1H
 62
     3
  6
CONTINUOUS
 10
0.450520
 20
2.829634
  0
VERTEX
  8
AB0CF1H
 62
     3
  6
CONTINUOUS
 10
0.460121
 20
2.793542
  0
VERTEX
  8
AB0CF1H
 62
     3
  6
CONTINUOUS
 10
0.484182
 20
2.771884
  0
VERTEX
  8
AB0CF1H
 62
     3
  6
CONTINUOUS
 10
0.515475
 20
2.764662
  0
VERTEX
  8
AB0CF1H
 62
     3
  6
CONTINUOUS
 10
0.546770
 20
2.771877
  0
VERTEX
  8
AB0CF1H
 62
     3
  6
CONTINUOUS
 10
0.570838
 20
2.793528
  0
VERTEX
  8
AB0CF1H
 62
     3
  6
CONTINUOUS
 10
0.580449
 20
2.829618
  0
VERTEX
  8
AB0CF1H
 62
     3
  6
CONTINUOUS
 10
0.580450
 20
2.829621
  0
VERTEX
  8
AB0CF1H
 62
     3
  6
CONTINUOUS
 10
0.580452
 20
2.829627
  0
SEQEND
  8
0
  0
POLYLINE
  8
AB0CF1H
 62
     3
  6
CONTINUOUS
 66
     1
 40
0.003000
 41
0.003000
  0
VERTEX
  8
AB0CF1H
 62
     3
  6
CONTINUOUS
 10
-0.176547
 20
1.041846
  0
VERTEX
  8
AB0CF1H
 62
     3
  6
CONTINUOUS
 10
-0.220425
 20
1.067177
  0
SEQEND
  8
0
  0
POLYLINE
  8
AB0CF1H
 62
     3
  6
CONTINUOUS
 66
     1
 40
0.003000
 41
0.003000
  0
VERTEX
  8
AB0CF1H
 62
     3
  6
CONTINUOUS
 10
-0.189543
 20
1.019339
  0
VERTEX
  8
AB0CF1H
 62
     3
  6
CONTINUOUS
 10
-0.233417
 20
1.044673
  0
SEQEND
  8
0
  0
POLYLINE
  8
AB0CF1H
 62
     3
  6
CONTINUOUS
 66
     1
 40
0.003000
 41
0.003000
  0
VERTEX
  8
AB0CF1H
 62
     3
  6
CONTINUOUS
 10
-0.255925
 20
1.057665
  0
VERTEX
  8
AB0CF1H
 62
     3
  6
CONTINUOUS
 10
-0.281256
 20
1.013787
  0
SEQEND
  8
0
  0
POLYLINE
  8
AB0CF1H
 62
     3
  6
CONTINUOUS
 66
     1
 40
0.003000
 41
0.003000
  0
VERTEX
  8
AB0CF1H
 62
     3
  6
CONTINUOUS
 10
-0.233417
 20
1.044673
  0
VERTEX
  8
AB0CF1H
 62
     3
  6
CONTINUOUS
 10
-0.258752
 20
1.000795
  0
SEQEND
  8
0
  0
POLYLINE
  8
AB0CF1H
 62
     3
  6
CONTINUOUS
 66
     1
 40
0.003000
 41
0.003000
  0
VERTEX
  8
AB0CF1H
 62
     3
  6
CONTINUOUS
 10
-0.242933
 20
1.080173
  0
VERTEX
  8
AB0CF1H
 62
     3
  6
CONTINUOUS
 10
-0.286807
 20
1.105504
  0
SEQEND
  8
0
  0
POLYLINE
  8
AB0CF1H
 62
     3
  6
CONTINUOUS
 66
     1
 40
0.003000
 41
0.003000
  0
VERTEX
  8
AB0CF1H
 62
     3
  6
CONTINUOUS
 10
-0.255925
 20
1.057665
  0
VERTEX
  8
AB0CF1H
 62
     3
  6
CONTINUOUS
 10
-0.299803
 20
1.082996
  0
SEQEND
  8
0
  0
POLYLINE
  8
AB0CF1H
 62
     3
  6
CONTINUOUS
 66
     1
 40
0.003000
 41
0.003000
  0
VERTEX
  8
AB0CF1H
 62
     3
  6
CONTINUOUS
 10
-0.195094
 20
1.111055
  0
VERTEX
  8
AB0CF1H
 62
     3
  6
CONTINUOUS
 10
-0.220425
 20
1.067177
  0
SEQEND
  8
0
  0
POLYLINE
  8
AB0CF1H
 62
     3
  6
CONTINUOUS
 66
     1
 40
0.003000
 41
0.003000
  0
VERTEX
  8
AB0CF1H
 62
     3
  6
CONTINUOUS
 10
-0.217598
 20
1.124047
  0
VERTEX
  8
AB0CF1H
 62
     3
  6
CONTINUOUS
 10
-0.242933
 20
1.080173
  0
SEQEND
  8
0
  0
POLYLINE
  8
AB0CF1H
 62
     3
  6
CONTINUOUS
 66
     1
 40
0.003000
 41
0.003000
  0
VERTEX
  8
AB0CF1H
 62
     3
  6
CONTINUOUS
 10
0.453858
 20
1.041846
  0
VERTEX
  8
AB0CF1H
 62
     3
  6
CONTINUOUS
 10
0.497732
 20
1.067177
  0
SEQEND
  8
0
  0
POLYLINE
  8
AB0CF1H
 62
     3
  6
CONTINUOUS
 66
     1
 40
0.003000
 41
0.003000
  0
VERTEX
  8
AB0CF1H
 62
     3
  6
CONTINUOUS
 10
0.466850
 20
1.019339
  0
VERTEX
  8
AB0CF1H
 62
     3
  6
CONTINUOUS
 10
0.510728
 20
1.044673
  0
SEQEND
  8
0
  0
POLYLINE
  8
AB0CF1H
 62
     3
  6
CONTINUOUS
 66
     1
 40
0.003000
 41
0.003000
  0
VERTEX
  8
AB0CF1H
 62
     3
  6
CONTINUOUS
 10
0.533236
 20
1.057665
  0
VERTEX
  8
AB0CF1H
 62
     3
  6
CONTINUOUS
 10
0.558567
 20
1.013787
  0
SEQEND
  8
0
  0
POLYLINE
  8
AB0CF1H
 62
     3
  6
CONTINUOUS
 66
     1
 40
0.003000
 41
0.003000
  0
VERTEX
  8
AB0CF1H
 62
     3
  6
CONTINUOUS
 10
0.510728
 20
1.044673
  0
VERTEX
  8
AB0CF1H
 62
     3
  6
CONTINUOUS
 10
0.536059
 20
1.000795
  0
SEQEND
  8
0
  0
POLYLINE
  8
AB0CF1H
 62
     3
  6
CONTINUOUS
 66
     1
 40
0.003000
 41
0.003000
  0
VERTEX
  8
AB0CF1H
 62
     3
  6
CONTINUOUS
 10
0.520240
 20
1.080173
  0
VERTEX
  8
AB0CF1H
 62
     3
  6
CONTINUOUS
 10
0.564114
 20
1.105504
  0
SEQEND
  8
0
  0
POLYLINE
  8
AB0CF1H
 62
     3
  6
CONTINUOUS
 66
     1
 40
0.003000
 41
0.003000
  0
VERTEX
  8
AB0CF1H
 62
     3
  6
CONTINUOUS
 10
0.533236
 20
1.057665
  0
VERTEX
  8
AB0CF1H
 62
     3
  6
CONTINUOUS
 10
0.577110
 20
1.082996
  0
SEQEND
  8
0
  0
POLYLINE
  8
AB0CF1H
 62
     3
  6
CONTINUOUS
 66
     1
 40
0.003000
 41
0.003000
  0
VERTEX
  8
AB0CF1H
 62
     3
  6
CONTINUOUS
 10
0.472402
 20
1.111055
  0
VERTEX
  8
AB0CF1H
 62
     3
  6
CONTINUOUS
 10
0.497732
 20
1.067177
  0
SEQEND
  8
0
  0
POLYLINE
  8
AB0CF1H
 62
     3
  6
CONTINUOUS
 66
     1
 40
0.003000
 41
0.003000
  0
VERTEX
  8
AB0CF1H
 62
     3
  6
CONTINUOUS
 10
0.494909
 20
1.124047
  0
VERTEX
  8
AB0CF1H
 62
     3
  6
CONTINUOUS
 10
0.520240
 20
1.080173
  0
SEQEND
  8
0
  0
POLYLINE
  8
AB0CF1H
 62
     3
  6
CONTINUOUS
 66
     1
 40
0.003000
 41
0.003000
  0
VERTEX
  8
AB0CF1H
 62
     3
  6
CONTINUOUS
 10
-0.176547
 20
1.262748
  0
VERTEX
  8
AB0CF1H
 62
     3
  6
CONTINUOUS
 10
-0.220425
 20
1.288079
  0
SEQEND
  8
0
  0
POLYLINE
  8
AB0CF1H
 62
     3
  6
CONTINUOUS
 66
     1
 40
0.003000
 41
0.003000
  0
VERTEX
  8
AB0CF1H
 62
     3
  6
CONTINUOUS
 10
-0.176547
 20
1.483646
  0
VERTEX
  8
AB0CF1H
 62
     3
  6
CONTINUOUS
 10
-0.220425
 20
1.508980
  0
SEQEND
  8
0
  0
POLYLINE
  8
AB0CF1H
 62
     3
  6
CONTINUOUS
 66
     1
 40
0.003000
 41
0.003000
  0
VERTEX
  8
AB0CF1H
 62
     3
  6
CONTINUOUS
 10
-0.176547
 20
1.704547
  0
VERTEX
  8
AB0CF1H
 62
     3
  6
CONTINUOUS
 10
-0.220425
 20
1.729882
  0
SEQEND
  8
0
  0
POLYLINE
  8
AB0CF1H
 62
     3
  6
CONTINUOUS
 66
     1
 40
0.003000
 41
0.003000
  0
VERTEX
  8
AB0CF1H
 62
     3
  6
CONTINUOUS
 10
-0.176547
 20
1.925449
  0
VERTEX
  8
AB0CF1H
 62
     3
  6
CONTINUOUS
 10
-0.220425
 20
1.950783
  0
SEQEND
  8
0
  0
POLYLINE
  8
AB0CF1H
 62
     3
  6
CONTINUOUS
 66
     1
 40
0.003000
 41
0.003000
  0
VERTEX
  8
AB0CF1H
 62
     3
  6
CONTINUOUS
 10
-0.176547
 20
2.146350
  0
VERTEX
  8
AB0CF1H
 62
     3
  6
CONTINUOUS
 10
-0.220425
 20
2.171685
  0
SEQEND
  8
0
  0
POLYLINE
  8
AB0CF1H
 62
     3
  6
CONTINUOUS
 66
     1
 40
0.003000
 41
0.003000
  0
VERTEX
  8
AB0CF1H
 62
     3
  6
CONTINUOUS
 10
-0.176547
 20
2.367252
  0
VERTEX
  8
AB0CF1H
 62
     3
  6
CONTINUOUS
 10
-0.220425
 20
2.392587
  0
SEQEND
  8
0
  0
POLYLINE
  8
AB0CF1H
 62
     3
  6
CONTINUOUS
 66
     1
 40
0.003000
 41
0.003000
  0
VERTEX
  8
AB0CF1H
 62
     3
  6
CONTINUOUS
 10
-0.176547
 20
2.588154
  0
VERTEX
  8
AB0CF1H
 62
     3
  6
CONTINUOUS
 10
-0.220425
 20
2.613488
  0
SEQEND
  8
0
  0
POLYLINE
  8
AB0CF1H
 62
     3
  6
CONTINUOUS
 66
     1
 40
0.003000
 41
0.003000
  0
VERTEX
  8
AB0CF1H
 62
     3
  6
CONTINUOUS
 10
-0.176547
 20
2.809055
  0
VERTEX
  8
AB0CF1H
 62
     3
  6
CONTINUOUS
 10
-0.220425
 20
2.834386
  0
SEQEND
  8
0
  0
POLYLINE
  8
AB0CF1H
 62
     3
  6
CONTINUOUS
 66
     1
 40
0.003000
 41
0.003000
  0
VERTEX
  8
AB0CF1H
 62
     3
  6
CONTINUOUS
 10
-0.189543
 20
1.240240
  0
VERTEX
  8
AB0CF1H
 62
     3
  6
CONTINUOUS
 10
-0.233417
 20
1.265575
  0
SEQEND
  8
0
  0
POLYLINE
  8
AB0CF1H
 62
     3
  6
CONTINUOUS
 66
     1
 40
0.003000
 41
0.003000
  0
VERTEX
  8
AB0CF1H
 62
     3
  6
CONTINUOUS
 10
-0.189543
 20
1.461142
  0
VERTEX
  8
AB0CF1H
 62
     3
  6
CONTINUOUS
 10
-0.233417
 20
1.486472
  0
SEQEND
  8
0
  0
POLYLINE
  8
AB0CF1H
 62
     3
  6
CONTINUOUS
 66
     1
 40
0.003000
 41
0.003000
  0
VERTEX
  8
AB0CF1H
 62
     3
  6
CONTINUOUS
 10
-0.189543
 20
1.682043
  0
VERTEX
  8
AB0CF1H
 62
     3
  6
CONTINUOUS
 10
-0.233417
 20
1.707374
  0
SEQEND
  8
0
  0
POLYLINE
  8
AB0CF1H
 62
     3
  6
CONTINUOUS
 66
     1
 40
0.003000
 41
0.003000
  0
VERTEX
  8
AB0CF1H
 62
     3
  6
CONTINUOUS
 10
-0.189543
 20
1.902945
  0
VERTEX
  8
AB0CF1H
 62
     3
  6
CONTINUOUS
 10
-0.233417
 20
1.928276
  0
SEQEND
  8
0
  0
POLYLINE
  8
AB0CF1H
 62
     3
  6
CONTINUOUS
 66
     1
 40
0.003000
 41
0.003000
  0
VERTEX
  8
AB0CF1H
 62
     3
  6
CONTINUOUS
 10
-0.189543
 20
2.123846
  0
VERTEX
  8
AB0CF1H
 62
     3
  6
CONTINUOUS
 10
-0.233417
 20
2.149177
  0
SEQEND
  8
0
  0
POLYLINE
  8
AB0CF1H
 62
     3
  6
CONTINUOUS
 66
     1
 40
0.003000
 41
0.003000
  0
VERTEX
  8
AB0CF1H
 62
     3
  6
CONTINUOUS
 10
-0.189543
 20
2.344748
  0
VERTEX
  8
AB0CF1H
 62
     3
  6
CONTINUOUS
 10
-0.233417
 20
2.370079
  0
SEQEND
  8
0
  0
POLYLINE
  8
AB0CF1H
 62
     3
  6
CONTINUOUS
 66
     1
 40
0.003000
 41
0.003000
  0
VERTEX
  8
AB0CF1H
 62
     3
  6
CONTINUOUS
 10
-0.189543
 20
2.565650
  0
VERTEX
  8
AB0CF1H
 62
     3
  6
CONTINUOUS
 10
-0.233417
 20
2.590980
  0
SEQEND
  8
0
  0
POLYLINE
  8
AB0CF1H
 62
     3
  6
CONTINUOUS
 66
     1
 40
0.003000
 41
0.003000
  0
VERTEX
  8
AB0CF1H
 62
     3
  6
CONTINUOUS
 10
-0.189543
 20
2.786551
  0
VERTEX
  8
AB0CF1H
 62
     3
  6
CONTINUOUS
 10
-0.233417
 20
2.811882
  0
SEQEND
  8
0
  0
POLYLINE
  8
AB0CF1H
 62
     3
  6
CONTINUOUS
 66
     1
 40
0.003000
 41
0.003000
  0
VERTEX
  8
AB0CF1H
 62
     3
  6
CONTINUOUS
 10
-0.255925
 20
1.278567
  0
VERTEX
  8
AB0CF1H
 62
     3
  6
CONTINUOUS
 10
-0.281256
 20
1.234689
  0
SEQEND
  8
0
  0
POLYLINE
  8
AB0CF1H
 62
     3
  6
CONTINUOUS
 66
     1
 40
0.003000
 41
0.003000
  0
VERTEX
  8
AB0CF1H
 62
     3
  6
CONTINUOUS
 10
-0.255925
 20
1.499469
  0
VERTEX
  8
AB0CF1H
 62
     3
  6
CONTINUOUS
 10
-0.281256
 20
1.455591
  0
SEQEND
  8
0
  0
POLYLINE
  8
AB0CF1H
 62
     3
  6
CONTINUOUS
 66
     1
 40
0.003000
 41
0.003000
  0
VERTEX
  8
AB0CF1H
 62
     3
  6
CONTINUOUS
 10
-0.255925
 20
1.720370
  0
VERTEX
  8
AB0CF1H
 62
     3
  6
CONTINUOUS
 10
-0.281256
 20
1.676492
  0
SEQEND
  8
0
  0
POLYLINE
  8
AB0CF1H
 62
     3
  6
CONTINUOUS
 66
     1
 40
0.003000
 41
0.003000
  0
VERTEX
  8
AB0CF1H
 62
     3
  6
CONTINUOUS
 10
-0.255925
 20
1.941272
  0
VERTEX
  8
AB0CF1H
 62
     3
  6
CONTINUOUS
 10
-0.281256
 20
1.897394
  0
SEQEND
  8
0
  0
POLYLINE
  8
AB0CF1H
 62
     3
  6
CONTINUOUS
 66
     1
 40
0.003000
 41
0.003000
  0
VERTEX
  8
AB0CF1H
 62
     3
  6
CONTINUOUS
 10
-0.255925
 20
2.162173
  0
VERTEX
  8
AB0CF1H
 62
     3
  6
CONTINUOUS
 10
-0.281256
 20
2.118295
  0
SEQEND
  8
0
  0
POLYLINE
  8
AB0CF1H
 62
     3
  6
CONTINUOUS
 66
     1
 40
0.003000
 41
0.003000
  0
VERTEX
  8
AB0CF1H
 62
     3
  6
CONTINUOUS
 10
-0.255925
 20
2.383075
  0
VERTEX
  8
AB0CF1H
 62
     3
  6
CONTINUOUS
 10
-0.281256
 20
2.339197
  0
SEQEND
  8
0
  0
POLYLINE
  8
AB0CF1H
 62
     3
  6
CONTINUOUS
 66
     1
 40
0.003000
 41
0.003000
  0
VERTEX
  8
AB0CF1H
 62
     3
  6
CONTINUOUS
 10
-0.255925
 20
2.603972
  0
VERTEX
  8
AB0CF1H
 62
     3
  6
CONTINUOUS
 10
-0.281256
 20
2.560098
  0
SEQEND
  8
0
  0
POLYLINE
  8
AB0CF1H
 62
     3
  6
CONTINUOUS
 66
     1
 40
0.003000
 41
0.003000
  0
VERTEX
  8
AB0CF1H
 62
     3
  6
CONTINUOUS
 10
-0.255925
 20
2.824874
  0
VERTEX
  8
AB0CF1H
 62
     3
  6
CONTINUOUS
 10
-0.281256
 20
2.780996
  0
SEQEND
  8
0
  0
POLYLINE
  8
AB0CF1H
 62
     3
  6
CONTINUOUS
 66
     1
 40
0.003000
 41
0.003000
  0
VERTEX
  8
AB0CF1H
 62
     3
  6
CONTINUOUS
 10
-0.233417
 20
1.265575
  0
VERTEX
  8
AB0CF1H
 62
     3
  6
CONTINUOUS
 10
-0.258752
 20
1.221697
  0
SEQEND
  8
0
  0
POLYLINE
  8
AB0CF1H
 62
     3
  6
CONTINUOUS
 66
     1
 40
0.003000
 41
0.003000
  0
VERTEX
  8
AB0CF1H
 62
     3
  6
CONTINUOUS
 10
-0.233417
 20
1.486472
  0
VERTEX
  8
AB0CF1H
 62
     3
  6
CONTINUOUS
 10
-0.258752
 20
1.442598
  0
SEQEND
  8
0
  0
POLYLINE
  8
AB0CF1H
 62
     3
  6
CONTINUOUS
 66
     1
 40
0.003000
 41
0.003000
  0
VERTEX
  8
AB0CF1H
 62
     3
  6
CONTINUOUS
 10
-0.233417
 20
1.707374
  0
VERTEX
  8
AB0CF1H
 62
     3
  6
CONTINUOUS
 10
-0.258752
 20
1.663496
  0
SEQEND
  8
0
  0
POLYLINE
  8
AB0CF1H
 62
     3
  6
CONTINUOUS
 66
     1
 40
0.003000
 41
0.003000
  0
VERTEX
  8
AB0CF1H
 62
     3
  6
CONTINUOUS
 10
-0.233417
 20
1.928276
  0
VERTEX
  8
AB0CF1H
 62
     3
  6
CONTINUOUS
 10
-0.258752
 20
1.884398
  0
SEQEND
  8
0
  0
POLYLINE
  8
AB0CF1H
 62
     3
  6
CONTINUOUS
 66
     1
 40
0.003000
 41
0.003000
  0
VERTEX
  8
AB0CF1H
 62
     3
  6
CONTINUOUS
 10
-0.233417
 20
2.149177
  0
VERTEX
  8
AB0CF1H
 62
     3
  6
CONTINUOUS
 10
-0.258752
 20
2.105299
  0
SEQEND
  8
0
  0
POLYLINE
  8
AB0CF1H
 62
     3
  6
CONTINUOUS
 66
     1
 40
0.003000
 41
0.003000
  0
VERTEX
  8
AB0CF1H
 62
     3
  6
CONTINUOUS
 10
-0.233417
 20
2.370079
  0
VERTEX
  8
AB0CF1H
 62
     3
  6
CONTINUOUS
 10
-0.258752
 20
2.326201
  0
SEQEND
  8
0
  0
POLYLINE
  8
AB0CF1H
 62
     3
  6
CONTINUOUS
 66
     1
 40
0.003000
 41
0.003000
  0
VERTEX
  8
AB0CF1H
 62
     3
  6
CONTINUOUS
 10
-0.233417
 20
2.590980
  0
VERTEX
  8
AB0CF1H
 62
     3
  6
CONTINUOUS
 10
-0.258752
 20
2.547102
  0
SEQEND
  8
0
  0
POLYLINE
  8
AB0CF1H
 62
     3
  6
CONTINUOUS
 66
     1
 40
0.003000
 41
0.003000
  0
VERTEX
  8
AB0CF1H
 62
     3
  6
CONTINUOUS
 10
-0.233417
 20
2.811882
  0
VERTEX
  8
AB0CF1H
 62
     3
  6
CONTINUOUS
 10
-0.258752
 20
2.768004
  0
SEQEND
  8
0
  0
POLYLINE
  8
AB0CF1H
 62
     3
  6
CONTINUOUS
 66
     1
 40
0.003000
 41
0.003000
  0
VERTEX
  8
AB0CF1H
 62
     3
  6
CONTINUOUS
 10
-0.242933
 20
1.301075
  0
VERTEX
  8
AB0CF1H
 62
     3
  6
CONTINUOUS
 10
-0.286807
 20
1.326406
  0
SEQEND
  8
0
  0
POLYLINE
  8
AB0CF1H
 62
     3
  6
CONTINUOUS
 66
     1
 40
0.003000
 41
0.003000
  0
VERTEX
  8
AB0CF1H
 62
     3
  6
CONTINUOUS
 10
-0.242933
 20
1.521976
  0
VERTEX
  8
AB0CF1H
 62
     3
  6
CONTINUOUS
 10
-0.286807
 20
1.547307
  0
SEQEND
  8
0
  0
POLYLINE
  8
AB0CF1H
 62
     3
  6
CONTINUOUS
 66
     1
 40
0.003000
 41
0.003000
  0
VERTEX
  8
AB0CF1H
 62
     3
  6
CONTINUOUS
 10
-0.242933
 20
1.742878
  0
VERTEX
  8
AB0CF1H
 62
     3
  6
CONTINUOUS
 10
-0.286807
 20
1.768209
  0
SEQEND
  8
0
  0
POLYLINE
  8
AB0CF1H
 62
     3
  6
CONTINUOUS
 66
     1
 40
0.003000
 41
0.003000
  0
VERTEX
  8
AB0CF1H
 62
     3
  6
CONTINUOUS
 10
-0.242933
 20
1.963776
  0
VERTEX
  8
AB0CF1H
 62
     3
  6
CONTINUOUS
 10
-0.286807
 20
1.989110
  0
SEQEND
  8
0
  0
POLYLINE
  8
AB0CF1H
 62
     3
  6
CONTINUOUS
 66
     1
 40
0.003000
 41
0.003000
  0
VERTEX
  8
AB0CF1H
 62
     3
  6
CONTINUOUS
 10
-0.242933
 20
2.184677
  0
VERTEX
  8
AB0CF1H
 62
     3
  6
CONTINUOUS
 10
-0.286807
 20
2.210012
  0
SEQEND
  8
0
  0
POLYLINE
  8
AB0CF1H
 62
     3
  6
CONTINUOUS
 66
     1
 40
0.003000
 41
0.003000
  0
VERTEX
  8
AB0CF1H
 62
     3
  6
CONTINUOUS
 10
-0.242933
 20
2.405579
  0
VERTEX
  8
AB0CF1H
 62
     3
  6
CONTINUOUS
 10
-0.286807
 20
2.430909
  0
SEQEND
  8
0
  0
POLYLINE
  8
AB0CF1H
 62
     3
  6
CONTINUOUS
 66
     1
 40
0.003000
 41
0.003000
  0
VERTEX
  8
AB0CF1H
 62
     3
  6
CONTINUOUS
 10
-0.242933
 20
2.626480
  0
VERTEX
  8
AB0CF1H
 62
     3
  6
CONTINUOUS
 10
-0.286807
 20
2.651811
  0
SEQEND
  8
0
  0
POLYLINE
  8
AB0CF1H
 62
     3
  6
CONTINUOUS
 66
     1
 40
0.003000
 41
0.003000
  0
VERTEX
  8
AB0CF1H
 62
     3
  6
CONTINUOUS
 10
-0.242933
 20
2.847382
  0
VERTEX
  8
AB0CF1H
 62
     3
  6
CONTINUOUS
 10
-0.286807
 20
2.872713
  0
SEQEND
  8
0
  0
POLYLINE
  8
AB0CF1H
 62
     3
  6
CONTINUOUS
 66
     1
 40
0.003000
 41
0.003000
  0
VERTEX
  8
AB0CF1H
 62
     3
  6
CONTINUOUS
 10
-0.255925
 20
1.278567
  0
VERTEX
  8
AB0CF1H
 62
     3
  6
CONTINUOUS
 10
-0.299803
 20
1.303898
  0
SEQEND
  8
0
  0
POLYLINE
  8
AB0CF1H
 62
     3
  6
CONTINUOUS
 66
     1
 40
0.003000
 41
0.003000
  0
VERTEX
  8
AB0CF1H
 62
     3
  6
CONTINUOUS
 10
-0.255925
 20
1.499469
  0
VERTEX
  8
AB0CF1H
 62
     3
  6
CONTINUOUS
 10
-0.299803
 20
1.524799
  0
SEQEND
  8
0
  0
POLYLINE
  8
AB0CF1H
 62
     3
  6
CONTINUOUS
 66
     1
 40
0.003000
 41
0.003000
  0
VERTEX
  8
AB0CF1H
 62
     3
  6
CONTINUOUS
 10
-0.255925
 20
1.720370
  0
VERTEX
  8
AB0CF1H
 62
     3
  6
CONTINUOUS
 10
-0.299803
 20
1.745701
  0
SEQEND
  8
0
  0
POLYLINE
  8
AB0CF1H
 62
     3
  6
CONTINUOUS
 66
     1
 40
0.003000
 41
0.003000
  0
VERTEX
  8
AB0CF1H
 62
     3
  6
CONTINUOUS
 10
-0.255925
 20
1.941272
  0
VERTEX
  8
AB0CF1H
 62
     3
  6
CONTINUOUS
 10
-0.299803
 20
1.966602
  0
SEQEND
  8
0
  0
POLYLINE
  8
AB0CF1H
 62
     3
  6
CONTINUOUS
 66
     1
 40
0.003000
 41
0.003000
  0
VERTEX
  8
AB0CF1H
 62
     3
  6
CONTINUOUS
 10
-0.255925
 20
2.162173
  0
VERTEX
  8
AB0CF1H
 62
     3
  6
CONTINUOUS
 10
-0.299803
 20
2.187504
  0
SEQEND
  8
0
  0
POLYLINE
  8
AB0CF1H
 62
     3
  6
CONTINUOUS
 66
     1
 40
0.003000
 41
0.003000
  0
VERTEX
  8
AB0CF1H
 62
     3
  6
CONTINUOUS
 10
-0.255925
 20
2.383075
  0
VERTEX
  8
AB0CF1H
 62
     3
  6
CONTINUOUS
 10
-0.299803
 20
2.408406
  0
SEQEND
  8
0
  0
POLYLINE
  8
AB0CF1H
 62
     3
  6
CONTINUOUS
 66
     1
 40
0.003000
 41
0.003000
  0
VERTEX
  8
AB0CF1H
 62
     3
  6
CONTINUOUS
 10
-0.255925
 20
2.603972
  0
VERTEX
  8
AB0CF1H
 62
     3
  6
CONTINUOUS
 10
-0.299803
 20
2.629307
  0
SEQEND
  8
0
  0
POLYLINE
  8
AB0CF1H
 62
     3
  6
CONTINUOUS
 66
     1
 40
0.003000
 41
0.003000
  0
VERTEX
  8
AB0CF1H
 62
     3
  6
CONTINUOUS
 10
-0.255925
 20
2.824874
  0
VERTEX
  8
AB0CF1H
 62
     3
  6
CONTINUOUS
 10
-0.299803
 20
2.850209
  0
SEQEND
  8
0
  0
POLYLINE
  8
AB0CF1H
 62
     3
  6
CONTINUOUS
 66
     1
 40
0.003000
 41
0.003000
  0
VERTEX
  8
AB0CF1H
 62
     3
  6
CONTINUOUS
 10
-0.195094
 20
1.331957
  0
VERTEX
  8
AB0CF1H
 62
     3
  6
CONTINUOUS
 10
-0.220425
 20
1.288079
  0
SEQEND
  8
0
  0
POLYLINE
  8
AB0CF1H
 62
     3
  6
CONTINUOUS
 66
     1
 40
0.003000
 41
0.003000
  0
VERTEX
  8
AB0CF1H
 62
     3
  6
CONTINUOUS
 10
-0.195094
 20
1.552858
  0
VERTEX
  8
AB0CF1H
 62
     3
  6
CONTINUOUS
 10
-0.220425
 20
1.508980
  0
SEQEND
  8
0
  0
POLYLINE
  8
AB0CF1H
 62
     3
  6
CONTINUOUS
 66
     1
 40
0.003000
 41
0.003000
  0
VERTEX
  8
AB0CF1H
 62
     3
  6
CONTINUOUS
 10
-0.195094
 20
1.773760
  0
VERTEX
  8
AB0CF1H
 62
     3
  6
CONTINUOUS
 10
-0.220425
 20
1.729882
  0
SEQEND
  8
0
  0
POLYLINE
  8
AB0CF1H
 62
     3
  6
CONTINUOUS
 66
     1
 40
0.003000
 41
0.003000
  0
VERTEX
  8
AB0CF1H
 62
     3
  6
CONTINUOUS
 10
-0.195094
 20
1.994657
  0
VERTEX
  8
AB0CF1H
 62
     3
  6
CONTINUOUS
 10
-0.220425
 20
1.950783
  0
SEQEND
  8
0
  0
POLYLINE
  8
AB0CF1H
 62
     3
  6
CONTINUOUS
 66
     1
 40
0.003000
 41
0.003000
  0
VERTEX
  8
AB0CF1H
 62
     3
  6
CONTINUOUS
 10
-0.195094
 20
2.215559
  0
VERTEX
  8
AB0CF1H
 62
     3
  6
CONTINUOUS
 10
-0.220425
 20
2.171685
  0
SEQEND
  8
0
  0
POLYLINE
  8
AB0CF1H
 62
     3
  6
CONTINUOUS
 66
     1
 40
0.003000
 41
0.003000
  0
VERTEX
  8
AB0CF1H
 62
     3
  6
CONTINUOUS
 10
-0.195094
 20
2.436461
  0
VERTEX
  8
AB0CF1H
 62
     3
  6
CONTINUOUS
 10
-0.220425
 20
2.392587
  0
SEQEND
  8
0
  0
POLYLINE
  8
AB0CF1H
 62
     3
  6
CONTINUOUS
 66
     1
 40
0.003000
 41
0.003000
  0
VERTEX
  8
AB0CF1H
 62
     3
  6
CONTINUOUS
 10
-0.195094
 20
2.657362
  0
VERTEX
  8
AB0CF1H
 62
     3
  6
CONTINUOUS
 10
-0.220425
 20
2.613488
  0
SEQEND
  8
0
  0
POLYLINE
  8
AB0CF1H
 62
     3
  6
CONTINUOUS
 66
     1
 40
0.003000
 41
0.003000
  0
VERTEX
  8
AB0CF1H
 62
     3
  6
CONTINUOUS
 10
-0.195094
 20
2.878264
  0
VERTEX
  8
AB0CF1H
 62
     3
  6
CONTINUOUS
 10
-0.220425
 20
2.834386
  0
SEQEND
  8
0
  0
POLYLINE
  8
AB0CF1H
 62
     3
  6
CONTINUOUS
 66
     1
 40
0.003000
 41
0.003000
  0
VERTEX
  8
AB0CF1H
 62
     3
  6
CONTINUOUS
 10
-0.217598
 20
1.344949
  0
VERTEX
  8
AB0CF1H
 62
     3
  6
CONTINUOUS
 10
-0.242933
 20
1.301075
  0
SEQEND
  8
0
  0
POLYLINE
  8
AB0CF1H
 62
     3
  6
CONTINUOUS
 66
     1
 40
0.003000
 41
0.003000
  0
VERTEX
  8
AB0CF1H
 62
     3
  6
CONTINUOUS
 10
-0.217598
 20
1.565850
  0
VERTEX
  8
AB0CF1H
 62
     3
  6
CONTINUOUS
 10
-0.242933
 20
1.521976
  0
SEQEND
  8
0
  0
POLYLINE
  8
AB0CF1H
 62
     3
  6
CONTINUOUS
 66
     1
 40
0.003000
 41
0.003000
  0
VERTEX
  8
AB0CF1H
 62
     3
  6
CONTINUOUS
 10
-0.217598
 20
1.786752
  0
VERTEX
  8
AB0CF1H
 62
     3
  6
CONTINUOUS
 10
-0.242933
 20
1.742878
  0
SEQEND
  8
0
  0
POLYLINE
  8
AB0CF1H
 62
     3
  6
CONTINUOUS
 66
     1
 40
0.003000
 41
0.003000
  0
VERTEX
  8
AB0CF1H
 62
     3
  6
CONTINUOUS
 10
-0.217598
 20
2.007654
  0
VERTEX
  8
AB0CF1H
 62
     3
  6
CONTINUOUS
 10
-0.242933
 20
1.963776
  0
SEQEND
  8
0
  0
POLYLINE
  8
AB0CF1H
 62
     3
  6
CONTINUOUS
 66
     1
 40
0.003000
 41
0.003000
  0
VERTEX
  8
AB0CF1H
 62
     3
  6
CONTINUOUS
 10
-0.217598
 20
2.228555
  0
VERTEX
  8
AB0CF1H
 62
     3
  6
CONTINUOUS
 10
-0.242933
 20
2.184677
  0
SEQEND
  8
0
  0
POLYLINE
  8
AB0CF1H
 62
     3
  6
CONTINUOUS
 66
     1
 40
0.003000
 41
0.003000
  0
VERTEX
  8
AB0CF1H
 62
     3
  6
CONTINUOUS
 10
-0.217598
 20
2.449457
  0
VERTEX
  8
AB0CF1H
 62
     3
  6
CONTINUOUS
 10
-0.242933
 20
2.405579
  0
SEQEND
  8
0
  0
POLYLINE
  8
AB0CF1H
 62
     3
  6
CONTINUOUS
 66
     1
 40
0.003000
 41
0.003000
  0
VERTEX
  8
AB0CF1H
 62
     3
  6
CONTINUOUS
 10
-0.217598
 20
2.670358
  0
VERTEX
  8
AB0CF1H
 62
     3
  6
CONTINUOUS
 10
-0.242933
 20
2.626480
  0
SEQEND
  8
0
  0
POLYLINE
  8
AB0CF1H
 62
     3
  6
CONTINUOUS
 66
     1
 40
0.003000
 41
0.003000
  0
VERTEX
  8
AB0CF1H
 62
     3
  6
CONTINUOUS
 10
-0.217598
 20
2.891260
  0
VERTEX
  8
AB0CF1H
 62
     3
  6
CONTINUOUS
 10
-0.242933
 20
2.847382
  0
SEQEND
  8
0
  0
POLYLINE
  8
AB0CF1H
 62
     3
  6
CONTINUOUS
 66
     1
 40
0.003000
 41
0.003000
  0
VERTEX
  8
AB0CF1H
 62
     3
  6
CONTINUOUS
 10
0.453858
 20
1.262748
  0
VERTEX
  8
AB0CF1H
 62
     3
  6
CONTINUOUS
 10
0.497732
 20
1.288079
  0
SEQEND
  8
0
  0
POLYLINE
  8
AB0CF1H
 62
     3
  6
CONTINUOUS
 66
     1
 40
0.003000
 41
0.003000
  0
VERTEX
  8
AB0CF1H
 62
     3
  6
CONTINUOUS
 10
0.453858
 20
1.483646
  0
VERTEX
  8
AB0CF1H
 62
     3
  6
CONTINUOUS
 10
0.497732
 20
1.508980
  0
SEQEND
  8
0
  0
POLYLINE
  8
AB0CF1H
 62
     3
  6
CONTINUOUS
 66
     1
 40
0.003000
 41
0.003000
  0
VERTEX
  8
AB0CF1H
 62
     3
  6
CONTINUOUS
 10
0.453858
 20
1.704547
  0
VERTEX
  8
AB0CF1H
 62
     3
  6
CONTINUOUS
 10
0.497732
 20
1.729882
  0
SEQEND
  8
0
  0
POLYLINE
  8
AB0CF1H
 62
     3
  6
CONTINUOUS
 66
     1
 40
0.003000
 41
0.003000
  0
VERTEX
  8
AB0CF1H
 62
     3
  6
CONTINUOUS
 10
0.453858
 20
1.925449
  0
VERTEX
  8
AB0CF1H
 62
     3
  6
CONTINUOUS
 10
0.497732
 20
1.950783
  0
SEQEND
  8
0
  0
POLYLINE
  8
AB0CF1H
 62
     3
  6
CONTINUOUS
 66
     1
 40
0.003000
 41
0.003000
  0
VERTEX
  8
AB0CF1H
 62
     3
  6
CONTINUOUS
 10
0.453858
 20
2.146350
  0
VERTEX
  8
AB0CF1H
 62
     3
  6
CONTINUOUS
 10
0.497732
 20
2.171685
  0
SEQEND
  8
0
  0
POLYLINE
  8
AB0CF1H
 62
     3
  6
CONTINUOUS
 66
     1
 40
0.003000
 41
0.003000
  0
VERTEX
  8
AB0CF1H
 62
     3
  6
CONTINUOUS
 10
0.453858
 20
2.367252
  0
VERTEX
  8
AB0CF1H
 62
     3
  6
CONTINUOUS
 10
0.497732
 20
2.392587
  0
SEQEND
  8
0
  0
POLYLINE
  8
AB0CF1H
 62
     3
  6
CONTINUOUS
 66
     1
 40
0.003000
 41
0.003000
  0
VERTEX
  8
AB0CF1H
 62
     3
  6
CONTINUOUS
 10
0.453858
 20
2.588154
  0
VERTEX
  8
AB0CF1H
 62
     3
  6
CONTINUOUS
 10
0.497732
 20
2.613488
  0
SEQEND
  8
0
  0
POLYLINE
  8
AB0CF1H
 62
     3
  6
CONTINUOUS
 66
     1
 40
0.003000
 41
0.003000
  0
VERTEX
  8
AB0CF1H
 62
     3
  6
CONTINUOUS
 10
0.453858
 20
2.809055
  0
VERTEX
  8
AB0CF1H
 62
     3
  6
CONTINUOUS
 10
0.497732
 20
2.834386
  0
SEQEND
  8
0
  0
POLYLINE
  8
AB0CF1H
 62
     3
  6
CONTINUOUS
 66
     1
 40
0.003000
 41
0.003000
  0
VERTEX
  8
AB0CF1H
 62
     3
  6
CONTINUOUS
 10
0.466850
 20
1.240240
  0
VERTEX
  8
AB0CF1H
 62
     3
  6
CONTINUOUS
 10
0.510728
 20
1.265575
  0
SEQEND
  8
0
  0
POLYLINE
  8
AB0CF1H
 62
     3
  6
CONTINUOUS
 66
     1
 40
0.003000
 41
0.003000
  0
VERTEX
  8
AB0CF1H
 62
     3
  6
CONTINUOUS
 10
0.466850
 20
1.461142
  0
VERTEX
  8
AB0CF1H
 62
     3
  6
CONTINUOUS
 10
0.510728
 20
1.486472
  0
SEQEND
  8
0
  0
POLYLINE
  8
AB0CF1H
 62
     3
  6
CONTINUOUS
 66
     1
 40
0.003000
 41
0.003000
  0
VERTEX
  8
AB0CF1H
 62
     3
  6
CONTINUOUS
 10
0.466850
 20
1.682043
  0
VERTEX
  8
AB0CF1H
 62
     3
  6
CONTINUOUS
 10
0.510728
 20
1.707374
  0
SEQEND
  8
0
  0
POLYLINE
  8
AB0CF1H
 62
     3
  6
CONTINUOUS
 66
     1
 40
0.003000
 41
0.003000
  0
VERTEX
  8
AB0CF1H
 62
     3
  6
CONTINUOUS
 10
0.466850
 20
1.902945
  0
VERTEX
  8
AB0CF1H
 62
     3
  6
CONTINUOUS
 10
0.510728
 20
1.928276
  0
SEQEND
  8
0
  0
POLYLINE
  8
AB0CF1H
 62
     3
  6
CONTINUOUS
 66
     1
 40
0.003000
 41
0.003000
  0
VERTEX
  8
AB0CF1H
 62
     3
  6
CONTINUOUS
 10
0.466850
 20
2.123846
  0
VERTEX
  8
AB0CF1H
 62
     3
  6
CONTINUOUS
 10
0.510728
 20
2.149177
  0
SEQEND
  8
0
  0
POLYLINE
  8
AB0CF1H
 62
     3
  6
CONTINUOUS
 66
     1
 40
0.003000
 41
0.003000
  0
VERTEX
  8
AB0CF1H
 62
     3
  6
CONTINUOUS
 10
0.466850
 20
2.344748
  0
VERTEX
  8
AB0CF1H
 62
     3
  6
CONTINUOUS
 10
0.510728
 20
2.370079
  0
SEQEND
  8
0
  0
POLYLINE
  8
AB0CF1H
 62
     3
  6
CONTINUOUS
 66
     1
 40
0.003000
 41
0.003000
  0
VERTEX
  8
AB0CF1H
 62
     3
  6
CONTINUOUS
 10
0.466850
 20
2.565650
  0
VERTEX
  8
AB0CF1H
 62
     3
  6
CONTINUOUS
 10
0.510728
 20
2.590980
  0
SEQEND
  8
0
  0
POLYLINE
  8
AB0CF1H
 62
     3
  6
CONTINUOUS
 66
     1
 40
0.003000
 41
0.003000
  0
VERTEX
  8
AB0CF1H
 62
     3
  6
CONTINUOUS
 10
0.466850
 20
2.786551
  0
VERTEX
  8
AB0CF1H
 62
     3
  6
CONTINUOUS
 10
0.510728
 20
2.811882
  0
SEQEND
  8
0
  0
POLYLINE
  8
AB0CF1H
 62
     3
  6
CONTINUOUS
 66
     1
 40
0.003000
 41
0.003000
  0
VERTEX
  8
AB0CF1H
 62
     3
  6
CONTINUOUS
 10
0.533236
 20
1.278567
  0
VERTEX
  8
AB0CF1H
 62
     3
  6
CONTINUOUS
 10
0.558567
 20
1.234689
  0
SEQEND
  8
0
  0
POLYLINE
  8
AB0CF1H
 62
     3
  6
CONTINUOUS
 66
     1
 40
0.003000
 41
0.003000
  0
VERTEX
  8
AB0CF1H
 62
     3
  6
CONTINUOUS
 10
0.533236
 20
1.499469
  0
VERTEX
  8
AB0CF1H
 62
     3
  6
CONTINUOUS
 10
0.558567
 20
1.455591
  0
SEQEND
  8
0
  0
POLYLINE
  8
AB0CF1H
 62
     3
  6
CONTINUOUS
 66
     1
 40
0.003000
 41
0.003000
  0
VERTEX
  8
AB0CF1H
 62
     3
  6
CONTINUOUS
 10
0.533236
 20
1.720370
  0
VERTEX
  8
AB0CF1H
 62
     3
  6
CONTINUOUS
 10
0.558567
 20
1.676492
  0
SEQEND
  8
0
  0
POLYLINE
  8
AB0CF1H
 62
     3
  6
CONTINUOUS
 66
     1
 40
0.003000
 41
0.003000
 70
     1
  0
VERTEX
  8
AB0CF1H
 62
     3
  6
CONTINUOUS
 10
0.580453
 20
3.050531
  0
VERTEX
  8
AB0CF1H
 62
     3
  6
CONTINUOUS
 10
0.570847
 20
3.086623
  0
VERTEX
  8
AB0CF1H
 62
     3
  6
CONTINUOUS
 10
0.546782
 20
3.108279
  0
VERTEX
  8
AB0CF1H
 62
     3
  6
CONTINUOUS
 10
0.515488
 20
3.115499
  0
VERTEX
  8
AB0CF1H
 62
     3
  6
CONTINUOUS
 10
0.484193
 20
3.108282
  0
VERTEX
  8
AB0CF1H
 62
     3
  6
CONTINUOUS
 10
0.460127
 20
3.086627
  0
VERTEX
  8
AB0CF1H
 62
     3
  6
CONTINUOUS
 10
0.450520
 20
3.050535
  0
VERTEX
  8
AB0CF1H
 62
     3
  6
CONTINUOUS
 10
0.460121
 20
3.014443
  0
VERTEX
  8
AB0CF1H
 62
     3
  6
CONTINUOUS
 10
0.484182
 20
2.992786
  0
VERTEX
  8
AB0CF1H
 62
     3
  6
CONTINUOUS
 10
0.515475
 20
2.985564
  0
VERTEX
  8
AB0CF1H
 62
     3
  6
CONTINUOUS
 10
0.546770
 20
2.992778
  0
VERTEX
  8
AB0CF1H
 62
     3
  6
CONTINUOUS
 10
0.570838
 20
3.014430
  0
VERTEX
  8
AB0CF1H
 62
     3
  6
CONTINUOUS
 10
0.580449
 20
3.050520
  0
VERTEX
  8
AB0CF1H
 62
     3
  6
CONTINUOUS
 10
0.580450
 20
3.050523
  0
VERTEX
  8
AB0CF1H
 62
     3
  6
CONTINUOUS
 10
0.580452
 20
3.050528
  0
SEQEND
  8
0
  0
POLYLINE
  8
AB0CF1H
 62
     3
  6
CONTINUOUS
 66
     1
 40
0.003000
 41
0.003000
 70
     1
  0
VERTEX
  8
AB0CF1H
 62
     3
  6
CONTINUOUS
 10
-0.173209
 20
3.050531
  0
VERTEX
  8
AB0CF1H
 62
     3
  6
CONTINUOUS
 10
-0.182814
 20
3.086623
  0
VERTEX
  8
AB0CF1H
 62
     3
  6
CONTINUOUS
 10
-0.206879
 20
3.108279
  0
VERTEX
  8
AB0CF1H
 62
     3
  6
CONTINUOUS
 10
-0.238174
 20
3.115499
  0
VERTEX
  8
AB0CF1H
 62
     3
  6
CONTINUOUS
 10
-0.269469
 20
3.108282
  0
VERTEX
  8
AB0CF1H
 62
     3
  6
CONTINUOUS
 10
-0.293534
 20
3.086627
  0
VERTEX
  8
AB0CF1H
 62
     3
  6
CONTINUOUS
 10
-0.303142
 20
3.050535
  0
VERTEX
  8
AB0CF1H
 62
     3
  6
CONTINUOUS
 10
-0.293541
 20
3.014443
  0
VERTEX
  8
AB0CF1H
 62
     3
  6
CONTINUOUS
 10
-0.269479
 20
2.992786
  0
VERTEX
  8
AB0CF1H
 62
     3
  6
CONTINUOUS
 10
-0.238186
 20
2.985564
  0
VERTEX
  8
AB0CF1H
 62
     3
  6
CONTINUOUS
 10
-0.206891
 20
2.992778
  0
VERTEX
  8
AB0CF1H
 62
     3
  6
CONTINUOUS
 10
-0.182823
 20
3.014430
  0
VERTEX
  8
AB0CF1H
 62
     3
  6
CONTINUOUS
 10
-0.173213
 20
3.050520
  0
VERTEX
  8
AB0CF1H
 62
     3
  6
CONTINUOUS
 10
-0.173212
 20
3.050523
  0
VERTEX
  8
AB0CF1H
 62
     3
  6
CONTINUOUS
 10
-0.173210
 20
3.050528
  0
SEQEND
  8
0
  0
POLYLINE
  8
AB0CF1H
 62
     3
  6
CONTINUOUS
 66
     1
 40
0.003000
 41
0.003000
  0
VERTEX
  8
AB0CF1H
 62
     3
  6
CONTINUOUS
 10
0.533236
 20
1.941272
  0
VERTEX
  8
AB0CF1H
 62
     3
  6
CONTINUOUS
 10
0.558567
 20
1.897394
  0
SEQEND
  8
0
  0
POLYLINE
  8
AB0CF1H
 62
     3
  6
CONTINUOUS
 66
     1
 40
0.003000
 41
0.003000
  0
VERTEX
  8
AB0CF1H
 62
     3
  6
CONTINUOUS
 10
0.533236
 20
2.162173
  0
VERTEX
  8
AB0CF1H
 62
     3
  6
CONTINUOUS
 10
0.558567
 20
2.118295
  0
SEQEND
  8
0
  0
POLYLINE
  8
AB0CF1H
 62
     3
  6
CONTINUOUS
 66
     1
 40
0.003000
 41
0.003000
  0
VERTEX
  8
AB0CF1H
 62
     3
  6
CONTINUOUS
 10
0.533236
 20
2.383075
  0
VERTEX
  8
AB0CF1H
 62
     3
  6
CONTINUOUS
 10
0.558567
 20
2.339197
  0
SEQEND
  8
0
  0
POLYLINE
  8
AB0CF1H
 62
     3
  6
CONTINUOUS
 66
     1
 40
0.003000
 41
0.003000
  0
VERTEX
  8
AB0CF1H
 62
     3
  6
CONTINUOUS
 10
0.533236
 20
2.603972
  0
VERTEX
  8
AB0CF1H
 62
     3
  6
CONTINUOUS
 10
0.558567
 20
2.560098
  0
SEQEND
  8
0
  0
POLYLINE
  8
AB0CF1H
 62
     3
  6
CONTINUOUS
 66
     1
 40
0.003000
 41
0.003000
  0
VERTEX
  8
AB0CF1H
 62
     3
  6
CONTINUOUS
 10
0.533236
 20
2.824874
  0
VERTEX
  8
AB0CF1H
 62
     3
  6
CONTINUOUS
 10
0.558567
 20
2.780996
  0
SEQEND
  8
0
  0
POLYLINE
  8
AB0CF1H
 62
     3
  6
CONTINUOUS
 66
     1
 40
0.003000
 41
0.003000
  0
VERTEX
  8
AB0CF1H
 62
     3
  6
CONTINUOUS
 10
0.510728
 20
1.265575
  0
VERTEX
  8
AB0CF1H
 62
     3
  6
CONTINUOUS
 10
0.536059
 20
1.221697
  0
SEQEND
  8
0
  0
POLYLINE
  8
AB0CF1H
 62
     3
  6
CONTINUOUS
 66
     1
 40
0.003000
 41
0.003000
  0
VERTEX
  8
AB0CF1H
 62
     3
  6
CONTINUOUS
 10
0.510728
 20
1.486472
  0
VERTEX
  8
AB0CF1H
 62
     3
  6
CONTINUOUS
 10
0.536059
 20
1.442598
  0
SEQEND
  8
0
  0
POLYLINE
  8
AB0CF1H
 62
     3
  6
CONTINUOUS
 66
     1
 40
0.003000
 41
0.003000
  0
VERTEX
  8
AB0CF1H
 62
     3
  6
CONTINUOUS
 10
0.510728
 20
1.707374
  0
VERTEX
  8
AB0CF1H
 62
     3
  6
CONTINUOUS
 10
0.536059
 20
1.663496
  0
SEQEND
  8
0
  0
POLYLINE
  8
AB0CF1H
 62
     3
  6
CONTINUOUS
 66
     1
 40
0.003000
 41
0.003000
  0
VERTEX
  8
AB0CF1H
 62
     3
  6
CONTINUOUS
 10
0.510728
 20
1.928276
  0
VERTEX
  8
AB0CF1H
 62
     3
  6
CONTINUOUS
 10
0.536059
 20
1.884398
  0
SEQEND
  8
0
  0
POLYLINE
  8
AB0CF1H
 62
     3
  6
CONTINUOUS
 66
     1
 40
0.003000
 41
0.003000
  0
VERTEX
  8
AB0CF1H
 62
     3
  6
CONTINUOUS
 10
0.510728
 20
2.149177
  0
VERTEX
  8
AB0CF1H
 62
     3
  6
CONTINUOUS
 10
0.536059
 20
2.105299
  0
SEQEND
  8
0
  0
POLYLINE
  8
AB0CF1H
 62
     3
  6
CONTINUOUS
 66
     1
 40
0.003000
 41
0.003000
  0
VERTEX
  8
AB0CF1H
 62
     3
  6
CONTINUOUS
 10
0.510728
 20
2.370079
  0
VERTEX
  8
AB0CF1H
 62
     3
  6
CONTINUOUS
 10
0.536059
 20
2.326201
  0
SEQEND
  8
0
  0
POLYLINE
  8
AB0CF1H
 62
     3
  6
CONTINUOUS
 66
     1
 40
0.003000
 41
0.003000
  0
VERTEX
  8
AB0CF1H
 62
     3
  6
CONTINUOUS
 10
0.510728
 20
2.590980
  0
VERTEX
  8
AB0CF1H
 62
     3
  6
CONTINUOUS
 10
0.536059
 20
2.547102
  0
SEQEND
  8
0
  0
POLYLINE
  8
AB0CF1H
 62
     3
  6
CONTINUOUS
 66
     1
 40
0.003000
 41
0.003000
  0
VERTEX
  8
AB0CF1H
 62
     3
  6
CONTINUOUS
 10
0.510728
 20
2.811882
  0
VERTEX
  8
AB0CF1H
 62
     3
  6
CONTINUOUS
 10
0.536059
 20
2.768004
  0
SEQEND
  8
0
  0
POLYLINE
  8
AB0CF1H
 62
     3
  6
CONTINUOUS
 66
     1
 40
0.003000
 41
0.003000
  0
VERTEX
  8
AB0CF1H
 62
     3
  6
CONTINUOUS
 10
0.520240
 20
1.301075
  0
VERTEX
  8
AB0CF1H
 62
     3
  6
CONTINUOUS
 10
0.564114
 20
1.326406
  0
SEQEND
  8
0
  0
POLYLINE
  8
AB0CF1H
 62
     3
  6
CONTINUOUS
 66
     1
 40
0.003000
 41
0.003000
  0
VERTEX
  8
AB0CF1H
 62
     3
  6
CONTINUOUS
 10
0.520240
 20
1.521976
  0
VERTEX
  8
AB0CF1H
 62
     3
  6
CONTINUOUS
 10
0.564114
 20
1.547307
  0
SEQEND
  8
0
  0
POLYLINE
  8
AB0CF1H
 62
     3
  6
CONTINUOUS
 66
     1
 40
0.003000
 41
0.003000
  0
VERTEX
  8
AB0CF1H
 62
     3
  6
CONTINUOUS
 10
0.520240
 20
1.742878
  0
VERTEX
  8
AB0CF1H
 62
     3
  6
CONTINUOUS
 10
0.564114
 20
1.768209
  0
SEQEND
  8
0
  0
POLYLINE
  8
AB0CF1H
 62
     3
  6
CONTINUOUS
 66
     1
 40
0.003000
 41
0.003000
  0
VERTEX
  8
AB0CF1H
 62
     3
  6
CONTINUOUS
 10
0.520240
 20
1.963776
  0
VERTEX
  8
AB0CF1H
 62
     3
  6
CONTINUOUS
 10
0.564114
 20
1.989110
  0
SEQEND
  8
0
  0
POLYLINE
  8
AB0CF1H
 62
     3
  6
CONTINUOUS
 66
     1
 40
0.003000
 41
0.003000
  0
VERTEX
  8
AB0CF1H
 62
     3
  6
CONTINUOUS
 10
0.520240
 20
2.184677
  0
VERTEX
  8
AB0CF1H
 62
     3
  6
CONTINUOUS
 10
0.564114
 20
2.210012
  0
SEQEND
  8
0
  0
POLYLINE
  8
AB0CF1H
 62
     3
  6
CONTINUOUS
 66
     1
 40
0.003000
 41
0.003000
  0
VERTEX
  8
AB0CF1H
 62
     3
  6
CONTINUOUS
 10
0.520240
 20
2.405579
  0
VERTEX
  8
AB0CF1H
 62
     3
  6
CONTINUOUS
 10
0.564114
 20
2.430909
  0
SEQEND
  8
0
  0
POLYLINE
  8
AB0CF1H
 62
     3
  6
CONTINUOUS
 66
     1
 40
0.003000
 41
0.003000
  0
VERTEX
  8
AB0CF1H
 62
     3
  6
CONTINUOUS
 10
0.520240
 20
2.626480
  0
VERTEX
  8
AB0CF1H
 62
     3
  6
CONTINUOUS
 10
0.564114
 20
2.651811
  0
SEQEND
  8
0
  0
POLYLINE
  8
AB0CF1H
 62
     3
  6
CONTINUOUS
 66
     1
 40
0.003000
 41
0.003000
  0
VERTEX
  8
AB0CF1H
 62
     3
  6
CONTINUOUS
 10
0.520240
 20
2.847382
  0
VERTEX
  8
AB0CF1H
 62
     3
  6
CONTINUOUS
 10
0.564114
 20
2.872713
  0
SEQEND
  8
0
  0
POLYLINE
  8
AB0CF1H
 62
     3
  6
CONTINUOUS
 66
     1
 40
0.003000
 41
0.003000
  0
VERTEX
  8
AB0CF1H
 62
     3
  6
CONTINUOUS
 10
0.533236
 20
1.278567
  0
VERTEX
  8
AB0CF1H
 62
     3
  6
CONTINUOUS
 10
0.577110
 20
1.303898
  0
SEQEND
  8
0
  0
POLYLINE
  8
AB0CF1H
 62
     3
  6
CONTINUOUS
 66
     1
 40
0.003000
 41
0.003000
  0
VERTEX
  8
AB0CF1H
 62
     3
  6
CONTINUOUS
 10
0.533236
 20
1.499469
  0
VERTEX
  8
AB0CF1H
 62
     3
  6
CONTINUOUS
 10
0.577110
 20
1.524799
  0
SEQEND
  8
0
  0
POLYLINE
  8
AB0CF1H
 62
     3
  6
CONTINUOUS
 66
     1
 40
0.003000
 41
0.003000
  0
VERTEX
  8
AB0CF1H
 62
     3
  6
CONTINUOUS
 10
0.533236
 20
1.720370
  0
VERTEX
  8
AB0CF1H
 62
     3
  6
CONTINUOUS
 10
0.577110
 20
1.745701
  0
SEQEND
  8
0
  0
POLYLINE
  8
AB0CF1H
 62
     3
  6
CONTINUOUS
 66
     1
 40
0.003000
 41
0.003000
  0
VERTEX
  8
AB0CF1H
 62
     3
  6
CONTINUOUS
 10
0.533236
 20
1.941272
  0
VERTEX
  8
AB0CF1H
 62
     3
  6
CONTINUOUS
 10
0.577110
 20
1.966602
  0
SEQEND
  8
0
  0
POLYLINE
  8
AB0CF1H
 62
     3
  6
CONTINUOUS
 66
     1
 40
0.003000
 41
0.003000
  0
VERTEX
  8
AB0CF1H
 62
     3
  6
CONTINUOUS
 10
0.533236
 20
2.162173
  0
VERTEX
  8
AB0CF1H
 62
     3
  6
CONTINUOUS
 10
0.577110
 20
2.187504
  0
SEQEND
  8
0
  0
POLYLINE
  8
AB0CF1H
 62
     3
  6
CONTINUOUS
 66
     1
 40
0.003000
 41
0.003000
  0
VERTEX
  8
AB0CF1H
 62
     3
  6
CONTINUOUS
 10
0.533236
 20
2.383075
  0
VERTEX
  8
AB0CF1H
 62
     3
  6
CONTINUOUS
 10
0.577110
 20
2.408406
  0
SEQEND
  8
0
  0
POLYLINE
  8
AB0CF1H
 62
     3
  6
CONTINUOUS
 66
     1
 40
0.003000
 41
0.003000
  0
VERTEX
  8
AB0CF1H
 62
     3
  6
CONTINUOUS
 10
0.533236
 20
2.603972
  0
VERTEX
  8
AB0CF1H
 62
     3
  6
CONTINUOUS
 10
0.577110
 20
2.629307
  0
SEQEND
  8
0
  0
POLYLINE
  8
AB0CF1H
 62
     3
  6
CONTINUOUS
 66
     1
 40
0.003000
 41
0.003000
  0
VERTEX
  8
AB0CF1H
 62
     3
  6
CONTINUOUS
 10
0.533236
 20
2.824874
  0
VERTEX
  8
AB0CF1H
 62
     3
  6
CONTINUOUS
 10
0.577110
 20
2.850209
  0
SEQEND
  8
0
  0
POLYLINE
  8
AB0CF1H
 62
     3
  6
CONTINUOUS
 66
     1
 40
0.003000
 41
0.003000
  0
VERTEX
  8
AB0CF1H
 62
     3
  6
CONTINUOUS
 10
0.472402
 20
1.331957
  0
VERTEX
  8
AB0CF1H
 62
     3
  6
CONTINUOUS
 10
0.497732
 20
1.288079
  0
SEQEND
  8
0
  0
POLYLINE
  8
AB0CF1H
 62
     3
  6
CONTINUOUS
 66
     1
 40
0.003000
 41
0.003000
  0
VERTEX
  8
AB0CF1H
 62
     3
  6
CONTINUOUS
 10
0.472402
 20
1.552858
  0
VERTEX
  8
AB0CF1H
 62
     3
  6
CONTINUOUS
 10
0.497732
 20
1.508980
  0
SEQEND
  8
0
  0
POLYLINE
  8
AB0CF1H
 62
     3
  6
CONTINUOUS
 66
     1
 40
0.003000
 41
0.003000
  0
VERTEX
  8
AB0CF1H
 62
     3
  6
CONTINUOUS
 10
0.472402
 20
1.773760
  0
VERTEX
  8
AB0CF1H
 62
     3
  6
CONTINUOUS
 10
0.497732
 20
1.729882
  0
SEQEND
  8
0
  0
POLYLINE
  8
AB0CF1H
 62
     3
  6
CONTINUOUS
 66
     1
 40
0.003000
 41
0.003000
  0
VERTEX
  8
AB0CF1H
 62
     3
  6
CONTINUOUS
 10
0.472402
 20
1.994657
  0
VERTEX
  8
AB0CF1H
 62
     3
  6
CONTINUOUS
 10
0.497732
 20
1.950783
  0
SEQEND
  8
0
  0
POLYLINE
  8
AB0CF1H
 62
     3
  6
CONTINUOUS
 66
     1
 40
0.003000
 41
0.003000
  0
VERTEX
  8
AB0CF1H
 62
     3
  6
CONTINUOUS
 10
0.472402
 20
2.215559
  0
VERTEX
  8
AB0CF1H
 62
     3
  6
CONTINUOUS
 10
0.497732
 20
2.171685
  0
SEQEND
  8
0
  0
POLYLINE
  8
AB0CF1H
 62
     3
  6
CONTINUOUS
 66
     1
 40
0.003000
 41
0.003000
  0
VERTEX
  8
AB0CF1H
 62
     3
  6
CONTINUOUS
 10
0.472402
 20
2.436461
  0
VERTEX
  8
AB0CF1H
 62
     3
  6
CONTINUOUS
 10
0.497732
 20
2.392587
  0
SEQEND
  8
0
  0
POLYLINE
  8
AB0CF1H
 62
     3
  6
CONTINUOUS
 66
     1
 40
0.003000
 41
0.003000
  0
VERTEX
  8
AB0CF1H
 62
     3
  6
CONTINUOUS
 10
0.472402
 20
2.657362
  0
VERTEX
  8
AB0CF1H
 62
     3
  6
CONTINUOUS
 10
0.497732
 20
2.613488
  0
SEQEND
  8
0
  0
POLYLINE
  8
AB0CF1H
 62
     3
  6
CONTINUOUS
 66
     1
 40
0.003000
 41
0.003000
  0
VERTEX
  8
AB0CF1H
 62
     3
  6
CONTINUOUS
 10
0.472402
 20
2.878264
  0
VERTEX
  8
AB0CF1H
 62
     3
  6
CONTINUOUS
 10
0.497732
 20
2.834386
  0
SEQEND
  8
0
  0
POLYLINE
  8
AB0CF1H
 62
     3
  6
CONTINUOUS
 66
     1
 40
0.003000
 41
0.003000
  0
VERTEX
  8
AB0CF1H
 62
     3
  6
CONTINUOUS
 10
0.494909
 20
1.344949
  0
VERTEX
  8
AB0CF1H
 62
     3
  6
CONTINUOUS
 10
0.520240
 20
1.301075
  0
SEQEND
  8
0
  0
POLYLINE
  8
AB0CF1H
 62
     3
  6
CONTINUOUS
 66
     1
 40
0.003000
 41
0.003000
  0
VERTEX
  8
AB0CF1H
 62
     3
  6
CONTINUOUS
 10
0.494909
 20
1.565850
  0
VERTEX
  8
AB0CF1H
 62
     3
  6
CONTINUOUS
 10
0.520240
 20
1.521976
  0
SEQEND
  8
0
  0
POLYLINE
  8
AB0CF1H
 62
     3
  6
CONTINUOUS
 66
     1
 40
0.003000
 41
0.003000
  0
VERTEX
  8
AB0CF1H
 62
     3
  6
CONTINUOUS
 10
0.494909
 20
1.786752
  0
VERTEX
  8
AB0CF1H
 62
     3
  6
CONTINUOUS
 10
0.520240
 20
1.742878
  0
SEQEND
  8
0
  0
POLYLINE
  8
AB0CF1H
 62
     3
  6
CONTINUOUS
 66
     1
 40
0.003000
 41
0.003000
  0
VERTEX
  8
AB0CF1H
 62
     3
  6
CONTINUOUS
 10
0.494909
 20
2.007654
  0
VERTEX
  8
AB0CF1H
 62
     3
  6
CONTINUOUS
 10
0.520240
 20
1.963776
  0
SEQEND
  8
0
  0
POLYLINE
  8
AB0CF1H
 62
     3
  6
CONTINUOUS
 66
     1
 40
0.003000
 41
0.003000
  0
VERTEX
  8
AB0CF1H
 62
     3
  6
CONTINUOUS
 10
0.494909
 20
2.228555
  0
VERTEX
  8
AB0CF1H
 62
     3
  6
CONTINUOUS
 10
0.520240
 20
2.184677
  0
SEQEND
  8
0
  0
POLYLINE
  8
AB0CF1H
 62
     3
  6
CONTINUOUS
 66
     1
 40
0.003000
 41
0.003000
  0
VERTEX
  8
AB0CF1H
 62
     3
  6
CONTINUOUS
 10
0.494909
 20
2.449457
  0
VERTEX
  8
AB0CF1H
 62
     3
  6
CONTINUOUS
 10
0.520240
 20
2.405579
  0
SEQEND
  8
0
  0
POLYLINE
  8
AB0CF1H
 62
     3
  6
CONTINUOUS
 66
     1
 40
0.003000
 41
0.003000
  0
VERTEX
  8
AB0CF1H
 62
     3
  6
CONTINUOUS
 10
0.494909
 20
2.670358
  0
VERTEX
  8
AB0CF1H
 62
     3
  6
CONTINUOUS
 10
0.520240
 20
2.626480
  0
SEQEND
  8
0
  0
POLYLINE
  8
AB0CF1H
 62
     3
  6
CONTINUOUS
 66
     1
 40
0.003000
 41
0.003000
  0
VERTEX
  8
AB0CF1H
 62
     3
  6
CONTINUOUS
 10
0.494909
 20
2.891260
  0
VERTEX
  8
AB0CF1H
 62
     3
  6
CONTINUOUS
 10
0.520240
 20
2.847382
  0
SEQEND
  8
0
  0
POLYLINE
  8
AB0CF1H
 62
     3
  6
CONTINUOUS
 66
     1
 40
0.003000
 41
0.003000
  0
VERTEX
  8
AB0CF1H
 62
     3
  6
CONTINUOUS
 10
0.494909
 20
3.112157
  0
VERTEX
  8
AB0CF1H
 62
     3
  6
CONTINUOUS
 10
0.520240
 20
3.068283
  0
SEQEND
  8
0
  0
POLYLINE
  8
AB0CF1H
 62
     3
  6
CONTINUOUS
 66
     1
 40
0.003000
 41
0.003000
  0
VERTEX
  8
AB0CF1H
 62
     3
  6
CONTINUOUS
 10
0.472402
 20
3.099165
  0
VERTEX
  8
AB0CF1H
 62
     3
  6
CONTINUOUS
 10
0.497732
 20
3.055287
  0
SEQEND
  8
0
  0
POLYLINE
  8
AB0CF1H
 62
     3
  6
CONTINUOUS
 66
     1
 40
0.003000
 41
0.003000
  0
VERTEX
  8
AB0CF1H
 62
     3
  6
CONTINUOUS
 10
0.533236
 20
3.045776
  0
VERTEX
  8
AB0CF1H
 62
     3
  6
CONTINUOUS
 10
0.577110
 20
3.071106
  0
SEQEND
  8
0
  0
POLYLINE
  8
AB0CF1H
 62
     3
  6
CONTINUOUS
 66
     1
 40
0.003000
 41
0.003000
  0
VERTEX
  8
AB0CF1H
 62
     3
  6
CONTINUOUS
 10
0.520240
 20
3.068283
  0
VERTEX
  8
AB0CF1H
 62
     3
  6
CONTINUOUS
 10
0.564114
 20
3.093614
  0
SEQEND
  8
0
  0
POLYLINE
  8
AB0CF1H
 62
     3
  6
CONTINUOUS
 66
     1
 40
0.003000
 41
0.003000
  0
VERTEX
  8
AB0CF1H
 62
     3
  6
CONTINUOUS
 10
0.510728
 20
3.032783
  0
VERTEX
  8
AB0CF1H
 62
     3
  6
CONTINUOUS
 10
0.536059
 20
2.988906
  0
SEQEND
  8
0
  0
POLYLINE
  8
AB0CF1H
 62
     3
  6
CONTINUOUS
 66
     1
 40
0.003000
 41
0.003000
  0
VERTEX
  8
AB0CF1H
 62
     3
  6
CONTINUOUS
 10
0.533236
 20
3.045776
  0
VERTEX
  8
AB0CF1H
 62
     3
  6
CONTINUOUS
 10
0.558567
 20
3.001898
  0
SEQEND
  8
0
  0
POLYLINE
  8
AB0CF1H
 62
     3
  6
CONTINUOUS
 66
     1
 40
0.003000
 41
0.003000
  0
VERTEX
  8
AB0CF1H
 62
     3
  6
CONTINUOUS
 10
0.466850
 20
3.007449
  0
VERTEX
  8
AB0CF1H
 62
     3
  6
CONTINUOUS
 10
0.510728
 20
3.032783
  0
SEQEND
  8
0
  0
POLYLINE
  8
AB0CF1H
 62
     3
  6
CONTINUOUS
 66
     1
 40
0.003000
 41
0.003000
  0
VERTEX
  8
AB0CF1H
 62
     3
  6
CONTINUOUS
 10
0.453858
 20
3.029957
  0
VERTEX
  8
AB0CF1H
 62
     3
  6
CONTINUOUS
 10
0.497732
 20
3.055287
  0
SEQEND
  8
0
  0
POLYLINE
  8
AB0CF1H
 62
     3
  6
CONTINUOUS
 66
     1
 40
0.003000
 41
0.003000
  0
VERTEX
  8
AB0CF1H
 62
     3
  6
CONTINUOUS
 10
-0.217598
 20
3.112157
  0
VERTEX
  8
AB0CF1H
 62
     3
  6
CONTINUOUS
 10
-0.242933
 20
3.068283
  0
SEQEND
  8
0
  0
POLYLINE
  8
AB0CF1H
 62
     3
  6
CONTINUOUS
 66
     1
 40
0.003000
 41
0.003000
  0
VERTEX
  8
AB0CF1H
 62
     3
  6
CONTINUOUS
 10
-0.195094
 20
3.099165
  0
VERTEX
  8
AB0CF1H
 62
     3
  6
CONTINUOUS
 10
-0.220425
 20
3.055287
  0
SEQEND
  8
0
  0
POLYLINE
  8
AB0CF1H
 62
     3
  6
CONTINUOUS
 66
     1
 40
0.003000
 41
0.003000
  0
VERTEX
  8
AB0CF1H
 62
     3
  6
CONTINUOUS
 10
-0.255925
 20
3.045776
  0
VERTEX
  8
AB0CF1H
 62
     3
  6
CONTINUOUS
 10
-0.299803
 20
3.071106
  0
SEQEND
  8
0
  0
POLYLINE
  8
AB0CF1H
 62
     3
  6
CONTINUOUS
 66
     1
 40
0.003000
 41
0.003000
  0
VERTEX
  8
AB0CF1H
 62
     3
  6
CONTINUOUS
 10
-0.242933
 20
3.068283
  0
VERTEX
  8
AB0CF1H
 62
     3
  6
CONTINUOUS
 10
-0.286807
 20
3.093614
  0
SEQEND
  8
0
  0
POLYLINE
  8
AB0CF1H
 62
     3
  6
CONTINUOUS
 66
     1
 40
0.003000
 41
0.003000
  0
VERTEX
  8
AB0CF1H
 62
     3
  6
CONTINUOUS
 10
-0.233417
 20
3.032783
  0
VERTEX
  8
AB0CF1H
 62
     3
  6
CONTINUOUS
 10
-0.258752
 20
2.988906
  0
SEQEND
  8
0
  0
POLYLINE
  8
AB0CF1H
 62
     3
  6
CONTINUOUS
 66
     1
 40
0.003000
 41
0.003000
  0
VERTEX
  8
AB0CF1H
 62
     3
  6
CONTINUOUS
 10
-0.255925
 20
3.045776
  0
VERTEX
  8
AB0CF1H
 62
     3
  6
CONTINUOUS
 10
-0.281256
 20
3.001898
  0
SEQEND
  8
0
  0
POLYLINE
  8
AB0CF1H
 62
     3
  6
CONTINUOUS
 66
     1
 40
0.003000
 41
0.003000
  0
VERTEX
  8
AB0CF1H
 62
     3
  6
CONTINUOUS
 10
-0.189543
 20
3.007449
  0
VERTEX
  8
AB0CF1H
 62
     3
  6
CONTINUOUS
 10
-0.233417
 20
3.032783
  0
SEQEND
  8
0
  0
POLYLINE
  8
AB0CF1H
 62
     3
  6
CONTINUOUS
 66
     1
 40
0.003000
 41
0.003000
  0
VERTEX
  8
AB0CF1H
 62
     3
  6
CONTINUOUS
 10
-0.176547
 20
3.029957
  0
VERTEX
  8
AB0CF1H
 62
     3
  6
CONTINUOUS
 10
-0.220425
 20
3.055287
  0
SEQEND
  8
0
  0
TEXT
  8
AB0CF1H
 10
3.721799
 20
1.209256
 40
0.083603
  1
-
 41
1.000000
  7
SN0
 71
     0
 72
     5
 11
3.755999
 21
1.209256
  0
TEXT
  8
AB0CF1H
 10
3.716598
 20
1.768004
 40
0.083603
  1
+
 41
1.000000
  7
SN0
 71
     0
 72
     5
 11
3.770144
 21
1.768004
  0
TEXT
  8
AB0CF1H
 10
2.786217
 20
1.209256
 40
0.083603
  1
-
 41
1.000000
  7
SN0
 71
     0
 72
     5
 11
2.820416
 21
1.209256
  0
TEXT
  8
AB0CF1H
 10
2.781020
 20
1.547102
 40
0.083603
  1
+
 41
1.000000
  7
SN0
 71
     0
 72
     5
 11
2.834565
 21
1.547102
  0
TEXT
  8
AB0CF1H
 10
-2.858453
 20
2.196815
 40
0.083603
  1
+
 41
1.000000
  7
SN0
 71
     0
 72
     5
 11
-2.804907
 21
2.196815
  0
TEXT
  8
AB0CF1H
 10
-3.051882
 20
1.565039
 40
0.083603
  1
(SSR)
 41
1.000000
  7
SN0
 71
     0
 72
     5
 11
-2.809373
 21
1.565039
  0
TEXT
  8
AB0CF1H
 10
-3.051882
 20
1.694980
 40
0.083603
  1
(mA)
 41
1.000000
  7
SN0
 71
     0
 72
     5
 11
-2.832519
 21
1.694980
  0
TEXT
  8
AB0CF1H
 10
-2.854295
 20
1.871961
 40
0.083603
  1
-
 41
1.000000
  7
SN0
 71
     0
 72
     5
 11
-2.820095
 21
1.871961
  0
TEXT
  8
AB0CF1H
 10
-3.052587
 20
2.029839
 40
0.083603
  1
C1
 41
1.000000
  7
SN0
 71
     0
 72
     5
 11
-2.924423
 21
2.029839
  0
POLYLINE
  8
AB0CF1H
 62
     3
  6
CONTINUOUS
 66
     1
 40
0.003000
 41
0.003000
  0
VERTEX
  8
AB0CF1H
 62
     3
  6
CONTINUOUS
 10
-2.953961
 20
2.114953
  0
VERTEX
  8
AB0CF1H
 62
     3
  6
CONTINUOUS
 10
-2.953961
 20
2.166929
  0
SEQEND
  8
0
  0
POLYLINE
  8
AB0CF1H
 62
     3
  6
CONTINUOUS
 66
     1
 40
0.003000
 41
0.003000
  0
VERTEX
  8
AB0CF1H
 62
     3
  6
CONTINUOUS
 10
-2.953961
 20
1.946028
  0
VERTEX
  8
AB0CF1H
 62
     3
  6
CONTINUOUS
 10
-2.953961
 20
1.998004
  0
SEQEND
  8
0
  0
POLYLINE
  8
AB0CF1H
 62
     3
  6
CONTINUOUS
 66
     1
 40
0.003000
 41
0.003000
  0
VERTEX
  8
AB0CF1H
 62
     3
  6
CONTINUOUS
 10
-2.953961
 20
1.946028
  0
VERTEX
  8
AB0CF1H
 62
     3
  6
CONTINUOUS
 10
-2.772043
 20
1.946028
  0
SEQEND
  8
0
  0
POLYLINE
  8
AB0CF1H
 62
     3
  6
CONTINUOUS
 66
     1
 40
0.003000
 41
0.003000
  0
VERTEX
  8
AB0CF1H
 62
     3
  6
CONTINUOUS
 10
-2.953961
 20
2.166929
  0
VERTEX
  8
AB0CF1H
 62
     3
  6
CONTINUOUS
 10
-2.772043
 20
2.166929
  0
SEQEND
  8
0
  0
POLYLINE
  8
AB0CF1H
 62
     1
  6
CONTINUOUS
 66
     1
 40
0.003000
 41
0.003000
  0
VERTEX
  8
AB0CF1H
 62
     1
  6
CONTINUOUS
 10
-2.484409
 20
1.585453
  0
VERTEX
  8
AB0CF1H
 62
     1
  6
CONTINUOUS
 10
-2.772043
 20
1.545583
  0
SEQEND
  8
0
  0
POLYLINE
  8
AB0CF1H
 62
     1
  6
CONTINUOUS
 66
     1
 40
0.003000
 41
0.003000
  0
VERTEX
  8
AB0CF1H
 62
     1
  6
CONTINUOUS
 10
-2.432079
 20
1.605803
  0
VERTEX
  8
AB0CF1H
 62
     1
  6
CONTINUOUS
 10
-2.484409
 20
1.585453
  0
SEQEND
  8
0
  0
POLYLINE
  8
AB0CF1H
 62
     1
  6
CONTINUOUS
 66
     1
 40
0.003000
 41
0.003000
  0
VERTEX
  8
AB0CF1H
 62
     1
  6
CONTINUOUS
 10
-2.434988
 20
1.698835
  0
VERTEX
  8
AB0CF1H
 62
     1
  6
CONTINUOUS
 10
-2.432079
 20
1.605803
  0
SEQEND
  8
0
  0
POLYLINE
  8
AB0CF1H
 62
     1
  6
CONTINUOUS
 66
     1
 40
0.003000
 41
0.003000
  0
VERTEX
  8
AB0CF1H
 62
     1
  6
CONTINUOUS
 10
-2.461154
 20
1.765701
  0
VERTEX
  8
AB0CF1H
 62
     1
  6
CONTINUOUS
 10
-2.434988
 20
1.698835
  0
SEQEND
  8
0
  0
POLYLINE
  8
AB0CF1H
 62
     1
  6
CONTINUOUS
 66
     1
 40
0.003000
 41
0.003000
  0
VERTEX
  8
AB0CF1H
 62
     1
  6
CONTINUOUS
 10
-2.411728
 20
1.881988
  0
VERTEX
  8
AB0CF1H
 62
     1
  6
CONTINUOUS
 10
-2.461154
 20
1.765701
  0
SEQEND
  8
0
  0
POLYLINE
  8
AB0CF1H
 62
     1
  6
CONTINUOUS
 66
     1
 40
0.003000
 41
0.003000
  0
VERTEX
  8
AB0CF1H
 62
     1
  6
CONTINUOUS
 10
-2.394287
 20
1.992465
  0
VERTEX
  8
AB0CF1H
 62
     1
  6
CONTINUOUS
 10
-2.411728
 20
1.881988
  0
SEQEND
  8
0
  0
POLYLINE
  8
AB0CF1H
 62
     1
  6
CONTINUOUS
 66
     1
 40
0.003000
 41
0.003000
  0
VERTEX
  8
AB0CF1H
 62
     1
  6
CONTINUOUS
 10
-2.423358
 20
2.134917
  0
VERTEX
  8
AB0CF1H
 62
     1
  6
CONTINUOUS
 10
-2.394287
 20
1.992465
  0
SEQEND
  8
0
  0
POLYLINE
  8
AB0CF1H
 62
     1
  6
CONTINUOUS
 66
     1
 40
0.003000
 41
0.003000
  0
VERTEX
  8
AB0CF1H
 62
     1
  6
CONTINUOUS
 10
-2.408823
 20
2.297724
  0
VERTEX
  8
AB0CF1H
 62
     1
  6
CONTINUOUS
 10
-2.423358
 20
2.134917
  0
SEQEND
  8
0
  0
POLYLINE
  8
AB0CF1H
 62
     1
  6
CONTINUOUS
 66
     1
 40
0.003000
 41
0.003000
  0
VERTEX
  8
AB0CF1H
 62
     1
  6
CONTINUOUS
 10
-2.414638
 20
2.440177
  0
VERTEX
  8
AB0CF1H
 62
     1
  6
CONTINUOUS
 10
-2.408823
 20
2.297724
  0
SEQEND
  8
0
  0
POLYLINE
  8
AB0CF1H
 62
     1
  6
CONTINUOUS
 66
     1
 40
0.003000
 41
0.003000
  0
VERTEX
  8
AB0CF1H
 62
     1
  6
CONTINUOUS
 10
-2.496039
 20
2.448898
  0
VERTEX
  8
AB0CF1H
 62
     1
  6
CONTINUOUS
 10
-2.414638
 20
2.440177
  0
SEQEND
  8
0
  0
POLYLINE
  8
AB0CF1H
 62
     3
  6
CONTINUOUS
 66
     1
 40
0.003000
 41
0.003000
  0
VERTEX
  8
AB0CF1H
 62
     3
  6
CONTINUOUS
 10
-2.772043
 20
1.545583
  0
VERTEX
  8
AB0CF1H
 62
     3
  6
CONTINUOUS
 10
-2.772043
 20
2.546736
  0
SEQEND
  8
0
  0
POLYLINE
  8
AB0CF1H
 62
     3
  6
CONTINUOUS
 66
     1
 40
0.003000
 41
0.003000
  0
VERTEX
  8
AB0CF1H
 62
     3
  6
CONTINUOUS
 10
-2.460181
 20
2.445055
  0
VERTEX
  8
AB0CF1H
 62
     3
  6
CONTINUOUS
 10
-2.460181
 20
1.594874
  0
SEQEND
  8
0
  0
TEXT
  8
AB0CF1H
 10
-2.559587
 20
1.677047
 40
0.083603
  1
7
 41
1.000000
  7
SN0
 71
     0
 72
     5
 11
-2.506041
 21
1.677047
  0
TEXT
  8
AB0CF1H
 10
-2.559587
 20
1.897949
 40
0.083603
  1
6
 41
1.000000
  7
SN0
 71
     0
 72
     5
 11
-2.506041
 21
1.897949
  0
TEXT
  8
AB0CF1H
 10
-2.559587
 20
2.118850
 40
0.083603
  1
5
 41
1.000000
  7
SN0
 71
     0
 72
     5
 11
-2.506041
 21
2.118850
  0
TEXT
  8
AB0CF1H
 10
-2.559587
 20
2.339752
 40
0.083603
  1
4
 41
1.000000
  7
SN0
 71
     0
 72
     5
 11
-2.506041
 21
2.339752
  0
POLYLINE
  8
AB0CF1H
 62
     1
  6
CONTINUOUS
 66
     1
 40
0.003000
 41
0.003000
  0
VERTEX
  8
AB0CF1H
 62
     1
  6
CONTINUOUS
 10
-2.632677
 20
2.501228
  0
VERTEX
  8
AB0CF1H
 62
     1
  6
CONTINUOUS
 10
-2.496039
 20
2.448898
  0
SEQEND
  8
0
  0
POLYLINE
  8
AB0CF1H
 62
     1
  6
CONTINUOUS
 66
     1
 40
0.003000
 41
0.003000
  0
VERTEX
  8
AB0CF1H
 62
     1
  6
CONTINUOUS
 10
-2.772043
 20
2.546736
  0
VERTEX
  8
AB0CF1H
 62
     1
  6
CONTINUOUS
 10
-2.632677
 20
2.501228
  0
SEQEND
  8
0
  0
POLYLINE
  8
AB0CF1H
 62
     3
  6
CONTINUOUS
 66
     1
 40
0.003000
 41
0.003000
 70
     1
  0
VERTEX
  8
AB0CF1H
 62
     3
  6
CONTINUOUS
 10
-2.655094
 20
2.452799
  0
VERTEX
  8
AB0CF1H
 62
     3
  6
CONTINUOUS
 10
-2.691186
 20
2.443193
  0
VERTEX
  8
AB0CF1H
 62
     3
  6
CONTINUOUS
 10
-2.712842
 20
2.419129
  0
VERTEX
  8
AB0CF1H
 62
     3
  6
CONTINUOUS
 10
-2.720062
 20
2.387834
  0
VERTEX
  8
AB0CF1H
 62
     3
  6
CONTINUOUS
 10
-2.712845
 20
2.356539
  0
VERTEX
  8
AB0CF1H
 62
     3
  6
CONTINUOUS
 10
-2.691190
 20
2.332474
  0
VERTEX
  8
AB0CF1H
 62
     3
  6
CONTINUOUS
 10
-2.655098
 20
2.322866
  0
VERTEX
  8
AB0CF1H
 62
     3
  6
CONTINUOUS
 10
-2.619006
 20
2.332467
  0
VERTEX
  8
AB0CF1H
 62
     3
  6
CONTINUOUS
 10
-2.597349
 20
2.356529
  0
VERTEX
  8
AB0CF1H
 62
     3
  6
CONTINUOUS
 10
-2.590127
 20
2.387822
  0
VERTEX
  8
AB0CF1H
 62
     3
  6
CONTINUOUS
 10
-2.597341
 20
2.419117
  0
VERTEX
  8
AB0CF1H
 62
     3
  6
CONTINUOUS
 10
-2.618993
 20
2.443185
  0
VERTEX
  8
AB0CF1H
 62
     3
  6
CONTINUOUS
 10
-2.655083
 20
2.452795
  0
VERTEX
  8
AB0CF1H
 62
     3
  6
CONTINUOUS
 10
-2.655086
 20
2.452796
  0
VERTEX
  8
AB0CF1H
 62
     3
  6
CONTINUOUS
 10
-2.655091
 20
2.452798
  0
SEQEND
  8
0
  0
POLYLINE
  8
AB0CF1H
 62
     3
  6
CONTINUOUS
 66
     1
 40
0.003000
 41
0.003000
 70
     1
  0
VERTEX
  8
AB0CF1H
 62
     3
  6
CONTINUOUS
 10
-2.655094
 20
1.790094
  0
VERTEX
  8
AB0CF1H
 62
     3
  6
CONTINUOUS
 10
-2.691186
 20
1.780489
  0
VERTEX
  8
AB0CF1H
 62
     3
  6
CONTINUOUS
 10
-2.712842
 20
1.756424
  0
VERTEX
  8
AB0CF1H
 62
     3
  6
CONTINUOUS
 10
-2.720062
 20
1.725129
  0
VERTEX
  8
AB0CF1H
 62
     3
  6
CONTINUOUS
 10
-2.712845
 20
1.693835
  0
VERTEX
  8
AB0CF1H
 62
     3
  6
CONTINUOUS
 10
-2.691190
 20
1.669769
  0
VERTEX
  8
AB0CF1H
 62
     3
  6
CONTINUOUS
 10
-2.655098
 20
1.660161
  0
VERTEX
  8
AB0CF1H
 62
     3
  6
CONTINUOUS
 10
-2.619006
 20
1.669762
  0
VERTEX
  8
AB0CF1H
 62
     3
  6
CONTINUOUS
 10
-2.597349
 20
1.693824
  0
VERTEX
  8
AB0CF1H
 62
     3
  6
CONTINUOUS
 10
-2.590127
 20
1.725117
  0
VERTEX
  8
AB0CF1H
 62
     3
  6
CONTINUOUS
 10
-2.597341
 20
1.756412
  0
VERTEX
  8
AB0CF1H
 62
     3
  6
CONTINUOUS
 10
-2.618993
 20
1.780480
  0
VERTEX
  8
AB0CF1H
 62
     3
  6
CONTINUOUS
 10
-2.655083
 20
1.790091
  0
VERTEX
  8
AB0CF1H
 62
     3
  6
CONTINUOUS
 10
-2.655086
 20
1.790092
  0
VERTEX
  8
AB0CF1H
 62
     3
  6
CONTINUOUS
 10
-2.655091
 20
1.790093
  0
SEQEND
  8
0
  0
POLYLINE
  8
AB0CF1H
 62
     3
  6
CONTINUOUS
 66
     1
 40
0.003000
 41
0.003000
 70
     1
  0
VERTEX
  8
AB0CF1H
 62
     3
  6
CONTINUOUS
 10
-2.655094
 20
2.231898
  0
VERTEX
  8
AB0CF1H
 62
     3
  6
CONTINUOUS
 10
-2.691186
 20
2.222292
  0
VERTEX
  8
AB0CF1H
 62
     3
  6
CONTINUOUS
 10
-2.712842
 20
2.198227
  0
VERTEX
  8
AB0CF1H
 62
     3
  6
CONTINUOUS
 10
-2.720062
 20
2.166933
  0
VERTEX
  8
AB0CF1H
 62
     3
  6
CONTINUOUS
 10
-2.712845
 20
2.135638
  0
VERTEX
  8
AB0CF1H
 62
     3
  6
CONTINUOUS
 10
-2.691190
 20
2.111572
  0
VERTEX
  8
AB0CF1H
 62
     3
  6
CONTINUOUS
 10
-2.655098
 20
2.101965
  0
VERTEX
  8
AB0CF1H
 62
     3
  6
CONTINUOUS
 10
-2.619006
 20
2.111565
  0
VERTEX
  8
AB0CF1H
 62
     3
  6
CONTINUOUS
 10
-2.597349
 20
2.135627
  0
VERTEX
  8
AB0CF1H
 62
     3
  6
CONTINUOUS
 10
-2.590127
 20
2.166920
  0
VERTEX
  8
AB0CF1H
 62
     3
  6
CONTINUOUS
 10
-2.597341
 20
2.198215
  0
VERTEX
  8
AB0CF1H
 62
     3
  6
CONTINUOUS
 10
-2.618993
 20
2.222283
  0
VERTEX
  8
AB0CF1H
 62
     3
  6
CONTINUOUS
 10
-2.655083
 20
2.231894
  0
VERTEX
  8
AB0CF1H
 62
     3
  6
CONTINUOUS
 10
-2.655086
 20
2.231895
  0
VERTEX
  8
AB0CF1H
 62
     3
  6
CONTINUOUS
 10
-2.655091
 20
2.231897
  0
SEQEND
  8
0
  0
POLYLINE
  8
AB0CF1H
 62
     3
  6
CONTINUOUS
 66
     1
 40
0.003000
 41
0.003000
 70
     1
  0
VERTEX
  8
AB0CF1H
 62
     3
  6
CONTINUOUS
 10
-2.655094
 20
2.010996
  0
VERTEX
  8
AB0CF1H
 62
     3
  6
CONTINUOUS
 10
-2.691186
 20
2.001390
  0
VERTEX
  8
AB0CF1H
 62
     3
  6
CONTINUOUS
 10
-2.712842
 20
1.977325
  0
VERTEX
  8
AB0CF1H
 62
     3
  6
CONTINUOUS
 10
-2.720062
 20
1.946031
  0
VERTEX
  8
AB0CF1H
 62
     3
  6
CONTINUOUS
 10
-2.712845
 20
1.914736
  0
VERTEX
  8
AB0CF1H
 62
     3
  6
CONTINUOUS
 10
-2.691190
 20
1.890670
  0
VERTEX
  8
AB0CF1H
 62
     3
  6
CONTINUOUS
 10
-2.655098
 20
1.881063
  0
VERTEX
  8
AB0CF1H
 62
     3
  6
CONTINUOUS
 10
-2.619006
 20
1.890664
  0
VERTEX
  8
AB0CF1H
 62
     3
  6
CONTINUOUS
 10
-2.597349
 20
1.914726
  0
VERTEX
  8
AB0CF1H
 62
     3
  6
CONTINUOUS
 10
-2.590127
 20
1.946019
  0
VERTEX
  8
AB0CF1H
 62
     3
  6
CONTINUOUS
 10
-2.597341
 20
1.977314
  0
VERTEX
  8
AB0CF1H
 62
     3
  6
CONTINUOUS
 10
-2.618993
 20
2.001381
  0
VERTEX
  8
AB0CF1H
 62
     3
  6
CONTINUOUS
 10
-2.655083
 20
2.010992
  0
VERTEX
  8
AB0CF1H
 62
     3
  6
CONTINUOUS
 10
-2.655086
 20
2.010993
  0
VERTEX
  8
AB0CF1H
 62
     3
  6
CONTINUOUS
 10
-2.655091
 20
2.010995
  0
SEQEND
  8
0
  0
TEXT
  8
AB0CF1H
 10
-0.519500
 20
1.755012
 40
0.083603
  1
+
 41
1.000000
  7
SN0
 71
     0
 72
     5
 11
-0.465955
 21
1.755012
  0
TEXT
  8
AB0CF1H
 10
-0.515343
 20
1.430157
 40
0.083603
  1
-
 41
1.000000
  7
SN0
 71
     0
 72
     5
 11
-0.481143
 21
1.430157
  0
POLYLINE
  8
AB0CF1H
 62
     3
  6
CONTINUOUS
 66
     1
 40
0.003000
 41
0.003000
 70
     1
  0
VERTEX
  8
AB0CF1H
 62
     3
  6
CONTINUOUS
 10
1.100224
 20
1.414559
  0
VERTEX
  8
AB0CF1H
 62
     3
  6
CONTINUOUS
 10
1.081748
 20
1.403786
  0
VERTEX
  8
AB0CF1H
 62
     3
  6
CONTINUOUS
 10
1.081748
 20
1.383761
  0
VERTEX
  8
AB0CF1H
 62
     3
  6
CONTINUOUS
 10
1.100224
 20
1.372988
  0
VERTEX
  8
AB0CF1H
 62
     3
  6
CONTINUOUS
 10
1.118700
 20
1.383757
  0
VERTEX
  8
AB0CF1H
 62
     3
  6
CONTINUOUS
 10
1.118701
 20
1.403781
  0
VERTEX
  8
AB0CF1H
 62
     3
  6
CONTINUOUS
 10
1.100224
 20
1.414555
  0
VERTEX
  8
AB0CF1H
 62
     3
  6
CONTINUOUS
 10
1.100224
 20
1.414556
  0
VERTEX
  8
AB0CF1H
 62
     3
  6
CONTINUOUS
 10
1.100224
 20
1.414558
  0
SEQEND
  8
0
  0
POLYLINE
  8
AB0CF1H
 62
     3
  6
CONTINUOUS
 66
     1
 40
0.003000
 41
0.003000
 70
     1
  0
VERTEX
  8
AB0CF1H
 62
     3
  6
CONTINUOUS
 10
1.100224
 20
1.411961
  0
VERTEX
  8
AB0CF1H
 62
     3
  6
CONTINUOUS
 10
1.084058
 20
1.402533
  0
VERTEX
  8
AB0CF1H
 62
     3
  6
CONTINUOUS
 10
1.084057
 20
1.385012
  0
VERTEX
  8
AB0CF1H
 62
     3
  6
CONTINUOUS
 10
1.100224
 20
1.375587
  0
VERTEX
  8
AB0CF1H
 62
     3
  6
CONTINUOUS
 10
1.116391
 20
1.385009
  0
VERTEX
  8
AB0CF1H
 62
     3
  6
CONTINUOUS
 10
1.116392
 20
1.402529
  0
VERTEX
  8
AB0CF1H
 62
     3
  6
CONTINUOUS
 10
1.100224
 20
1.411957
  0
VERTEX
  8
AB0CF1H
 62
     3
  6
CONTINUOUS
 10
1.100224
 20
1.411958
  0
VERTEX
  8
AB0CF1H
 62
     3
  6
CONTINUOUS
 10
1.100224
 20
1.411960
  0
SEQEND
  8
0
  0
POLYLINE
  8
AB0CF1H
 62
     3
  6
CONTINUOUS
 66
     1
 40
0.003000
 41
0.003000
 70
     1
  0
VERTEX
  8
AB0CF1H
 62
     3
  6
CONTINUOUS
 10
1.100224
 20
1.409362
  0
VERTEX
  8
AB0CF1H
 62
     3
  6
CONTINUOUS
 10
1.086368
 20
1.401283
  0
VERTEX
  8
AB0CF1H
 62
     3
  6
CONTINUOUS
 10
1.086367
 20
1.386265
  0
VERTEX
  8
AB0CF1H
 62
     3
  6
CONTINUOUS
 10
1.100224
 20
1.378185
  0
VERTEX
  8
AB0CF1H
 62
     3
  6
CONTINUOUS
 10
1.114081
 20
1.386262
  0
VERTEX
  8
AB0CF1H
 62
     3
  6
CONTINUOUS
 10
1.114082
 20
1.401279
  0
VERTEX
  8
AB0CF1H
 62
     3
  6
CONTINUOUS
 10
1.100224
 20
1.409358
  0
VERTEX
  8
AB0CF1H
 62
     3
  6
CONTINUOUS
 10
1.100224
 20
1.409359
  0
VERTEX
  8
AB0CF1H
 62
     3
  6
CONTINUOUS
 10
1.100224
 20
1.409361
  0
SEQEND
  8
0
  0
POLYLINE
  8
AB0CF1H
 62
     3
  6
CONTINUOUS
 66
     1
 40
0.003000
 41
0.003000
 70
     1
  0
VERTEX
  8
AB0CF1H
 62
     3
  6
CONTINUOUS
 10
1.100224
 20
1.398969
  0
VERTEX
  8
AB0CF1H
 62
     3
  6
CONTINUOUS
 10
1.095607
 20
1.396275
  0
VERTEX
  8
AB0CF1H
 62
     3
  6
CONTINUOUS
 10
1.095606
 20
1.391270
  0
VERTEX
  8
AB0CF1H
 62
     3
  6
CONTINUOUS
 10
1.100224
 20
1.388579
  0
VERTEX
  8
AB0CF1H
 62
     3
  6
CONTINUOUS
 10
1.104842
 20
1.391270
  0
VERTEX
  8
AB0CF1H
 62
     3
  6
CONTINUOUS
 10
1.104843
 20
1.396274
  0
VERTEX
  8
AB0CF1H
 62
     3
  6
CONTINUOUS
 10
1.100224
 20
1.398965
  0
VERTEX
  8
AB0CF1H
 62
     3
  6
CONTINUOUS
 10
1.100224
 20
1.398966
  0
VERTEX
  8
AB0CF1H
 62
     3
  6
CONTINUOUS
 10
1.100224
 20
1.398967
  0
SEQEND
  8
0
  0
POLYLINE
  8
AB0CF1H
 62
     3
  6
CONTINUOUS
 66
     1
 40
0.003000
 41
0.003000
 70
     1
  0
VERTEX
  8
AB0CF1H
 62
     3
  6
CONTINUOUS
 10
1.100224
 20
1.401567
  0
VERTEX
  8
AB0CF1H
 62
     3
  6
CONTINUOUS
 10
1.093297
 20
1.397528
  0
VERTEX
  8
AB0CF1H
 62
     3
  6
CONTINUOUS
 10
1.093296
 20
1.390020
  0
VERTEX
  8
AB0CF1H
 62
     3
  6
CONTINUOUS
 10
1.100224
 20
1.385980
  0
VERTEX
  8
AB0CF1H
 62
     3
  6
CONTINUOUS
 10
1.107152
 20
1.390017
  0
VERTEX
  8
AB0CF1H
 62
     3
  6
CONTINUOUS
 10
1.107153
 20
1.397524
  0
VERTEX
  8
AB0CF1H
 62
     3
  6
CONTINUOUS
 10
1.100224
 20
1.401563
  0
VERTEX
  8
AB0CF1H
 62
     3
  6
CONTINUOUS
 10
1.100224
 20
1.401564
  0
VERTEX
  8
AB0CF1H
 62
     3
  6
CONTINUOUS
 10
1.100224
 20
1.401566
  0
SEQEND
  8
0
  0
POLYLINE
  8
AB0CF1H
 62
     3
  6
CONTINUOUS
 66
     1
 40
0.003000
 41
0.003000
 70
     1
  0
VERTEX
  8
AB0CF1H
 62
     3
  6
CONTINUOUS
 10
1.100224
 20
1.404165
  0
VERTEX
  8
AB0CF1H
 62
     3
  6
CONTINUOUS
 10
1.090987
 20
1.398778
  0
VERTEX
  8
AB0CF1H
 62
     3
  6
CONTINUOUS
 10
1.090986
 20
1.388767
  0
VERTEX
  8
AB0CF1H
 62
     3
  6
CONTINUOUS
 10
1.100224
 20
1.383382
  0
VERTEX
  8
AB0CF1H
 62
     3
  6
CONTINUOUS
 10
1.109462
 20
1.388765
  0
VERTEX
  8
AB0CF1H
 62
     3
  6
CONTINUOUS
 10
1.109462
 20
1.398776
  0
VERTEX
  8
AB0CF1H
 62
     3
  6
CONTINUOUS
 10
1.100224
 20
1.404161
  0
VERTEX
  8
AB0CF1H
 62
     3
  6
CONTINUOUS
 10
1.100224
 20
1.404162
  0
VERTEX
  8
AB0CF1H
 62
     3
  6
CONTINUOUS
 10
1.100224
 20
1.404164
  0
SEQEND
  8
0
  0
POLYLINE
  8
AB0CF1H
 62
     3
  6
CONTINUOUS
 66
     1
 40
0.003000
 41
0.003000
 70
     1
  0
VERTEX
  8
AB0CF1H
 62
     3
  6
CONTINUOUS
 10
1.100224
 20
1.406764
  0
VERTEX
  8
AB0CF1H
 62
     3
  6
CONTINUOUS
 10
1.088678
 20
1.400030
  0
VERTEX
  8
AB0CF1H
 62
     3
  6
CONTINUOUS
 10
1.088677
 20
1.387515
  0
VERTEX
  8
AB0CF1H
 62
     3
  6
CONTINUOUS
 10
1.100224
 20
1.380783
  0
VERTEX
  8
AB0CF1H
 62
     3
  6
CONTINUOUS
 10
1.111771
 20
1.387514
  0
VERTEX
  8
AB0CF1H
 62
     3
  6
CONTINUOUS
 10
1.111772
 20
1.400027
  0
VERTEX
  8
AB0CF1H
 62
     3
  6
CONTINUOUS
 10
1.100224
 20
1.406760
  0
VERTEX
  8
AB0CF1H
 62
     3
  6
CONTINUOUS
 10
1.100224
 20
1.406761
  0
VERTEX
  8
AB0CF1H
 62
     3
  6
CONTINUOUS
 10
1.100224
 20
1.406763
  0
SEQEND
  8
0
  0
TEXT
  8
AB0CF1H
 10
0.786386
 20
1.354480
 40
0.083603
  1
TC
 41
1.000000
  7
SN0
 71
     0
 72
     5
 11
0.931822
 21
1.354480
  0
TEXT
  8
AB0CF1H
 10
0.759126
 20
1.209256
 40
0.083603
  1
-
 41
1.000000
  7
SN0
 71
     0
 72
     5
 11
0.793326
 21
1.209256
  0
TEXT
  8
AB0CF1H
 10
0.753929
 20
1.547102
 40
0.083603
  1
+
 41
1.000000
  7
SN0
 71
     0
 72
     5
 11
0.807475
 21
1.547102
  0
POLYLINE
  8
AB0CF1H
 62
     3
  6
CONTINUOUS
 66
     1
 40
0.003000
 41
0.003000
 70
     1
  0
VERTEX
  8
AB0CF1H
 62
     3
  6
CONTINUOUS
 10
0.177634
 20
1.295280
  0
VERTEX
  8
AB0CF1H
 62
     3
  6
CONTINUOUS
 10
0.154536
 20
1.281811
  0
VERTEX
  8
AB0CF1H
 62
     3
  6
CONTINUOUS
 10
0.154535
 20
1.256775
  0
VERTEX
  8
AB0CF1H
 62
     3
  6
CONTINUOUS
 10
0.177634
 20
1.243307
  0
VERTEX
  8
AB0CF1H
 62
     3
  6
CONTINUOUS
 10
0.200733
 20
1.256772
  0
VERTEX
  8
AB0CF1H
 62
     3
  6
CONTINUOUS
 10
0.200736
 20
1.281806
  0
VERTEX
  8
AB0CF1H
 62
     3
  6
CONTINUOUS
 10
0.177638
 20
1.295276
  0
VERTEX
  8
AB0CF1H
 62
     3
  6
CONTINUOUS
 10
0.177637
 20
1.295277
  0
VERTEX
  8
AB0CF1H
 62
     3
  6
CONTINUOUS
 10
0.177635
 20
1.295279
  0
SEQEND
  8
0
  0
POLYLINE
  8
AB0CF1H
 62
     3
  6
CONTINUOUS
 66
     1
 40
0.003000
 41
0.003000
 70
     1
  0
VERTEX
  8
AB0CF1H
 62
     3
  6
CONTINUOUS
 10
0.177634
 20
1.375843
  0
VERTEX
  8
AB0CF1H
 62
     3
  6
CONTINUOUS
 10
0.154536
 20
1.362374
  0
VERTEX
  8
AB0CF1H
 62
     3
  6
CONTINUOUS
 10
0.154535
 20
1.337338
  0
VERTEX
  8
AB0CF1H
 62
     3
  6
CONTINUOUS
 10
0.177634
 20
1.323870
  0
VERTEX
  8
AB0CF1H
 62
     3
  6
CONTINUOUS
 10
0.200733
 20
1.337335
  0
VERTEX
  8
AB0CF1H
 62
     3
  6
CONTINUOUS
 10
0.200736
 20
1.362369
  0
VERTEX
  8
AB0CF1H
 62
     3
  6
CONTINUOUS
 10
0.177638
 20
1.375839
  0
VERTEX
  8
AB0CF1H
 62
     3
  6
CONTINUOUS
 10
0.177637
 20
1.375840
  0
VERTEX
  8
AB0CF1H
 62
     3
  6
CONTINUOUS
 10
0.177635
 20
1.375841
  0
SEQEND
  8
0
  0
POLYLINE
  8
AB0CF1H
 62
     3
  6
CONTINUOUS
 66
     1
 40
0.003000
 41
0.003000
 70
     1
  0
VERTEX
  8
AB0CF1H
 62
     3
  6
CONTINUOUS
 10
0.177634
 20
1.456406
  0
VERTEX
  8
AB0CF1H
 62
     3
  6
CONTINUOUS
 10
0.154536
 20
1.442937
  0
VERTEX
  8
AB0CF1H
 62
     3
  6
CONTINUOUS
 10
0.154535
 20
1.417901
  0
VERTEX
  8
AB0CF1H
 62
     3
  6
CONTINUOUS
 10
0.177634
 20
1.404433
  0
VERTEX
  8
AB0CF1H
 62
     3
  6
CONTINUOUS
 10
0.200733
 20
1.417898
  0
VERTEX
  8
AB0CF1H
 62
     3
  6
CONTINUOUS
 10
0.200736
 20
1.442932
  0
VERTEX
  8
AB0CF1H
 62
     3
  6
CONTINUOUS
 10
0.177638
 20
1.456402
  0
VERTEX
  8
AB0CF1H
 62
     3
  6
CONTINUOUS
 10
0.177637
 20
1.456403
  0
VERTEX
  8
AB0CF1H
 62
     3
  6
CONTINUOUS
 10
0.177635
 20
1.456404
  0
SEQEND
  8
0
  0
POLYLINE
  8
AB0CF1H
 62
     3
  6
CONTINUOUS
 66
     1
 40
0.003000
 41
0.003000
 70
     1
  0
VERTEX
  8
AB0CF1H
 62
     3
  6
CONTINUOUS
 10
0.177634
 20
1.536969
  0
VERTEX
  8
AB0CF1H
 62
     3
  6
CONTINUOUS
 10
0.154536
 20
1.523500
  0
VERTEX
  8
AB0CF1H
 62
     3
  6
CONTINUOUS
 10
0.154535
 20
1.498464
  0
VERTEX
  8
AB0CF1H
 62
     3
  6
CONTINUOUS
 10
0.177634
 20
1.484996
  0
VERTEX
  8
AB0CF1H
 62
     3
  6
CONTINUOUS
 10
0.200733
 20
1.498461
  0
VERTEX
  8
AB0CF1H
 62
     3
  6
CONTINUOUS
 10
0.200736
 20
1.523495
  0
VERTEX
  8
AB0CF1H
 62
     3
  6
CONTINUOUS
 10
0.177638
 20
1.536965
  0
VERTEX
  8
AB0CF1H
 62
     3
  6
CONTINUOUS
 10
0.177637
 20
1.536966
  0
VERTEX
  8
AB0CF1H
 62
     3
  6
CONTINUOUS
 10
0.177635
 20
1.536967
  0
SEQEND
  8
0
  0
POLYLINE
  8
AB0CF1H
 62
     3
  6
CONTINUOUS
 66
     1
 40
0.003000
 41
0.003000
 70
     1
  0
VERTEX
  8
AB0CF1H
 62
     3
  6
CONTINUOUS
 10
0.177634
 20
2.862114
  0
VERTEX
  8
AB0CF1H
 62
     3
  6
CONTINUOUS
 10
0.154536
 20
2.848646
  0
VERTEX
  8
AB0CF1H
 62
     3
  6
CONTINUOUS
 10
0.154535
 20
2.823610
  0
VERTEX
  8
AB0CF1H
 62
     3
  6
CONTINUOUS
 10
0.177634
 20
2.810142
  0
VERTEX
  8
AB0CF1H
 62
     3
  6
CONTINUOUS
 10
0.200733
 20
2.823606
  0
VERTEX
  8
AB0CF1H
 62
     3
  6
CONTINUOUS
 10
0.200736
 20
2.848640
  0
VERTEX
  8
AB0CF1H
 62
     3
  6
CONTINUOUS
 10
0.177638
 20
2.862110
  0
VERTEX
  8
AB0CF1H
 62
     3
  6
CONTINUOUS
 10
0.177637
 20
2.862111
  0
VERTEX
  8
AB0CF1H
 62
     3
  6
CONTINUOUS
 10
0.177635
 20
2.862113
  0
SEQEND
  8
0
  0
POLYLINE
  8
AB0CF1H
 62
     3
  6
CONTINUOUS
 66
     1
 40
0.003000
 41
0.003000
 70
     1
  0
VERTEX
  8
AB0CF1H
 62
     3
  6
CONTINUOUS
 10
0.177634
 20
2.942681
  0
VERTEX
  8
AB0CF1H
 62
     3
  6
CONTINUOUS
 10
0.154536
 20
2.929213
  0
VERTEX
  8
AB0CF1H
 62
     3
  6
CONTINUOUS
 10
0.154535
 20
2.904177
  0
VERTEX
  8
AB0CF1H
 62
     3
  6
CONTINUOUS
 10
0.177634
 20
2.890709
  0
VERTEX
  8
AB0CF1H
 62
     3
  6
CONTINUOUS
 10
0.200733
 20
2.904173
  0
VERTEX
  8
AB0CF1H
 62
     3
  6
CONTINUOUS
 10
0.200736
 20
2.929207
  0
VERTEX
  8
AB0CF1H
 62
     3
  6
CONTINUOUS
 10
0.177638
 20
2.942677
  0
VERTEX
  8
AB0CF1H
 62
     3
  6
CONTINUOUS
 10
0.177637
 20
2.942678
  0
VERTEX
  8
AB0CF1H
 62
     3
  6
CONTINUOUS
 10
0.177635
 20
2.942680
  0
SEQEND
  8
0
  0
POLYLINE
  8
AB0CF1H
 62
     3
  6
CONTINUOUS
 66
     1
 40
0.003000
 41
0.003000
 70
     1
  0
VERTEX
  8
AB0CF1H
 62
     3
  6
CONTINUOUS
 10
0.177634
 20
3.023244
  0
VERTEX
  8
AB0CF1H
 62
     3
  6
CONTINUOUS
 10
0.154536
 20
3.009776
  0
VERTEX
  8
AB0CF1H
 62
     3
  6
CONTINUOUS
 10
0.154535
 20
2.984740
  0
VERTEX
  8
AB0CF1H
 62
     3
  6
CONTINUOUS
 10
0.177634
 20
2.971272
  0
VERTEX
  8
AB0CF1H
 62
     3
  6
CONTINUOUS
 10
0.200733
 20
2.984736
  0
VERTEX
  8
AB0CF1H
 62
     3
  6
CONTINUOUS
 10
0.200736
 20
3.009770
  0
VERTEX
  8
AB0CF1H
 62
     3
  6
CONTINUOUS
 10
0.177638
 20
3.023240
  0
VERTEX
  8
AB0CF1H
 62
     3
  6
CONTINUOUS
 10
0.177637
 20
3.023241
  0
VERTEX
  8
AB0CF1H
 62
     3
  6
CONTINUOUS
 10
0.177635
 20
3.023243
  0
SEQEND
  8
0
  0
POLYLINE
  8
AB0CF1H
 62
     3
  6
CONTINUOUS
 66
     1
 40
0.003000
 41
0.003000
 70
     1
  0
VERTEX
  8
AB0CF1H
 62
     3
  6
CONTINUOUS
 10
0.177634
 20
1.617531
  0
VERTEX
  8
AB0CF1H
 62
     3
  6
CONTINUOUS
 10
0.154536
 20
1.604063
  0
VERTEX
  8
AB0CF1H
 62
     3
  6
CONTINUOUS
 10
0.154535
 20
1.579027
  0
VERTEX
  8
AB0CF1H
 62
     3
  6
CONTINUOUS
 10
0.177634
 20
1.565559
  0
VERTEX
  8
AB0CF1H
 62
     3
  6
CONTINUOUS
 10
0.200733
 20
1.579024
  0
VERTEX
  8
AB0CF1H
 62
     3
  6
CONTINUOUS
 10
0.200736
 20
1.604058
  0
VERTEX
  8
AB0CF1H
 62
     3
  6
CONTINUOUS
 10
0.177638
 20
1.617528
  0
VERTEX
  8
AB0CF1H
 62
     3
  6
CONTINUOUS
 10
0.177637
 20
1.617529
  0
VERTEX
  8
AB0CF1H
 62
     3
  6
CONTINUOUS
 10
0.177635
 20
1.617530
  0
SEQEND
  8
0
  0
POLYLINE
  8
AB0CF1H
 62
     3
  6
CONTINUOUS
 66
     1
 40
0.003000
 41
0.003000
 70
     1
  0
VERTEX
  8
AB0CF1H
 62
     3
  6
CONTINUOUS
 10
0.177634
 20
1.827909
  0
VERTEX
  8
AB0CF1H
 62
     3
  6
CONTINUOUS
 10
0.154536
 20
1.814441
  0
VERTEX
  8
AB0CF1H
 62
     3
  6
CONTINUOUS
 10
0.154535
 20
1.789405
  0
VERTEX
  8
AB0CF1H
 62
     3
  6
CONTINUOUS
 10
0.177634
 20
1.775937
  0
VERTEX
  8
AB0CF1H
 62
     3
  6
CONTINUOUS
 10
0.200733
 20
1.789402
  0
VERTEX
  8
AB0CF1H
 62
     3
  6
CONTINUOUS
 10
0.200736
 20
1.814436
  0
VERTEX
  8
AB0CF1H
 62
     3
  6
CONTINUOUS
 10
0.177638
 20
1.827906
  0
VERTEX
  8
AB0CF1H
 62
     3
  6
CONTINUOUS
 10
0.177637
 20
1.827907
  0
VERTEX
  8
AB0CF1H
 62
     3
  6
CONTINUOUS
 10
0.177635
 20
1.827908
  0
SEQEND
  8
0
  0
POLYLINE
  8
AB0CF1H
 62
     3
  6
CONTINUOUS
 66
     1
 40
0.003000
 41
0.003000
 70
     1
  0
VERTEX
  8
AB0CF1H
 62
     3
  6
CONTINUOUS
 10
0.177634
 20
1.908472
  0
VERTEX
  8
AB0CF1H
 62
     3
  6
CONTINUOUS
 10
0.154536
 20
1.895004
  0
VERTEX
  8
AB0CF1H
 62
     3
  6
CONTINUOUS
 10
0.154535
 20
1.869968
  0
VERTEX
  8
AB0CF1H
 62
     3
  6
CONTINUOUS
 10
0.177634
 20
1.856500
  0
VERTEX
  8
AB0CF1H
 62
     3
  6
CONTINUOUS
 10
0.200733
 20
1.869965
  0
VERTEX
  8
AB0CF1H
 62
     3
  6
CONTINUOUS
 10
0.200736
 20
1.894999
  0
VERTEX
  8
AB0CF1H
 62
     3
  6
CONTINUOUS
 10
0.177638
 20
1.908469
  0
VERTEX
  8
AB0CF1H
 62
     3
  6
CONTINUOUS
 10
0.177637
 20
1.908470
  0
VERTEX
  8
AB0CF1H
 62
     3
  6
CONTINUOUS
 10
0.177635
 20
1.908471
  0
SEQEND
  8
0
  0
POLYLINE
  8
AB0CF1H
 62
     3
  6
CONTINUOUS
 66
     1
 40
0.003000
 41
0.003000
 70
     1
  0
VERTEX
  8
AB0CF1H
 62
     3
  6
CONTINUOUS
 10
0.177634
 20
1.989035
  0
VERTEX
  8
AB0CF1H
 62
     3
  6
CONTINUOUS
 10
0.154536
 20
1.975567
  0
VERTEX
  8
AB0CF1H
 62
     3
  6
CONTINUOUS
 10
0.154535
 20
1.950531
  0
VERTEX
  8
AB0CF1H
 62
     3
  6
CONTINUOUS
 10
0.177634
 20
1.937063
  0
VERTEX
  8
AB0CF1H
 62
     3
  6
CONTINUOUS
 10
0.200733
 20
1.950528
  0
VERTEX
  8
AB0CF1H
 62
     3
  6
CONTINUOUS
 10
0.200736
 20
1.975562
  0
VERTEX
  8
AB0CF1H
 62
     3
  6
CONTINUOUS
 10
0.177638
 20
1.989031
  0
VERTEX
  8
AB0CF1H
 62
     3
  6
CONTINUOUS
 10
0.177637
 20
1.989033
  0
VERTEX
  8
AB0CF1H
 62
     3
  6
CONTINUOUS
 10
0.177635
 20
1.989034
  0
SEQEND
  8
0
  0
POLYLINE
  8
AB0CF1H
 62
     3
  6
CONTINUOUS
 66
     1
 40
0.003000
 41
0.003000
 70
     1
  0
VERTEX
  8
AB0CF1H
 62
     3
  6
CONTINUOUS
 10
0.177634
 20
2.069602
  0
VERTEX
  8
AB0CF1H
 62
     3
  6
CONTINUOUS
 10
0.154536
 20
2.056134
  0
VERTEX
  8
AB0CF1H
 62
     3
  6
CONTINUOUS
 10
0.154535
 20
2.031098
  0
VERTEX
  8
AB0CF1H
 62
     3
  6
CONTINUOUS
 10
0.177634
 20
2.017630
  0
VERTEX
  8
AB0CF1H
 62
     3
  6
CONTINUOUS
 10
0.200733
 20
2.031094
  0
VERTEX
  8
AB0CF1H
 62
     3
  6
CONTINUOUS
 10
0.200736
 20
2.056129
  0
VERTEX
  8
AB0CF1H
 62
     3
  6
CONTINUOUS
 10
0.177638
 20
2.069598
  0
VERTEX
  8
AB0CF1H
 62
     3
  6
CONTINUOUS
 10
0.177637
 20
2.069599
  0
VERTEX
  8
AB0CF1H
 62
     3
  6
CONTINUOUS
 10
0.177635
 20
2.069601
  0
SEQEND
  8
0
  0
POLYLINE
  8
AB0CF1H
 62
     3
  6
CONTINUOUS
 66
     1
 40
0.003000
 41
0.003000
 70
     1
  0
VERTEX
  8
AB0CF1H
 62
     3
  6
CONTINUOUS
 10
0.177634
 20
2.279976
  0
VERTEX
  8
AB0CF1H
 62
     3
  6
CONTINUOUS
 10
0.154536
 20
2.266508
  0
VERTEX
  8
AB0CF1H
 62
     3
  6
CONTINUOUS
 10
0.154535
 20
2.241472
  0
VERTEX
  8
AB0CF1H
 62
     3
  6
CONTINUOUS
 10
0.177634
 20
2.228004
  0
VERTEX
  8
AB0CF1H
 62
     3
  6
CONTINUOUS
 10
0.200733
 20
2.241469
  0
VERTEX
  8
AB0CF1H
 62
     3
  6
CONTINUOUS
 10
0.200736
 20
2.266503
  0
VERTEX
  8
AB0CF1H
 62
     3
  6
CONTINUOUS
 10
0.177638
 20
2.279972
  0
VERTEX
  8
AB0CF1H
 62
     3
  6
CONTINUOUS
 10
0.177637
 20
2.279973
  0
VERTEX
  8
AB0CF1H
 62
     3
  6
CONTINUOUS
 10
0.177635
 20
2.279975
  0
SEQEND
  8
0
  0
POLYLINE
  8
AB0CF1H
 62
     3
  6
CONTINUOUS
 66
     1
 40
0.003000
 41
0.003000
 70
     1
  0
VERTEX
  8
AB0CF1H
 62
     3
  6
CONTINUOUS
 10
0.177634
 20
2.360539
  0
VERTEX
  8
AB0CF1H
 62
     3
  6
CONTINUOUS
 10
0.154536
 20
2.347071
  0
VERTEX
  8
AB0CF1H
 62
     3
  6
CONTINUOUS
 10
0.154535
 20
2.322035
  0
VERTEX
  8
AB0CF1H
 62
     3
  6
CONTINUOUS
 10
0.177634
 20
2.308567
  0
VERTEX
  8
AB0CF1H
 62
     3
  6
CONTINUOUS
 10
0.200733
 20
2.322031
  0
VERTEX
  8
AB0CF1H
 62
     3
  6
CONTINUOUS
 10
0.200736
 20
2.347066
  0
VERTEX
  8
AB0CF1H
 62
     3
  6
CONTINUOUS
 10
0.177638
 20
2.360535
  0
VERTEX
  8
AB0CF1H
 62
     3
  6
CONTINUOUS
 10
0.177637
 20
2.360536
  0
VERTEX
  8
AB0CF1H
 62
     3
  6
CONTINUOUS
 10
0.177635
 20
2.360538
  0
SEQEND
  8
0
  0
POLYLINE
  8
AB0CF1H
 62
     3
  6
CONTINUOUS
 66
     1
 40
0.003000
 41
0.003000
 70
     1
  0
VERTEX
  8
AB0CF1H
 62
     3
  6
CONTINUOUS
 10
0.177634
 20
2.571047
  0
VERTEX
  8
AB0CF1H
 62
     3
  6
CONTINUOUS
 10
0.154536
 20
2.557579
  0
VERTEX
  8
AB0CF1H
 62
     3
  6
CONTINUOUS
 10
0.154535
 20
2.532543
  0
VERTEX
  8
AB0CF1H
 62
     3
  6
CONTINUOUS
 10
0.177634
 20
2.519075
  0
VERTEX
  8
AB0CF1H
 62
     3
  6
CONTINUOUS
 10
0.200733
 20
2.532539
  0
VERTEX
  8
AB0CF1H
 62
     3
  6
CONTINUOUS
 10
0.200736
 20
2.557573
  0
VERTEX
  8
AB0CF1H
 62
     3
  6
CONTINUOUS
 10
0.177638
 20
2.571043
  0
VERTEX
  8
AB0CF1H
 62
     3
  6
CONTINUOUS
 10
0.177637
 20
2.571044
  0
VERTEX
  8
AB0CF1H
 62
     3
  6
CONTINUOUS
 10
0.177635
 20
2.571046
  0
SEQEND
  8
0
  0
POLYLINE
  8
AB0CF1H
 62
     3
  6
CONTINUOUS
 66
     1
 40
0.003000
 41
0.003000
 70
     1
  0
VERTEX
  8
AB0CF1H
 62
     3
  6
CONTINUOUS
 10
0.177634
 20
2.651610
  0
VERTEX
  8
AB0CF1H
 62
     3
  6
CONTINUOUS
 10
0.154536
 20
2.638142
  0
VERTEX
  8
AB0CF1H
 62
     3
  6
CONTINUOUS
 10
0.154535
 20
2.613106
  0
VERTEX
  8
AB0CF1H
 62
     3
  6
CONTINUOUS
 10
0.177634
 20
2.599638
  0
VERTEX
  8
AB0CF1H
 62
     3
  6
CONTINUOUS
 10
0.200733
 20
2.613102
  0
VERTEX
  8
AB0CF1H
 62
     3
  6
CONTINUOUS
 10
0.200736
 20
2.638136
  0
VERTEX
  8
AB0CF1H
 62
     3
  6
CONTINUOUS
 10
0.177638
 20
2.651606
  0
VERTEX
  8
AB0CF1H
 62
     3
  6
CONTINUOUS
 10
0.177637
 20
2.651607
  0
VERTEX
  8
AB0CF1H
 62
     3
  6
CONTINUOUS
 10
0.177635
 20
2.651609
  0
SEQEND
  8
0
  0
TEXT
  8
AB0CF1H
 10
0.124358
 20
1.662752
 40
0.055735
  1
TO
 41
1.000000
  7
SN0
 71
     0
 72
     5
 11
0.228685
 21
1.662752
  0
TEXT
  8
AB0CF1H
 10
0.124358
 20
2.109232
 40
0.055735
  1
HB
 41
1.000000
  7
SN0
 71
     0
 72
     5
 11
0.225231
 21
2.109232
  0
TEXT
  8
AB0CF1H
 10
0.124358
 20
2.403421
 40
0.055735
  1
CT2
 41
1.000000
  7
SN0
 71
     0
 72
     5
 11
0.257358
 21
2.403421
  0
TEXT
  8
AB0CF1H
 10
0.124358
 20
2.681496
 40
0.055735
  1
CT1
 41
1.000000
  7
SN0
 71
     0
 72
     5
 11
0.257358
 21
2.681496
  0
TEXT
  8
AB0CF1H
 10
0.124358
 20
3.059626
 40
0.055735
  1
AES
 41
1.000000
  7
SN0
 71
     0
 72
     5
 11
0.245613
 21
3.059626
  0
POLYLINE
  8
AB0CF1H
 62
     3
  6
CONTINUOUS
 66
     1
 40
0.003000
 41
0.003000
 70
     1
  0
VERTEX
  8
AB0CF1H
 62
     3
  6
CONTINUOUS
 10
2.542575
 20
1.127390
  0
VERTEX
  8
AB0CF1H
 62
     3
  6
CONTINUOUS
 10
2.506483
 20
1.117784
  0
VERTEX
  8
AB0CF1H
 62
     3
  6
CONTINUOUS
 10
2.484828
 20
1.093719
  0
VERTEX
  8
AB0CF1H
 62
     3
  6
CONTINUOUS
 10
2.477608
 20
1.062425
  0
VERTEX
  8
AB0CF1H
 62
     3
  6
CONTINUOUS
 10
2.484825
 20
1.031130
  0
VERTEX
  8
AB0CF1H
 62
     3
  6
CONTINUOUS
 10
2.506479
 20
1.007064
  0
VERTEX
  8
AB0CF1H
 62
     3
  6
CONTINUOUS
 10
2.542571
 20
0.997457
  0
VERTEX
  8
AB0CF1H
 62
     3
  6
CONTINUOUS
 10
2.578663
 20
1.007058
  0
VERTEX
  8
AB0CF1H
 62
     3
  6
CONTINUOUS
 10
2.600320
 20
1.031119
  0
VERTEX
  8
AB0CF1H
 62
     3
  6
CONTINUOUS
 10
2.607542
 20
1.062412
  0
VERTEX
  8
AB0CF1H
 62
     3
  6
CONTINUOUS
 10
2.600328
 20
1.093707
  0
VERTEX
  8
AB0CF1H
 62
     3
  6
CONTINUOUS
 10
2.578676
 20
1.117775
  0
VERTEX
  8
AB0CF1H
 62
     3
  6
CONTINUOUS
 10
2.542587
 20
1.127386
  0
VERTEX
  8
AB0CF1H
 62
     3
  6
CONTINUOUS
 10
2.542584
 20
1.127387
  0
VERTEX
  8
AB0CF1H
 62
     3
  6
CONTINUOUS
 10
2.542578
 20
1.127389
  0
SEQEND
  8
0
  0
POLYLINE
  8
AB0CF1H
 62
     3
  6
CONTINUOUS
 66
     1
 40
0.003000
 41
0.003000
  0
VERTEX
  8
AB0CF1H
 62
     3
  6
CONTINUOUS
 10
-2.637343
 20
1.720370
  0
VERTEX
  8
AB0CF1H
 62
     3
  6
CONTINUOUS
 10
-2.612012
 20
1.676492
  0
SEQEND
  8
0
  0
POLYLINE
  8
AB0CF1H
 62
     3
  6
CONTINUOUS
 66
     1
 40
0.003000
 41
0.003000
  0
VERTEX
  8
AB0CF1H
 62
     3
  6
CONTINUOUS
 10
-2.637343
 20
1.941272
  0
VERTEX
  8
AB0CF1H
 62
     3
  6
CONTINUOUS
 10
-2.612012
 20
1.897394
  0
SEQEND
  8
0
  0
POLYLINE
  8
AB0CF1H
 62
     3
  6
CONTINUOUS
 66
     1
 40
0.003000
 41
0.003000
  0
VERTEX
  8
AB0CF1H
 62
     3
  6
CONTINUOUS
 10
-2.637343
 20
2.162173
  0
VERTEX
  8
AB0CF1H
 62
     3
  6
CONTINUOUS
 10
-2.612012
 20
2.118295
  0
SEQEND
  8
0
  0
POLYLINE
  8
AB0CF1H
 62
     3
  6
CONTINUOUS
 66
     1
 40
0.003000
 41
0.003000
  0
VERTEX
  8
AB0CF1H
 62
     3
  6
CONTINUOUS
 10
-2.637343
 20
2.383075
  0
VERTEX
  8
AB0CF1H
 62
     3
  6
CONTINUOUS
 10
-2.612012
 20
2.339197
  0
SEQEND
  8
0
  0
POLYLINE
  8
AB0CF1H
 62
     3
  6
CONTINUOUS
 66
     1
 40
0.003000
 41
0.003000
  0
VERTEX
  8
AB0CF1H
 62
     3
  6
CONTINUOUS
 10
-2.659850
 20
1.707374
  0
VERTEX
  8
AB0CF1H
 62
     3
  6
CONTINUOUS
 10
-2.634520
 20
1.663500
  0
SEQEND
  8
0
  0
POLYLINE
  8
AB0CF1H
 62
     3
  6
CONTINUOUS
 66
     1
 40
0.003000
 41
0.003000
  0
VERTEX
  8
AB0CF1H
 62
     3
  6
CONTINUOUS
 10
-2.659850
 20
1.928276
  0
VERTEX
  8
AB0CF1H
 62
     3
  6
CONTINUOUS
 10
-2.634520
 20
1.884402
  0
SEQEND
  8
0
  0
POLYLINE
  8
AB0CF1H
 62
     3
  6
CONTINUOUS
 66
     1
 40
0.003000
 41
0.003000
  0
VERTEX
  8
AB0CF1H
 62
     3
  6
CONTINUOUS
 10
-2.659850
 20
2.149177
  0
VERTEX
  8
AB0CF1H
 62
     3
  6
CONTINUOUS
 10
-2.634520
 20
2.105299
  0
SEQEND
  8
0
  0
POLYLINE
  8
AB0CF1H
 62
     3
  6
CONTINUOUS
 66
     1
 40
0.003000
 41
0.003000
  0
VERTEX
  8
AB0CF1H
 62
     3
  6
CONTINUOUS
 10
-2.659850
 20
2.370079
  0
VERTEX
  8
AB0CF1H
 62
     3
  6
CONTINUOUS
 10
-2.634520
 20
2.326201
  0
SEQEND
  8
0
  0
POLYLINE
  8
AB0CF1H
 62
     3
  6
CONTINUOUS
 66
     1
 40
0.003000
 41
0.003000
  0
VERTEX
  8
AB0CF1H
 62
     3
  6
CONTINUOUS
 10
-2.650339
 20
1.742878
  0
VERTEX
  8
AB0CF1H
 62
     3
  6
CONTINUOUS
 10
-2.606461
 20
1.768209
  0
SEQEND
  8
0
  0
POLYLINE
  8
AB0CF1H
 62
     3
  6
CONTINUOUS
 66
     1
 40
0.003000
 41
0.003000
  0
VERTEX
  8
AB0CF1H
 62
     3
  6
CONTINUOUS
 10
-2.650339
 20
1.963776
  0
VERTEX
  8
AB0CF1H
 62
     3
  6
CONTINUOUS
 10
-2.606461
 20
1.989110
  0
SEQEND
  8
0
  0
POLYLINE
  8
AB0CF1H
 62
     3
  6
CONTINUOUS
 66
     1
 40
0.003000
 41
0.003000
  0
VERTEX
  8
AB0CF1H
 62
     3
  6
CONTINUOUS
 10
-2.650339
 20
2.184677
  0
VERTEX
  8
AB0CF1H
 62
     3
  6
CONTINUOUS
 10
-2.606461
 20
2.210012
  0
SEQEND
  8
0
  0
POLYLINE
  8
AB0CF1H
 62
     3
  6
CONTINUOUS
 66
     1
 40
0.003000
 41
0.003000
  0
VERTEX
  8
AB0CF1H
 62
     3
  6
CONTINUOUS
 10
-2.650339
 20
2.405579
  0
VERTEX
  8
AB0CF1H
 62
     3
  6
CONTINUOUS
 10
-2.606461
 20
2.430909
  0
SEQEND
  8
0
  0
POLYLINE
  8
AB0CF1H
 62
     3
  6
CONTINUOUS
 66
     1
 40
0.003000
 41
0.003000
  0
VERTEX
  8
AB0CF1H
 62
     3
  6
CONTINUOUS
 10
-2.637343
 20
1.720370
  0
VERTEX
  8
AB0CF1H
 62
     3
  6
CONTINUOUS
 10
-2.593469
 20
1.745701
  0
SEQEND
  8
0
  0
POLYLINE
  8
AB0CF1H
 62
     3
  6
CONTINUOUS
 66
     1
 40
0.003000
 41
0.003000
  0
VERTEX
  8
AB0CF1H
 62
     3
  6
CONTINUOUS
 10
-2.637343
 20
1.941272
  0
VERTEX
  8
AB0CF1H
 62
     3
  6
CONTINUOUS
 10
-2.593469
 20
1.966602
  0
SEQEND
  8
0
  0
POLYLINE
  8
AB0CF1H
 62
     3
  6
CONTINUOUS
 66
     1
 40
0.003000
 41
0.003000
  0
VERTEX
  8
AB0CF1H
 62
     3
  6
CONTINUOUS
 10
-2.637343
 20
2.162173
  0
VERTEX
  8
AB0CF1H
 62
     3
  6
CONTINUOUS
 10
-2.593469
 20
2.187504
  0
SEQEND
  8
0
  0
POLYLINE
  8
AB0CF1H
 62
     3
  6
CONTINUOUS
 66
     1
 40
0.003000
 41
0.003000
  0
VERTEX
  8
AB0CF1H
 62
     3
  6
CONTINUOUS
 10
-2.637343
 20
2.383075
  0
VERTEX
  8
AB0CF1H
 62
     3
  6
CONTINUOUS
 10
-2.593469
 20
2.408406
  0
SEQEND
  8
0
  0
POLYLINE
  8
AB0CF1H
 62
     3
  6
CONTINUOUS
 66
     1
 40
0.003000
 41
0.003000
  0
VERTEX
  8
AB0CF1H
 62
     3
  6
CONTINUOUS
 10
-2.698177
 20
1.773760
  0
VERTEX
  8
AB0CF1H
 62
     3
  6
CONTINUOUS
 10
-2.672843
 20
1.729882
  0
SEQEND
  8
0
  0
POLYLINE
  8
AB0CF1H
 62
     3
  6
CONTINUOUS
 66
     1
 40
0.003000
 41
0.003000
  0
VERTEX
  8
AB0CF1H
 62
     3
  6
CONTINUOUS
 10
-2.698177
 20
1.994661
  0
VERTEX
  8
AB0CF1H
 62
     3
  6
CONTINUOUS
 10
-2.672843
 20
1.950783
  0
SEQEND
  8
0
  0
POLYLINE
  8
AB0CF1H
 62
     3
  6
CONTINUOUS
 66
     1
 40
0.003000
 41
0.003000
  0
VERTEX
  8
AB0CF1H
 62
     3
  6
CONTINUOUS
 10
-2.698177
 20
2.215563
  0
VERTEX
  8
AB0CF1H
 62
     3
  6
CONTINUOUS
 10
-2.672843
 20
2.171685
  0
SEQEND
  8
0
  0
POLYLINE
  8
AB0CF1H
 62
     3
  6
CONTINUOUS
 66
     1
 40
0.003000
 41
0.003000
  0
VERTEX
  8
AB0CF1H
 62
     3
  6
CONTINUOUS
 10
-2.698177
 20
2.436461
  0
VERTEX
  8
AB0CF1H
 62
     3
  6
CONTINUOUS
 10
-2.672843
 20
2.392587
  0
SEQEND
  8
0
  0
POLYLINE
  8
AB0CF1H
 62
     3
  6
CONTINUOUS
 66
     1
 40
0.003000
 41
0.003000
  0
VERTEX
  8
AB0CF1H
 62
     3
  6
CONTINUOUS
 10
-2.675669
 20
1.786752
  0
VERTEX
  8
AB0CF1H
 62
     3
  6
CONTINUOUS
 10
-2.650339
 20
1.742878
  0
SEQEND
  8
0
  0
POLYLINE
  8
AB0CF1H
 62
     3
  6
CONTINUOUS
 66
     1
 40
0.003000
 41
0.003000
  0
VERTEX
  8
AB0CF1H
 62
     3
  6
CONTINUOUS
 10
-2.675669
 20
2.007654
  0
VERTEX
  8
AB0CF1H
 62
     3
  6
CONTINUOUS
 10
-2.650339
 20
1.963776
  0
SEQEND
  8
0
  0
POLYLINE
  8
AB0CF1H
 62
     3
  6
CONTINUOUS
 66
     1
 40
0.003000
 41
0.003000
  0
VERTEX
  8
AB0CF1H
 62
     3
  6
CONTINUOUS
 10
-2.675669
 20
2.228555
  0
VERTEX
  8
AB0CF1H
 62
     3
  6
CONTINUOUS
 10
-2.650339
 20
2.184677
  0
SEQEND
  8
0
  0
POLYLINE
  8
AB0CF1H
 62
     3
  6
CONTINUOUS
 66
     1
 40
0.003000
 41
0.003000
  0
VERTEX
  8
AB0CF1H
 62
     3
  6
CONTINUOUS
 10
-2.675669
 20
2.449457
  0
VERTEX
  8
AB0CF1H
 62
     3
  6
CONTINUOUS
 10
-2.650339
 20
2.405579
  0
SEQEND
  8
0
  0
POLYLINE
  8
AB0CF1H
 62
     3
  6
CONTINUOUS
 66
     1
 40
0.003000
 41
0.003000
  0
VERTEX
  8
AB0CF1H
 62
     3
  6
CONTINUOUS
 10
-2.772043
 20
2.517772
  0
VERTEX
  8
AB0CF1H
 62
     3
  6
CONTINUOUS
 10
-2.683339
 20
2.517772
  0
SEQEND
  8
0
  0
POLYLINE
  8
AB0CF1H
 62
     3
  6
CONTINUOUS
 66
     1
 40
0.003000
 41
0.003000
  0
VERTEX
  8
AB0CF1H
 62
     3
  6
CONTINUOUS
 10
-2.772043
 20
2.478787
  0
VERTEX
  8
AB0CF1H
 62
     3
  6
CONTINUOUS
 10
-2.574087
 20
2.478787
  0
SEQEND
  8
0
  0
POLYLINE
  8
AB0CF1H
 62
     3
  6
CONTINUOUS
 66
     1
 40
0.003000
 41
0.003000
  0
VERTEX
  8
AB0CF1H
 62
     3
  6
CONTINUOUS
 10
-2.772043
 20
2.296870
  0
VERTEX
  8
AB0CF1H
 62
     3
  6
CONTINUOUS
 10
-2.460181
 20
2.296870
  0
SEQEND
  8
0
  0
POLYLINE
  8
AB0CF1H
 62
     3
  6
CONTINUOUS
 66
     1
 40
0.003000
 41
0.003000
  0
VERTEX
  8
AB0CF1H
 62
     3
  6
CONTINUOUS
 10
-2.772043
 20
2.257886
  0
VERTEX
  8
AB0CF1H
 62
     3
  6
CONTINUOUS
 10
-2.460181
 20
2.257886
  0
SEQEND
  8
0
  0
POLYLINE
  8
AB0CF1H
 62
     3
  6
CONTINUOUS
 66
     1
 40
0.003000
 41
0.003000
  0
VERTEX
  8
AB0CF1H
 62
     3
  6
CONTINUOUS
 10
-2.703724
 20
2.344748
  0
VERTEX
  8
AB0CF1H
 62
     3
  6
CONTINUOUS
 10
-2.659850
 20
2.370079
  0
SEQEND
  8
0
  0
POLYLINE
  8
AB0CF1H
 62
     3
  6
CONTINUOUS
 66
     1
 40
0.003000
 41
0.003000
  0
VERTEX
  8
AB0CF1H
 62
     3
  6
CONTINUOUS
 10
-2.703724
 20
2.123846
  0
VERTEX
  8
AB0CF1H
 62
     3
  6
CONTINUOUS
 10
-2.659850
 20
2.149177
  0
SEQEND
  8
0
  0
POLYLINE
  8
AB0CF1H
 62
     3
  6
CONTINUOUS
 66
     1
 40
0.003000
 41
0.003000
  0
VERTEX
  8
AB0CF1H
 62
     3
  6
CONTINUOUS
 10
-2.703724
 20
1.902945
  0
VERTEX
  8
AB0CF1H
 62
     3
  6
CONTINUOUS
 10
-2.659850
 20
1.928276
  0
SEQEND
  8
0
  0
POLYLINE
  8
AB0CF1H
 62
     3
  6
CONTINUOUS
 66
     1
 40
0.003000
 41
0.003000
  0
VERTEX
  8
AB0CF1H
 62
     3
  6
CONTINUOUS
 10
-2.703724
 20
1.682043
  0
VERTEX
  8
AB0CF1H
 62
     3
  6
CONTINUOUS
 10
-2.659850
 20
1.707374
  0
SEQEND
  8
0
  0
POLYLINE
  8
AB0CF1H
 62
     3
  6
CONTINUOUS
 66
     1
 40
0.003000
 41
0.003000
  0
VERTEX
  8
AB0CF1H
 62
     3
  6
CONTINUOUS
 10
-2.716720
 20
2.367252
  0
VERTEX
  8
AB0CF1H
 62
     3
  6
CONTINUOUS
 10
-2.672843
 20
2.392587
  0
SEQEND
  8
0
  0
POLYLINE
  8
AB0CF1H
 62
     3
  6
CONTINUOUS
 66
     1
 40
0.003000
 41
0.003000
  0
VERTEX
  8
AB0CF1H
 62
     3
  6
CONTINUOUS
 10
-2.716720
 20
2.146350
  0
VERTEX
  8
AB0CF1H
 62
     3
  6
CONTINUOUS
 10
-2.672843
 20
2.171685
  0
SEQEND
  8
0
  0
POLYLINE
  8
AB0CF1H
 62
     3
  6
CONTINUOUS
 66
     1
 40
0.003000
 41
0.003000
  0
VERTEX
  8
AB0CF1H
 62
     3
  6
CONTINUOUS
 10
-2.716720
 20
1.925449
  0
VERTEX
  8
AB0CF1H
 62
     3
  6
CONTINUOUS
 10
-2.672843
 20
1.950783
  0
SEQEND
  8
0
  0
POLYLINE
  8
AB0CF1H
 62
     3
  6
CONTINUOUS
 66
     1
 40
0.003000
 41
0.003000
  0
VERTEX
  8
AB0CF1H
 62
     3
  6
CONTINUOUS
 10
-2.716720
 20
1.704551
  0
VERTEX
  8
AB0CF1H
 62
     3
  6
CONTINUOUS
 10
-2.672843
 20
1.729882
  0
SEQEND
  8
0
  0
POLYLINE
  8
AB0CF1H
 62
     3
  6
CONTINUOUS
 66
     1
 40
0.003000
 41
0.003000
  0
VERTEX
  8
AB0CF1H
 62
     3
  6
CONTINUOUS
 10
-2.772043
 20
1.816087
  0
VERTEX
  8
AB0CF1H
 62
     3
  6
CONTINUOUS
 10
-2.460181
 20
1.816087
  0
SEQEND
  8
0
  0
POLYLINE
  8
AB0CF1H
 62
     3
  6
CONTINUOUS
 66
     1
 40
0.003000
 41
0.003000
  0
VERTEX
  8
AB0CF1H
 62
     3
  6
CONTINUOUS
 10
-2.772043
 20
2.036984
  0
VERTEX
  8
AB0CF1H
 62
     3
  6
CONTINUOUS
 10
-2.460181
 20
2.036984
  0
SEQEND
  8
0
  0
POLYLINE
  8
AB0CF1H
 62
     3
  6
CONTINUOUS
 66
     1
 40
0.003000
 41
0.003000
  0
VERTEX
  8
AB0CF1H
 62
     3
  6
CONTINUOUS
 10
-2.772043
 20
2.075969
  0
VERTEX
  8
AB0CF1H
 62
     3
  6
CONTINUOUS
 10
-2.460181
 20
2.075969
  0
SEQEND
  8
0
  0
POLYLINE
  8
AB0CF1H
 62
     3
  6
CONTINUOUS
 66
     1
 40
0.003000
 41
0.003000
  0
VERTEX
  8
AB0CF1H
 62
     3
  6
CONTINUOUS
 10
-2.772043
 20
1.595185
  0
VERTEX
  8
AB0CF1H
 62
     3
  6
CONTINUOUS
 10
-2.460181
 20
1.595185
  0
SEQEND
  8
0
  0
POLYLINE
  8
AB0CF1H
 62
     3
  6
CONTINUOUS
 66
     1
 40
0.003000
 41
0.003000
  0
VERTEX
  8
AB0CF1H
 62
     3
  6
CONTINUOUS
 10
-2.772043
 20
1.634165
  0
VERTEX
  8
AB0CF1H
 62
     3
  6
CONTINUOUS
 10
-2.460181
 20
1.634165
  0
SEQEND
  8
0
  0
POLYLINE
  8
AB0CF1H
 62
     3
  6
CONTINUOUS
 66
     1
 40
0.003000
 41
0.003000
  0
VERTEX
  8
AB0CF1H
 62
     3
  6
CONTINUOUS
 10
-2.772043
 20
1.855067
  0
VERTEX
  8
AB0CF1H
 62
     3
  6
CONTINUOUS
 10
-2.460181
 20
1.855067
  0
SEQEND
  8
0
  0
POLYLINE
  8
AB0CF1H
 62
     3
  6
CONTINUOUS
 66
     1
 40
0.003000
 41
0.003000
  0
VERTEX
  8
AB0CF1H
 62
     3
  6
CONTINUOUS
 10
0.944291
 20
1.283323
  0
VERTEX
  8
AB0CF1H
 62
     3
  6
CONTINUOUS
 10
0.710398
 20
1.283323
  0
SEQEND
  8
0
  0
POLYLINE
  8
AB0CF1H
 62
     3
  6
CONTINUOUS
 66
     1
 40
0.003000
 41
0.003000
  0
VERTEX
  8
AB0CF1H
 62
     3
  6
CONTINUOUS
 10
0.944291
 20
1.504224
  0
VERTEX
  8
AB0CF1H
 62
     3
  6
CONTINUOUS
 10
0.710398
 20
1.504224
  0
SEQEND
  8
0
  0
POLYLINE
  8
AB0CF1H
 62
     3
  6
CONTINUOUS
 66
     1
 40
0.003000
 41
0.003000
  0
VERTEX
  8
AB0CF1H
 62
     3
  6
CONTINUOUS
 10
1.088984
 20
1.401736
  0
VERTEX
  8
AB0CF1H
 62
     3
  6
CONTINUOUS
 10
0.921811
 20
1.283323
  0
SEQEND
  8
0
  0
POLYLINE
  8
AB0CF1H
 62
     3
  6
CONTINUOUS
 66
     1
 40
0.003000
 41
0.003000
  0
VERTEX
  8
AB0CF1H
 62
     3
  6
CONTINUOUS
 10
1.091232
 20
1.400142
  0
VERTEX
  8
AB0CF1H
 62
     3
  6
CONTINUOUS
 10
0.926307
 20
1.283323
  0
SEQEND
  8
0
  0
POLYLINE
  8
AB0CF1H
 62
     3
  6
CONTINUOUS
 66
     1
 40
0.003000
 41
0.003000
  0
VERTEX
  8
AB0CF1H
 62
     3
  6
CONTINUOUS
 10
1.093480
 20
1.398551
  0
VERTEX
  8
AB0CF1H
 62
     3
  6
CONTINUOUS
 10
0.930803
 20
1.283323
  0
SEQEND
  8
0
  0
POLYLINE
  8
AB0CF1H
 62
     3
  6
CONTINUOUS
 66
     1
 40
0.003000
 41
0.003000
  0
VERTEX
  8
AB0CF1H
 62
     3
  6
CONTINUOUS
 10
1.095728
 20
1.396957
  0
VERTEX
  8
AB0CF1H
 62
     3
  6
CONTINUOUS
 10
0.935299
 20
1.283323
  0
SEQEND
  8
0
  0
POLYLINE
  8
AB0CF1H
 62
     3
  6
CONTINUOUS
 66
     1
 40
0.003000
 41
0.003000
  0
VERTEX
  8
AB0CF1H
 62
     3
  6
CONTINUOUS
 10
1.097976
 20
1.395366
  0
VERTEX
  8
AB0CF1H
 62
     3
  6
CONTINUOUS
 10
0.939795
 20
1.283323
  0
SEQEND
  8
0
  0
POLYLINE
  8
AB0CF1H
 62
     3
  6
CONTINUOUS
 66
     1
 40
0.003000
 41
0.003000
  0
VERTEX
  8
AB0CF1H
 62
     3
  6
CONTINUOUS
 10
1.100224
 20
1.393772
  0
VERTEX
  8
AB0CF1H
 62
     3
  6
CONTINUOUS
 10
0.944291
 20
1.283323
  0
SEQEND
  8
0
  0
POLYLINE
  8
AB0CF1H
 62
     3
  6
CONTINUOUS
 66
     1
 40
0.003000
 41
0.003000
  0
VERTEX
  8
AB0CF1H
 62
     3
  6
CONTINUOUS
 10
0.944291
 20
1.504224
  0
VERTEX
  8
AB0CF1H
 62
     3
  6
CONTINUOUS
 10
1.100224
 20
1.393772
  0
SEQEND
  8
0
  0
POLYLINE
  8
AB0CF1H
 62
     3
  6
CONTINUOUS
 66
     1
 40
0.003000
 41
0.003000
  0
VERTEX
  8
AB0CF1H
 62
     3
  6
CONTINUOUS
 10
0.112665
 20
1.229008
  0
VERTEX
  8
AB0CF1H
 62
     3
  6
CONTINUOUS
 10
0.242606
 20
1.229008
  0
SEQEND
  8
0
  0
POLYLINE
  8
AB0CF1H
 62
     3
  6
CONTINUOUS
 66
     1
 40
0.003000
 41
0.003000
  0
VERTEX
  8
AB0CF1H
 62
     3
  6
CONTINUOUS
 10
0.112665
 20
1.631827
  0
VERTEX
  8
AB0CF1H
 62
     3
  6
CONTINUOUS
 10
0.242606
 20
1.631827
  0
SEQEND
  8
0
  0
POLYLINE
  8
AB0CF1H
 62
     3
  6
CONTINUOUS
 66
     1
 40
0.003000
 41
0.003000
  0
VERTEX
  8
AB0CF1H
 62
     3
  6
CONTINUOUS
 10
0.112665
 20
1.761638
  0
VERTEX
  8
AB0CF1H
 62
     3
  6
CONTINUOUS
 10
0.242606
 20
1.761638
  0
SEQEND
  8
0
  0
POLYLINE
  8
AB0CF1H
 62
     3
  6
CONTINUOUS
 66
     1
 40
0.003000
 41
0.003000
  0
VERTEX
  8
AB0CF1H
 62
     3
  6
CONTINUOUS
 10
0.112665
 20
2.083894
  0
VERTEX
  8
AB0CF1H
 62
     3
  6
CONTINUOUS
 10
0.242606
 20
2.083894
  0
SEQEND
  8
0
  0
POLYLINE
  8
AB0CF1H
 62
     3
  6
CONTINUOUS
 66
     1
 40
0.003000
 41
0.003000
  0
VERTEX
  8
AB0CF1H
 62
     3
  6
CONTINUOUS
 10
0.112665
 20
2.795846
  0
VERTEX
  8
AB0CF1H
 62
     3
  6
CONTINUOUS
 10
0.242606
 20
2.795846
  0
SEQEND
  8
0
  0
POLYLINE
  8
AB0CF1H
 62
     3
  6
CONTINUOUS
 66
     1
 40
0.003000
 41
0.003000
  0
VERTEX
  8
AB0CF1H
 62
     3
  6
CONTINUOUS
 10
0.112665
 20
3.037539
  0
VERTEX
  8
AB0CF1H
 62
     3
  6
CONTINUOUS
 10
0.242606
 20
3.037539
  0
SEQEND
  8
0
  0
POLYLINE
  8
AB0CF1H
 62
     3
  6
CONTINUOUS
 66
     1
 40
0.003000
 41
0.003000
  0
VERTEX
  8
AB0CF1H
 62
     3
  6
CONTINUOUS
 10
0.112665
 20
2.665906
  0
VERTEX
  8
AB0CF1H
 62
     3
  6
CONTINUOUS
 10
0.112665
 20
2.504776
  0
SEQEND
  8
0
  0
POLYLINE
  8
AB0CF1H
 62
     3
  6
CONTINUOUS
 66
     1
 40
0.003000
 41
0.003000
  0
VERTEX
  8
AB0CF1H
 62
     3
  6
CONTINUOUS
 10
0.242606
 20
2.665906
  0
VERTEX
  8
AB0CF1H
 62
     3
  6
CONTINUOUS
 10
0.242606
 20
2.504776
  0
SEQEND
  8
0
  0
POLYLINE
  8
AB0CF1H
 62
     3
  6
CONTINUOUS
 66
     1
 40
0.003000
 41
0.003000
  0
VERTEX
  8
AB0CF1H
 62
     3
  6
CONTINUOUS
 10
0.112665
 20
2.374835
  0
VERTEX
  8
AB0CF1H
 62
     3
  6
CONTINUOUS
 10
0.112665
 20
2.213705
  0
SEQEND
  8
0
  0
POLYLINE
  8
AB0CF1H
 62
     3
  6
CONTINUOUS
 66
     1
 40
0.003000
 41
0.003000
  0
VERTEX
  8
AB0CF1H
 62
     3
  6
CONTINUOUS
 10
0.242606
 20
2.374835
  0
VERTEX
  8
AB0CF1H
 62
     3
  6
CONTINUOUS
 10
0.242606
 20
2.213705
  0
SEQEND
  8
0
  0
POLYLINE
  8
AB0CF1H
 62
     3
  6
CONTINUOUS
 66
     1
 40
0.003000
 41
0.003000
  0
VERTEX
  8
AB0CF1H
 62
     3
  6
CONTINUOUS
 10
0.112665
 20
2.083894
  0
VERTEX
  8
AB0CF1H
 62
     3
  6
CONTINUOUS
 10
0.112665
 20
1.761638
  0
SEQEND
  8
0
  0
POLYLINE
  8
AB0CF1H
 62
     3
  6
CONTINUOUS
 66
     1
 40
0.003000
 41
0.003000
  0
VERTEX
  8
AB0CF1H
 62
     3
  6
CONTINUOUS
 10
0.242606
 20
2.083894
  0
VERTEX
  8
AB0CF1H
 62
     3
  6
CONTINUOUS
 10
0.242606
 20
1.761638
  0
SEQEND
  8
0
  0
POLYLINE
  8
AB0CF1H
 62
     3
  6
CONTINUOUS
 66
     1
 40
0.003000
 41
0.003000
  0
VERTEX
  8
AB0CF1H
 62
     3
  6
CONTINUOUS
 10
0.112665
 20
3.037539
  0
VERTEX
  8
AB0CF1H
 62
     3
  6
CONTINUOUS
 10
0.112665
 20
2.795846
  0
SEQEND
  8
0
  0
POLYLINE
  8
AB0CF1H
 62
     3
  6
CONTINUOUS
 66
     1
 40
0.003000
 41
0.003000
  0
VERTEX
  8
AB0CF1H
 62
     3
  6
CONTINUOUS
 10
0.242606
 20
3.037539
  0
VERTEX
  8
AB0CF1H
 62
     3
  6
CONTINUOUS
 10
0.242606
 20
2.795846
  0
SEQEND
  8
0
  0
POLYLINE
  8
AB0CF1H
 62
     3
  6
CONTINUOUS
 66
     1
 40
0.003000
 41
0.003000
  0
VERTEX
  8
AB0CF1H
 62
     3
  6
CONTINUOUS
 10
0.112665
 20
2.374835
  0
VERTEX
  8
AB0CF1H
 62
     3
  6
CONTINUOUS
 10
0.242606
 20
2.374835
  0
SEQEND
  8
0
  0
POLYLINE
  8
AB0CF1H
 62
     3
  6
CONTINUOUS
 66
     1
 40
0.003000
 41
0.003000
  0
VERTEX
  8
AB0CF1H
 62
     3
  6
CONTINUOUS
 10
0.112665
 20
2.665906
  0
VERTEX
  8
AB0CF1H
 62
     3
  6
CONTINUOUS
 10
0.242606
 20
2.665906
  0
SEQEND
  8
0
  0
POLYLINE
  8
AB0CF1H
 62
     3
  6
CONTINUOUS
 66
     1
 40
0.003000
 41
0.003000
  0
VERTEX
  8
AB0CF1H
 62
     3
  6
CONTINUOUS
 10
0.112665
 20
1.631827
  0
VERTEX
  8
AB0CF1H
 62
     3
  6
CONTINUOUS
 10
0.112665
 20
1.229008
  0
SEQEND
  8
0
  0
POLYLINE
  8
AB0CF1H
 62
     3
  6
CONTINUOUS
 66
     1
 40
0.003000
 41
0.003000
  0
VERTEX
  8
AB0CF1H
 62
     3
  6
CONTINUOUS
 10
0.242606
 20
1.631827
  0
VERTEX
  8
AB0CF1H
 62
     3
  6
CONTINUOUS
 10
0.242606
 20
1.229008
  0
SEQEND
  8
0
  0
POLYLINE
  8
AB0CF1H
 62
     3
  6
CONTINUOUS
 66
     1
 40
0.003000
 41
0.003000
  0
VERTEX
  8
AB0CF1H
 62
     3
  6
CONTINUOUS
 10
0.112665
 20
2.213705
  0
VERTEX
  8
AB0CF1H
 62
     3
  6
CONTINUOUS
 10
0.242606
 20
2.213705
  0
SEQEND
  8
0
  0
POLYLINE
  8
AB0CF1H
 62
     3
  6
CONTINUOUS
 66
     1
 40
0.003000
 41
0.003000
  0
VERTEX
  8
AB0CF1H
 62
     3
  6
CONTINUOUS
 10
0.112665
 20
2.504776
  0
VERTEX
  8
AB0CF1H
 62
     3
  6
CONTINUOUS
 10
0.242606
 20
2.504776
  0
SEQEND
  8
0
  0
POLYLINE
  8
AB0CF1H
 62
     3
  6
CONTINUOUS
 66
     1
 40
0.003000
 41
0.003000
  0
VERTEX
  8
AB0CF1H
 62
     3
  6
CONTINUOUS
 10
2.499492
 20
1.111055
  0
VERTEX
  8
AB0CF1H
 62
     3
  6
CONTINUOUS
 10
2.524827
 20
1.067177
  0
SEQEND
  8
0
  0
POLYLINE
  8
AB0CF1H
 62
     3
  6
CONTINUOUS
 66
     1
 40
0.003000
 41
0.003000
  0
VERTEX
  8
AB0CF1H
 62
     3
  6
CONTINUOUS
 10
2.560327
 20
1.057665
  0
VERTEX
  8
AB0CF1H
 62
     3
  6
CONTINUOUS
 10
2.604201
 20
1.082996
  0
SEQEND
  8
0
  0
POLYLINE
  8
AB0CF1H
 62
     3
  6
CONTINUOUS
 66
     1
 40
0.003000
 41
0.003000
  0
VERTEX
  8
AB0CF1H
 62
     3
  6
CONTINUOUS
 10
2.547335
 20
1.080173
  0
VERTEX
  8
AB0CF1H
 62
     3
  6
CONTINUOUS
 10
2.591209
 20
1.105504
  0
SEQEND
  8
0
  0
POLYLINE
  8
AB0CF1H
 62
     3
  6
CONTINUOUS
 66
     1
 40
0.003000
 41
0.003000
  0
VERTEX
  8
AB0CF1H
 62
     3
  6
CONTINUOUS
 10
2.537819
 20
1.044673
  0
VERTEX
  8
AB0CF1H
 62
     3
  6
CONTINUOUS
 10
2.563150
 20
1.000795
  0
SEQEND
  8
0
  0
POLYLINE
  8
AB0CF1H
 62
     3
  6
CONTINUOUS
 66
     1
 40
0.003000
 41
0.003000
  0
VERTEX
  8
AB0CF1H
 62
     3
  6
CONTINUOUS
 10
2.560327
 20
1.057665
  0
VERTEX
  8
AB0CF1H
 62
     3
  6
CONTINUOUS
 10
2.585661
 20
1.013787
  0
SEQEND
  8
0
  0
POLYLINE
  8
AB0CF1H
 62
     3
  6
CONTINUOUS
 66
     1
 40
0.003000
 41
0.003000
  0
VERTEX
  8
AB0CF1H
 62
     3
  6
CONTINUOUS
 10
2.493945
 20
1.019339
  0
VERTEX
  8
AB0CF1H
 62
     3
  6
CONTINUOUS
 10
2.537819
 20
1.044673
  0
SEQEND
  8
0
  0
POLYLINE
  8
AB0CF1H
 62
     3
  6
CONTINUOUS
 66
     1
 40
0.003000
 41
0.003000
  0
VERTEX
  8
AB0CF1H
 62
     3
  6
CONTINUOUS
 10
2.480949
 20
1.041846
  0
VERTEX
  8
AB0CF1H
 62
     3
  6
CONTINUOUS
 10
2.524827
 20
1.067177
  0
SEQEND
  8
0
  0
TEXT
  8
AB0CF1H
 10
2.638083
 20
1.014343
 40
0.083603
  1
20
 41
1.000000
  7
SN0
 71
     0
 72
     5
 11
2.745173
 21
1.014343
  0
POLYLINE
  8
AB0CF1H
 62
     1
  6
CONTINUOUS
 66
     1
 40
0.003000
 41
0.003000
  0
VERTEX
  8
AB0CF1H
 62
     1
  6
CONTINUOUS
 10
2.339067
 20
1.869319
  0
VERTEX
  8
AB0CF1H
 62
     1
  6
CONTINUOUS
 10
2.302028
 20
1.583594
  0
SEQEND
  8
0
  0
POLYLINE
  8
AB0CF1H
 62
     1
  6
CONTINUOUS
 66
     1
 40
0.003000
 41
0.003000
  0
VERTEX
  8
AB0CF1H
 62
     1
  6
CONTINUOUS
 10
2.302028
 20
1.583594
  0
VERTEX
  8
AB0CF1H
 62
     1
  6
CONTINUOUS
 10
2.296736
 20
1.271413
  0
SEQEND
  8
0
  0
POLYLINE
  8
AB0CF1H
 62
     1
  6
CONTINUOUS
 66
     1
 40
0.003000
 41
0.003000
  0
VERTEX
  8
AB0CF1H
 62
     1
  6
CONTINUOUS
 10
2.296736
 20
1.271413
  0
VERTEX
  8
AB0CF1H
 62
     1
  6
CONTINUOUS
 10
2.302370
 20
0.854516
  0
SEQEND
  8
0
  0
TEXT
  8
AB0CF1H
 10
-2.146890
 20
2.370417
 40
0.083603
  1
  C1
 41
1.000000
  7
SN0
 71
     0
 72
     5
 11
-1.964835
 21
2.370417
  0
TEXT
  8
AB0CF1H
 10
-2.146890
 20
2.245673
 40
0.083603
  1
Servo
 41
1.000000
  7
SN0
 71
     0
 72
     5
 11
-1.917854
 21
2.245673
  0
TEXT
  8
AB0CF1H
 10
-1.520051
 20
1.677047
 40
0.083603
  1
7
 41
1.000000
  7
SN0
 71
     0
 72
     5
 11
-1.466506
 21
1.677047
  0
TEXT
  8
AB0CF1H
 10
-1.520051
 20
1.897949
 40
0.083603
  1
6
 41
1.000000
  7
SN0
 71
     0
 72
     5
 11
-1.466506
 21
1.897949
  0
TEXT
  8
AB0CF1H
 10
-1.520051
 20
2.118850
 40
0.083603
  1
5
 41
1.000000
  7
SN0
 71
     0
 72
     5
 11
-1.466506
 21
2.118850
  0
TEXT
  8
AB0CF1H
 10
-1.520051
 20
2.339748
 40
0.083603
  1
4
 41
1.000000
  7
SN0
 71
     0
 72
     5
 11
-1.466506
 21
2.339748
  0
POLYLINE
  8
AB0CF1H
 62
     3
  6
CONTINUOUS
 66
     1
 40
0.003000
 41
0.003000
 70
     1
  0
VERTEX
  8
AB0CF1H
 62
     3
  6
CONTINUOUS
 10
-1.615559
 20
2.452795
  0
VERTEX
  8
AB0CF1H
 62
     3
  6
CONTINUOUS
 10
-1.651650
 20
2.443189
  0
VERTEX
  8
AB0CF1H
 62
     3
  6
CONTINUOUS
 10
-1.673306
 20
2.419125
  0
VERTEX
  8
AB0CF1H
 62
     3
  6
CONTINUOUS
 10
-1.680526
 20
2.387830
  0
VERTEX
  8
AB0CF1H
 62
     3
  6
CONTINUOUS
 10
-1.673309
 20
2.356535
  0
VERTEX
  8
AB0CF1H
 62
     3
  6
CONTINUOUS
 10
-1.651655
 20
2.332470
  0
VERTEX
  8
AB0CF1H
 62
     3
  6
CONTINUOUS
 10
-1.615563
 20
2.322862
  0
VERTEX
  8
AB0CF1H
 62
     3
  6
CONTINUOUS
 10
-1.579471
 20
2.332463
  0
VERTEX
  8
AB0CF1H
 62
     3
  6
CONTINUOUS
 10
-1.557814
 20
2.356525
  0
VERTEX
  8
AB0CF1H
 62
     3
  6
CONTINUOUS
 10
-1.550592
 20
2.387818
  0
VERTEX
  8
AB0CF1H
 62
     3
  6
CONTINUOUS
 10
-1.557806
 20
2.419113
  0
VERTEX
  8
AB0CF1H
 62
     3
  6
CONTINUOUS
 10
-1.579458
 20
2.443181
  0
VERTEX
  8
AB0CF1H
 62
     3
  6
CONTINUOUS
 10
-1.615547
 20
2.452791
  0
VERTEX
  8
AB0CF1H
 62
     3
  6
CONTINUOUS
 10
-1.615550
 20
2.452792
  0
VERTEX
  8
AB0CF1H
 62
     3
  6
CONTINUOUS
 10
-1.615556
 20
2.452794
  0
SEQEND
  8
0
  0
POLYLINE
  8
AB0CF1H
 62
     3
  6
CONTINUOUS
 66
     1
 40
0.003000
 41
0.003000
 70
     1
  0
VERTEX
  8
AB0CF1H
 62
     3
  6
CONTINUOUS
 10
-1.615559
 20
2.231898
  0
VERTEX
  8
AB0CF1H
 62
     3
  6
CONTINUOUS
 10
-1.651650
 20
2.222292
  0
VERTEX
  8
AB0CF1H
 62
     3
  6
CONTINUOUS
 10
-1.673306
 20
2.198227
  0
VERTEX
  8
AB0CF1H
 62
     3
  6
CONTINUOUS
 10
-1.680526
 20
2.166933
  0
VERTEX
  8
AB0CF1H
 62
     3
  6
CONTINUOUS
 10
-1.673309
 20
2.135638
  0
VERTEX
  8
AB0CF1H
 62
     3
  6
CONTINUOUS
 10
-1.651655
 20
2.111572
  0
VERTEX
  8
AB0CF1H
 62
     3
  6
CONTINUOUS
 10
-1.615563
 20
2.101965
  0
VERTEX
  8
AB0CF1H
 62
     3
  6
CONTINUOUS
 10
-1.579471
 20
2.111565
  0
VERTEX
  8
AB0CF1H
 62
     3
  6
CONTINUOUS
 10
-1.557814
 20
2.135627
  0
VERTEX
  8
AB0CF1H
 62
     3
  6
CONTINUOUS
 10
-1.550592
 20
2.166920
  0
VERTEX
  8
AB0CF1H
 62
     3
  6
CONTINUOUS
 10
-1.557806
 20
2.198215
  0
VERTEX
  8
AB0CF1H
 62
     3
  6
CONTINUOUS
 10
-1.579458
 20
2.222283
  0
VERTEX
  8
AB0CF1H
 62
     3
  6
CONTINUOUS
 10
-1.615547
 20
2.231894
  0
VERTEX
  8
AB0CF1H
 62
     3
  6
CONTINUOUS
 10
-1.615550
 20
2.231895
  0
VERTEX
  8
AB0CF1H
 62
     3
  6
CONTINUOUS
 10
-1.615556
 20
2.231897
  0
SEQEND
  8
0
  0
POLYLINE
  8
AB0CF1H
 62
     3
  6
CONTINUOUS
 66
     1
 40
0.003000
 41
0.003000
 70
     1
  0
VERTEX
  8
AB0CF1H
 62
     3
  6
CONTINUOUS
 10
-1.615559
 20
2.010996
  0
VERTEX
  8
AB0CF1H
 62
     3
  6
CONTINUOUS
 10
-1.651650
 20
2.001390
  0
VERTEX
  8
AB0CF1H
 62
     3
  6
CONTINUOUS
 10
-1.673306
 20
1.977325
  0
VERTEX
  8
AB0CF1H
 62
     3
  6
CONTINUOUS
 10
-1.680526
 20
1.946031
  0
VERTEX
  8
AB0CF1H
 62
     3
  6
CONTINUOUS
 10
-1.673309
 20
1.914736
  0
VERTEX
  8
AB0CF1H
 62
     3
  6
CONTINUOUS
 10
-1.651655
 20
1.890670
  0
VERTEX
  8
AB0CF1H
 62
     3
  6
CONTINUOUS
 10
-1.615563
 20
1.881063
  0
VERTEX
  8
AB0CF1H
 62
     3
  6
CONTINUOUS
 10
-1.579471
 20
1.890664
  0
VERTEX
  8
AB0CF1H
 62
     3
  6
CONTINUOUS
 10
-1.557814
 20
1.914726
  0
VERTEX
  8
AB0CF1H
 62
     3
  6
CONTINUOUS
 10
-1.550592
 20
1.946019
  0
VERTEX
  8
AB0CF1H
 62
     3
  6
CONTINUOUS
 10
-1.557806
 20
1.977314
  0
VERTEX
  8
AB0CF1H
 62
     3
  6
CONTINUOUS
 10
-1.579458
 20
2.001381
  0
VERTEX
  8
AB0CF1H
 62
     3
  6
CONTINUOUS
 10
-1.615547
 20
2.010992
  0
VERTEX
  8
AB0CF1H
 62
     3
  6
CONTINUOUS
 10
-1.615550
 20
2.010993
  0
VERTEX
  8
AB0CF1H
 62
     3
  6
CONTINUOUS
 10
-1.615556
 20
2.010995
  0
SEQEND
  8
0
  0
POLYLINE
  8
AB0CF1H
 62
     3
  6
CONTINUOUS
 66
     1
 40
0.003000
 41
0.003000
 70
     1
  0
VERTEX
  8
AB0CF1H
 62
     3
  6
CONTINUOUS
 10
-1.615559
 20
1.790094
  0
VERTEX
  8
AB0CF1H
 62
     3
  6
CONTINUOUS
 10
-1.651650
 20
1.780489
  0
VERTEX
  8
AB0CF1H
 62
     3
  6
CONTINUOUS
 10
-1.673306
 20
1.756424
  0
VERTEX
  8
AB0CF1H
 62
     3
  6
CONTINUOUS
 10
-1.680526
 20
1.725129
  0
VERTEX
  8
AB0CF1H
 62
     3
  6
CONTINUOUS
 10
-1.673309
 20
1.693835
  0
VERTEX
  8
AB0CF1H
 62
     3
  6
CONTINUOUS
 10
-1.651655
 20
1.669769
  0
VERTEX
  8
AB0CF1H
 62
     3
  6
CONTINUOUS
 10
-1.615563
 20
1.660161
  0
VERTEX
  8
AB0CF1H
 62
     3
  6
CONTINUOUS
 10
-1.579471
 20
1.669762
  0
VERTEX
  8
AB0CF1H
 62
     3
  6
CONTINUOUS
 10
-1.557814
 20
1.693824
  0
VERTEX
  8
AB0CF1H
 62
     3
  6
CONTINUOUS
 10
-1.550592
 20
1.725117
  0
VERTEX
  8
AB0CF1H
 62
     3
  6
CONTINUOUS
 10
-1.557806
 20
1.756412
  0
VERTEX
  8
AB0CF1H
 62
     3
  6
CONTINUOUS
 10
-1.579458
 20
1.780480
  0
VERTEX
  8
AB0CF1H
 62
     3
  6
CONTINUOUS
 10
-1.615547
 20
1.790091
  0
VERTEX
  8
AB0CF1H
 62
     3
  6
CONTINUOUS
 10
-1.615550
 20
1.790092
  0
VERTEX
  8
AB0CF1H
 62
     3
  6
CONTINUOUS
 10
-1.615556
 20
1.790093
  0
SEQEND
  8
0
  0
TEXT
  8
AB0CF1H
 10
2.820783
 20
1.367134
 40
0.083603
  1
DC (V)
 41
1.000000
  7
SN0
 71
     0
 72
     5
 11
3.146547
 21
1.367134
  0
POLYLINE
  8
AB0CF1H
 62
     3
  6
CONTINUOUS
 66
     1
 40
0.003000
 41
0.003000
  0
VERTEX
  8
AB0CF1H
 62
     3
  6
CONTINUOUS
 10
2.737488
 20
0.854516
  0
VERTEX
  8
AB0CF1H
 62
     3
  6
CONTINUOUS
 10
2.302370
 20
0.854516
  0
SEQEND
  8
0
  0
POLYLINE
  8
AB0CF1H
 62
     3
  6
CONTINUOUS
 66
     1
 40
0.003000
 41
0.003000
  0
VERTEX
  8
AB0CF1H
 62
     3
  6
CONTINUOUS
 10
2.300965
 20
0.958469
  0
VERTEX
  8
AB0CF1H
 62
     3
  6
CONTINUOUS
 10
2.737488
 20
0.958469
  0
SEQEND
  8
0
  0
POLYLINE
  8
AB0CF1H
 62
     3
  6
CONTINUOUS
 66
     1
 40
0.003000
 41
0.003000
  0
VERTEX
  8
AB0CF1H
 62
     3
  6
CONTINUOUS
 10
2.425630
 20
1.192362
  0
VERTEX
  8
AB0CF1H
 62
     3
  6
CONTINUOUS
 10
2.737488
 20
1.192362
  0
SEQEND
  8
0
  0
POLYLINE
  8
AB0CF1H
 62
     3
  6
CONTINUOUS
 66
     1
 40
0.003000
 41
0.003000
  0
VERTEX
  8
AB0CF1H
 62
     3
  6
CONTINUOUS
 10
2.298331
 20
1.153382
  0
VERTEX
  8
AB0CF1H
 62
     3
  6
CONTINUOUS
 10
2.737488
 20
1.153382
  0
SEQEND
  8
0
  0
POLYLINE
  8
AB0CF1H
 62
     3
  6
CONTINUOUS
 66
     1
 40
0.003000
 41
0.003000
  0
VERTEX
  8
AB0CF1H
 62
     3
  6
CONTINUOUS
 10
-2.096343
 20
1.725126
  0
VERTEX
  8
AB0CF1H
 62
     3
  6
CONTINUOUS
 10
-1.732508
 20
1.725126
  0
SEQEND
  8
0
  0
POLYLINE
  8
AB0CF1H
 62
     3
  6
CONTINUOUS
 66
     1
 40
0.003000
 41
0.003000
  0
VERTEX
  8
AB0CF1H
 62
     3
  6
CONTINUOUS
 10
-2.096343
 20
1.725126
  0
VERTEX
  8
AB0CF1H
 62
     3
  6
CONTINUOUS
 10
-2.096343
 20
1.998004
  0
SEQEND
  8
0
  0
POLYLINE
  8
AB0CF1H
 62
     3
  6
CONTINUOUS
 66
     1
 40
0.003000
 41
0.003000
  0
VERTEX
  8
AB0CF1H
 62
     3
  6
CONTINUOUS
 10
-2.096343
 20
1.998004
  0
VERTEX
  8
AB0CF1H
 62
     3
  6
CONTINUOUS
 10
-2.148319
 20
2.114949
  0
SEQEND
  8
0
  0
POLYLINE
  8
AB0CF1H
 62
     3
  6
CONTINUOUS
 66
     1
 40
0.003000
 41
0.003000
  0
VERTEX
  8
AB0CF1H
 62
     3
  6
CONTINUOUS
 10
-2.096343
 20
2.114949
  0
VERTEX
  8
AB0CF1H
 62
     3
  6
CONTINUOUS
 10
-2.096343
 20
2.166929
  0
SEQEND
  8
0
  0
POLYLINE
  8
AB0CF1H
 62
     3
  6
CONTINUOUS
 66
     1
 40
0.003000
 41
0.003000
  0
VERTEX
  8
AB0CF1H
 62
     3
  6
CONTINUOUS
 10
-1.732508
 20
1.545583
  0
VERTEX
  8
AB0CF1H
 62
     3
  6
CONTINUOUS
 10
-1.732508
 20
2.546736
  0
SEQEND
  8
0
  0
POLYLINE
  8
AB0CF1H
 62
     3
  6
CONTINUOUS
 66
     1
 40
0.003000
 41
0.003000
  0
VERTEX
  8
AB0CF1H
 62
     3
  6
CONTINUOUS
 10
-1.420646
 20
2.445055
  0
VERTEX
  8
AB0CF1H
 62
     3
  6
CONTINUOUS
 10
-1.420646
 20
1.594874
  0
SEQEND
  8
0
  0
POLYLINE
  8
AB0CF1H
 62
     3
  6
CONTINUOUS
 66
     1
 40
0.003000
 41
0.003000
  0
VERTEX
  8
AB0CF1H
 62
     3
  6
CONTINUOUS
 10
-1.597807
 20
1.720370
  0
VERTEX
  8
AB0CF1H
 62
     3
  6
CONTINUOUS
 10
-1.572476
 20
1.676492
  0
SEQEND
  8
0
  0
POLYLINE
  8
AB0CF1H
 62
     3
  6
CONTINUOUS
 66
     1
 40
0.003000
 41
0.003000
  0
VERTEX
  8
AB0CF1H
 62
     3
  6
CONTINUOUS
 10
-1.597807
 20
1.941272
  0
VERTEX
  8
AB0CF1H
 62
     3
  6
CONTINUOUS
 10
-1.572476
 20
1.897394
  0
SEQEND
  8
0
  0
POLYLINE
  8
AB0CF1H
 62
     3
  6
CONTINUOUS
 66
     1
 40
0.003000
 41
0.003000
  0
VERTEX
  8
AB0CF1H
 62
     3
  6
CONTINUOUS
 10
-1.597807
 20
2.162173
  0
VERTEX
  8
AB0CF1H
 62
     3
  6
CONTINUOUS
 10
-1.572476
 20
2.118295
  0
SEQEND
  8
0
  0
POLYLINE
  8
AB0CF1H
 62
     3
  6
CONTINUOUS
 66
     1
 40
0.003000
 41
0.003000
  0
VERTEX
  8
AB0CF1H
 62
     3
  6
CONTINUOUS
 10
-1.597807
 20
2.383075
  0
VERTEX
  8
AB0CF1H
 62
     3
  6
CONTINUOUS
 10
-1.572476
 20
2.339197
  0
SEQEND
  8
0
  0
POLYLINE
  8
AB0CF1H
 62
     3
  6
CONTINUOUS
 66
     1
 40
0.003000
 41
0.003000
  0
VERTEX
  8
AB0CF1H
 62
     3
  6
CONTINUOUS
 10
-1.620315
 20
1.707374
  0
VERTEX
  8
AB0CF1H
 62
     3
  6
CONTINUOUS
 10
-1.594984
 20
1.663496
  0
SEQEND
  8
0
  0
POLYLINE
  8
AB0CF1H
 62
     3
  6
CONTINUOUS
 66
     1
 40
0.003000
 41
0.003000
  0
VERTEX
  8
AB0CF1H
 62
     3
  6
CONTINUOUS
 10
-1.620315
 20
1.928276
  0
VERTEX
  8
AB0CF1H
 62
     3
  6
CONTINUOUS
 10
-1.594984
 20
1.884398
  0
SEQEND
  8
0
  0
POLYLINE
  8
AB0CF1H
 62
     3
  6
CONTINUOUS
 66
     1
 40
0.003000
 41
0.003000
  0
VERTEX
  8
AB0CF1H
 62
     3
  6
CONTINUOUS
 10
-1.620315
 20
2.149177
  0
VERTEX
  8
AB0CF1H
 62
     3
  6
CONTINUOUS
 10
-1.594984
 20
2.105299
  0
SEQEND
  8
0
  0
POLYLINE
  8
AB0CF1H
 62
     3
  6
CONTINUOUS
 66
     1
 40
0.003000
 41
0.003000
  0
VERTEX
  8
AB0CF1H
 62
     3
  6
CONTINUOUS
 10
-1.620315
 20
2.370079
  0
VERTEX
  8
AB0CF1H
 62
     3
  6
CONTINUOUS
 10
-1.594984
 20
2.326201
  0
SEQEND
  8
0
  0
POLYLINE
  8
AB0CF1H
 62
     3
  6
CONTINUOUS
 66
     1
 40
0.003000
 41
0.003000
  0
VERTEX
  8
AB0CF1H
 62
     3
  6
CONTINUOUS
 10
-1.610803
 20
1.742878
  0
VERTEX
  8
AB0CF1H
 62
     3
  6
CONTINUOUS
 10
-1.566925
 20
1.768209
  0
SEQEND
  8
0
  0
POLYLINE
  8
AB0CF1H
 62
     3
  6
CONTINUOUS
 66
     1
 40
0.003000
 41
0.003000
  0
VERTEX
  8
AB0CF1H
 62
     3
  6
CONTINUOUS
 10
-1.610803
 20
1.963776
  0
VERTEX
  8
AB0CF1H
 62
     3
  6
CONTINUOUS
 10
-1.566925
 20
1.989110
  0
SEQEND
  8
0
  0
POLYLINE
  8
AB0CF1H
 62
     3
  6
CONTINUOUS
 66
     1
 40
0.003000
 41
0.003000
  0
VERTEX
  8
AB0CF1H
 62
     3
  6
CONTINUOUS
 10
-1.610803
 20
2.184677
  0
VERTEX
  8
AB0CF1H
 62
     3
  6
CONTINUOUS
 10
-1.566925
 20
2.210012
  0
SEQEND
  8
0
  0
POLYLINE
  8
AB0CF1H
 62
     3
  6
CONTINUOUS
 66
     1
 40
0.003000
 41
0.003000
  0
VERTEX
  8
AB0CF1H
 62
     3
  6
CONTINUOUS
 10
-1.610803
 20
2.405579
  0
VERTEX
  8
AB0CF1H
 62
     3
  6
CONTINUOUS
 10
-1.566925
 20
2.430909
  0
SEQEND
  8
0
  0
POLYLINE
  8
AB0CF1H
 62
     3
  6
CONTINUOUS
 66
     1
 40
0.003000
 41
0.003000
  0
VERTEX
  8
AB0CF1H
 62
     3
  6
CONTINUOUS
 10
-1.597807
 20
1.720370
  0
VERTEX
  8
AB0CF1H
 62
     3
  6
CONTINUOUS
 10
-1.553933
 20
1.745701
  0
SEQEND
  8
0
  0
POLYLINE
  8
AB0CF1H
 62
     3
  6
CONTINUOUS
 66
     1
 40
0.003000
 41
0.003000
  0
VERTEX
  8
AB0CF1H
 62
     3
  6
CONTINUOUS
 10
-1.597807
 20
1.941272
  0
VERTEX
  8
AB0CF1H
 62
     3
  6
CONTINUOUS
 10
-1.553933
 20
1.966602
  0
SEQEND
  8
0
  0
POLYLINE
  8
AB0CF1H
 62
     3
  6
CONTINUOUS
 66
     1
 40
0.003000
 41
0.003000
  0
VERTEX
  8
AB0CF1H
 62
     3
  6
CONTINUOUS
 10
-1.597807
 20
2.162173
  0
VERTEX
  8
AB0CF1H
 62
     3
  6
CONTINUOUS
 10
-1.553933
 20
2.187504
  0
SEQEND
  8
0
  0
POLYLINE
  8
AB0CF1H
 62
     3
  6
CONTINUOUS
 66
     1
 40
0.003000
 41
0.003000
  0
VERTEX
  8
AB0CF1H
 62
     3
  6
CONTINUOUS
 10
-1.597807
 20
2.383075
  0
VERTEX
  8
AB0CF1H
 62
     3
  6
CONTINUOUS
 10
-1.553933
 20
2.408406
  0
SEQEND
  8
0
  0
POLYLINE
  8
AB0CF1H
 62
     3
  6
CONTINUOUS
 66
     1
 40
0.003000
 41
0.003000
  0
VERTEX
  8
AB0CF1H
 62
     3
  6
CONTINUOUS
 10
-1.658642
 20
1.773760
  0
VERTEX
  8
AB0CF1H
 62
     3
  6
CONTINUOUS
 10
-1.633311
 20
1.729882
  0
SEQEND
  8
0
  0
POLYLINE
  8
AB0CF1H
 62
     3
  6
CONTINUOUS
 66
     1
 40
0.003000
 41
0.003000
  0
VERTEX
  8
AB0CF1H
 62
     3
  6
CONTINUOUS
 10
-1.658642
 20
1.994657
  0
VERTEX
  8
AB0CF1H
 62
     3
  6
CONTINUOUS
 10
-1.633311
 20
1.950783
  0
SEQEND
  8
0
  0
POLYLINE
  8
AB0CF1H
 62
     3
  6
CONTINUOUS
 66
     1
 40
0.003000
 41
0.003000
  0
VERTEX
  8
AB0CF1H
 62
     3
  6
CONTINUOUS
 10
-1.658642
 20
2.215559
  0
VERTEX
  8
AB0CF1H
 62
     3
  6
CONTINUOUS
 10
-1.633311
 20
2.171685
  0
SEQEND
  8
0
  0
POLYLINE
  8
AB0CF1H
 62
     3
  6
CONTINUOUS
 66
     1
 40
0.003000
 41
0.003000
  0
VERTEX
  8
AB0CF1H
 62
     3
  6
CONTINUOUS
 10
-1.658642
 20
2.436461
  0
VERTEX
  8
AB0CF1H
 62
     3
  6
CONTINUOUS
 10
-1.633311
 20
2.392587
  0
SEQEND
  8
0
  0
POLYLINE
  8
AB0CF1H
 62
     3
  6
CONTINUOUS
 66
     1
 40
0.003000
 41
0.003000
  0
VERTEX
  8
AB0CF1H
 62
     3
  6
CONTINUOUS
 10
-1.636134
 20
1.786752
  0
VERTEX
  8
AB0CF1H
 62
     3
  6
CONTINUOUS
 10
-1.610803
 20
1.742878
  0
SEQEND
  8
0
  0
POLYLINE
  8
AB0CF1H
 62
     3
  6
CONTINUOUS
 66
     1
 40
0.003000
 41
0.003000
  0
VERTEX
  8
AB0CF1H
 62
     3
  6
CONTINUOUS
 10
-1.636134
 20
2.007654
  0
VERTEX
  8
AB0CF1H
 62
     3
  6
CONTINUOUS
 10
-1.610803
 20
1.963776
  0
SEQEND
  8
0
  0
POLYLINE
  8
AB0CF1H
 62
     3
  6
CONTINUOUS
 66
     1
 40
0.003000
 41
0.003000
  0
VERTEX
  8
AB0CF1H
 62
     3
  6
CONTINUOUS
 10
-1.636134
 20
2.228555
  0
VERTEX
  8
AB0CF1H
 62
     3
  6
CONTINUOUS
 10
-1.610803
 20
2.184677
  0
SEQEND
  8
0
  0
POLYLINE
  8
AB0CF1H
 62
     3
  6
CONTINUOUS
 66
     1
 40
0.003000
 41
0.003000
  0
VERTEX
  8
AB0CF1H
 62
     3
  6
CONTINUOUS
 10
-1.636134
 20
2.449457
  0
VERTEX
  8
AB0CF1H
 62
     3
  6
CONTINUOUS
 10
-1.610803
 20
2.405579
  0
SEQEND
  8
0
  0
POLYLINE
  8
AB0CF1H
 62
     3
  6
CONTINUOUS
 66
     1
 40
0.003000
 41
0.003000
  0
VERTEX
  8
AB0CF1H
 62
     3
  6
CONTINUOUS
 10
-2.096343
 20
2.166929
  0
VERTEX
  8
AB0CF1H
 62
     3
  6
CONTINUOUS
 10
-1.732508
 20
2.166929
  0
SEQEND
  8
0
  0
POLYLINE
  8
AB0CF1H
 62
     3
  6
CONTINUOUS
 66
     1
 40
0.003000
 41
0.003000
  0
VERTEX
  8
AB0CF1H
 62
     3
  6
CONTINUOUS
 10
-1.914425
 20
1.946028
  0
VERTEX
  8
AB0CF1H
 62
     3
  6
CONTINUOUS
 10
-1.732508
 20
1.946028
  0
SEQEND
  8
0
  0
POLYLINE
  8
AB0CF1H
 62
     3
  6
CONTINUOUS
 66
     1
 40
0.003000
 41
0.003000
  0
VERTEX
  8
AB0CF1H
 62
     3
  6
CONTINUOUS
 10
-1.914425
 20
2.114949
  0
VERTEX
  8
AB0CF1H
 62
     3
  6
CONTINUOUS
 10
-1.914425
 20
2.166929
  0
SEQEND
  8
0
  0
POLYLINE
  8
AB0CF1H
 62
     3
  6
CONTINUOUS
 66
     1
 40
0.003000
 41
0.003000
  0
VERTEX
  8
AB0CF1H
 62
     3
  6
CONTINUOUS
 10
-1.914425
 20
1.998004
  0
VERTEX
  8
AB0CF1H
 62
     3
  6
CONTINUOUS
 10
-1.966402
 20
2.114949
  0
SEQEND
  8
0
  0
POLYLINE
  8
AB0CF1H
 62
     3
  6
CONTINUOUS
 66
     1
 40
0.003000
 41
0.003000
  0
VERTEX
  8
AB0CF1H
 62
     3
  6
CONTINUOUS
 10
-1.914425
 20
1.946028
  0
VERTEX
  8
AB0CF1H
 62
     3
  6
CONTINUOUS
 10
-1.914425
 20
1.998004
  0
SEQEND
  8
0
  0
POLYLINE
  8
AB0CF1H
 62
     3
  6
CONTINUOUS
 66
     1
 40
0.003000
 41
0.003000
  0
VERTEX
  8
AB0CF1H
 62
     3
  6
CONTINUOUS
 10
-1.732508
 20
2.517772
  0
VERTEX
  8
AB0CF1H
 62
     3
  6
CONTINUOUS
 10
-1.643807
 20
2.517772
  0
SEQEND
  8
0
  0
POLYLINE
  8
AB0CF1H
 62
     3
  6
CONTINUOUS
 66
     1
 40
0.003000
 41
0.003000
  0
VERTEX
  8
AB0CF1H
 62
     3
  6
CONTINUOUS
 10
-1.732508
 20
2.478787
  0
VERTEX
  8
AB0CF1H
 62
     3
  6
CONTINUOUS
 10
-1.534551
 20
2.478787
  0
SEQEND
  8
0
  0
POLYLINE
  8
AB0CF1H
 62
     3
  6
CONTINUOUS
 66
     1
 40
0.003000
 41
0.003000
  0
VERTEX
  8
AB0CF1H
 62
     3
  6
CONTINUOUS
 10
-1.732508
 20
2.296870
  0
VERTEX
  8
AB0CF1H
 62
     3
  6
CONTINUOUS
 10
-1.420646
 20
2.296870
  0
SEQEND
  8
0
  0
POLYLINE
  8
AB0CF1H
 62
     3
  6
CONTINUOUS
 66
     1
 40
0.003000
 41
0.003000
  0
VERTEX
  8
AB0CF1H
 62
     3
  6
CONTINUOUS
 10
-1.732508
 20
2.257886
  0
VERTEX
  8
AB0CF1H
 62
     3
  6
CONTINUOUS
 10
-1.420646
 20
2.257886
  0
SEQEND
  8
0
  0
POLYLINE
  8
AB0CF1H
 62
     3
  6
CONTINUOUS
 66
     1
 40
0.003000
 41
0.003000
  0
VERTEX
  8
AB0CF1H
 62
     3
  6
CONTINUOUS
 10
-1.664193
 20
2.344748
  0
VERTEX
  8
AB0CF1H
 62
     3
  6
CONTINUOUS
 10
-1.620315
 20
2.370079
  0
SEQEND
  8
0
  0
POLYLINE
  8
AB0CF1H
 62
     3
  6
CONTINUOUS
 66
     1
 40
0.003000
 41
0.003000
  0
VERTEX
  8
AB0CF1H
 62
     3
  6
CONTINUOUS
 10
-1.664193
 20
2.123846
  0
VERTEX
  8
AB0CF1H
 62
     3
  6
CONTINUOUS
 10
-1.620315
 20
2.149177
  0
SEQEND
  8
0
  0
POLYLINE
  8
AB0CF1H
 62
     3
  6
CONTINUOUS
 66
     1
 40
0.003000
 41
0.003000
  0
VERTEX
  8
AB0CF1H
 62
     3
  6
CONTINUOUS
 10
-1.664193
 20
1.902945
  0
VERTEX
  8
AB0CF1H
 62
     3
  6
CONTINUOUS
 10
-1.620315
 20
1.928276
  0
SEQEND
  8
0
  0
POLYLINE
  8
AB0CF1H
 62
     3
  6
CONTINUOUS
 66
     1
 40
0.003000
 41
0.003000
  0
VERTEX
  8
AB0CF1H
 62
     3
  6
CONTINUOUS
 10
-1.664193
 20
1.682043
  0
VERTEX
  8
AB0CF1H
 62
     3
  6
CONTINUOUS
 10
-1.620315
 20
1.707374
  0
SEQEND
  8
0
  0
POLYLINE
  8
AB0CF1H
 62
     3
  6
CONTINUOUS
 66
     1
 40
0.003000
 41
0.003000
  0
VERTEX
  8
AB0CF1H
 62
     3
  6
CONTINUOUS
 10
-1.677185
 20
2.367252
  0
VERTEX
  8
AB0CF1H
 62
     3
  6
CONTINUOUS
 10
-1.633311
 20
2.392587
  0
SEQEND
  8
0
  0
POLYLINE
  8
AB0CF1H
 62
     3
  6
CONTINUOUS
 66
     1
 40
0.003000
 41
0.003000
  0
VERTEX
  8
AB0CF1H
 62
     3
  6
CONTINUOUS
 10
-1.677185
 20
2.146350
  0
VERTEX
  8
AB0CF1H
 62
     3
  6
CONTINUOUS
 10
-1.633311
 20
2.171685
  0
SEQEND
  8
0
  0
POLYLINE
  8
AB0CF1H
 62
     3
  6
CONTINUOUS
 66
     1
 40
0.003000
 41
0.003000
  0
VERTEX
  8
AB0CF1H
 62
     3
  6
CONTINUOUS
 10
-1.677185
 20
1.925449
  0
VERTEX
  8
AB0CF1H
 62
     3
  6
CONTINUOUS
 10
-1.633311
 20
1.950783
  0
SEQEND
  8
0
  0
POLYLINE
  8
AB0CF1H
 62
     3
  6
CONTINUOUS
 66
     1
 40
0.003000
 41
0.003000
  0
VERTEX
  8
AB0CF1H
 62
     3
  6
CONTINUOUS
 10
-1.677185
 20
1.704547
  0
VERTEX
  8
AB0CF1H
 62
     3
  6
CONTINUOUS
 10
-1.633311
 20
1.729882
  0
SEQEND
  8
0
  0
POLYLINE
  8
AB0CF1H
 62
     3
  6
CONTINUOUS
 66
     1
 40
0.003000
 41
0.003000
  0
VERTEX
  8
AB0CF1H
 62
     3
  6
CONTINUOUS
 10
-1.732508
 20
2.075969
  0
VERTEX
  8
AB0CF1H
 62
     3
  6
CONTINUOUS
 10
-1.420646
 20
2.075969
  0
SEQEND
  8
0
  0
POLYLINE
  8
AB0CF1H
 62
     3
  6
CONTINUOUS
 66
     1
 40
0.003000
 41
0.003000
  0
VERTEX
  8
AB0CF1H
 62
     3
  6
CONTINUOUS
 10
-1.732508
 20
2.036984
  0
VERTEX
  8
AB0CF1H
 62
     3
  6
CONTINUOUS
 10
-1.420646
 20
2.036984
  0
SEQEND
  8
0
  0
POLYLINE
  8
AB0CF1H
 62
     3
  6
CONTINUOUS
 66
     1
 40
0.003000
 41
0.003000
  0
VERTEX
  8
AB0CF1H
 62
     3
  6
CONTINUOUS
 10
-1.732508
 20
1.855067
  0
VERTEX
  8
AB0CF1H
 62
     3
  6
CONTINUOUS
 10
-1.420646
 20
1.855067
  0
SEQEND
  8
0
  0
POLYLINE
  8
AB0CF1H
 62
     3
  6
CONTINUOUS
 66
     1
 40
0.003000
 41
0.003000
  0
VERTEX
  8
AB0CF1H
 62
     3
  6
CONTINUOUS
 10
-1.732508
 20
1.816083
  0
VERTEX
  8
AB0CF1H
 62
     3
  6
CONTINUOUS
 10
-1.420646
 20
1.816083
  0
SEQEND
  8
0
  0
POLYLINE
  8
AB0CF1H
 62
     3
  6
CONTINUOUS
 66
     1
 40
0.003000
 41
0.003000
  0
VERTEX
  8
AB0CF1H
 62
     3
  6
CONTINUOUS
 10
-1.732508
 20
1.634165
  0
VERTEX
  8
AB0CF1H
 62
     3
  6
CONTINUOUS
 10
-1.420646
 20
1.634165
  0
SEQEND
  8
0
  0
POLYLINE
  8
AB0CF1H
 62
     3
  6
CONTINUOUS
 66
     1
 40
0.003000
 41
0.003000
  0
VERTEX
  8
AB0CF1H
 62
     3
  6
CONTINUOUS
 10
-1.732508
 20
1.595185
  0
VERTEX
  8
AB0CF1H
 62
     3
  6
CONTINUOUS
 10
-1.420646
 20
1.595185
  0
SEQEND
  8
0
  0
POLYLINE
  8
AB0CF1H
 62
     3
  6
CONTINUOUS
 66
     1
 40
0.003000
 41
0.003000
  0
VERTEX
  8
AB0CF1H
 62
     3
  6
CONTINUOUS
 10
3.233913
 20
1.153382
  0
VERTEX
  8
AB0CF1H
 62
     3
  6
CONTINUOUS
 10
3.673071
 20
1.153382
  0
SEQEND
  8
0
  0
POLYLINE
  8
AB0CF1H
 62
     3
  6
CONTINUOUS
 66
     1
 40
0.003000
 41
0.003000
  0
VERTEX
  8
AB0CF1H
 62
     3
  6
CONTINUOUS
 10
1.310776
 20
1.153382
  0
VERTEX
  8
AB0CF1H
 62
     3
  6
CONTINUOUS
 10
1.749933
 20
1.153382
  0
SEQEND
  8
0
  0
POLYLINE
  8
AB0CF1H
 62
     3
  6
CONTINUOUS
 66
     1
 40
0.003000
 41
0.003000
  0
VERTEX
  8
AB0CF1H
 62
     3
  6
CONTINUOUS
 10
2.919409
 20
1.452248
  0
VERTEX
  8
AB0CF1H
 62
     3
  6
CONTINUOUS
 10
2.919409
 20
1.504224
  0
SEQEND
  8
0
  0
POLYLINE
  8
AB0CF1H
 62
     3
  6
CONTINUOUS
 66
     1
 40
0.003000
 41
0.003000
  0
VERTEX
  8
AB0CF1H
 62
     3
  6
CONTINUOUS
 10
2.919409
 20
1.283323
  0
VERTEX
  8
AB0CF1H
 62
     3
  6
CONTINUOUS
 10
2.919409
 20
1.335299
  0
SEQEND
  8
0
  0
POLYLINE
  8
AB0CF1H
 62
     3
  6
CONTINUOUS
 66
     1
 40
0.003000
 41
0.003000
  0
VERTEX
  8
AB0CF1H
 62
     3
  6
CONTINUOUS
 10
2.919409
 20
1.283323
  0
VERTEX
  8
AB0CF1H
 62
     3
  6
CONTINUOUS
 10
2.737488
 20
1.283323
  0
SEQEND
  8
0
  0
POLYLINE
  8
AB0CF1H
 62
     3
  6
CONTINUOUS
 66
     1
 40
0.003000
 41
0.003000
  0
VERTEX
  8
AB0CF1H
 62
     3
  6
CONTINUOUS
 10
2.919409
 20
1.504224
  0
VERTEX
  8
AB0CF1H
 62
     3
  6
CONTINUOUS
 10
2.737488
 20
1.504224
  0
SEQEND
  8
0
  0
POLYLINE
  8
AB0CF1H
 62
     1
  6
CONTINUOUS
 66
     1
 40
0.003000
 41
0.003000
  0
VERTEX
  8
AB0CF1H
 62
     1
  6
CONTINUOUS
 10
2.737488
 20
2.096591
  0
VERTEX
  8
AB0CF1H
 62
     1
  6
CONTINUOUS
 10
2.563150
 20
2.105299
  0
SEQEND
  8
0
  0
POLYLINE
  8
AB0CF1H
 62
     1
  6
CONTINUOUS
 66
     1
 40
0.003000
 41
0.003000
  0
VERTEX
  8
AB0CF1H
 62
     1
  6
CONTINUOUS
 10
2.563150
 20
2.105299
  0
VERTEX
  8
AB0CF1H
 62
     1
  6
CONTINUOUS
 10
2.339067
 20
1.869319
  0
SEQEND
  8
0
  0
TEXT
  8
AB0CF1H
 10
2.638083
 20
1.235244
 40
0.083603
  1
19
 41
1.000000
  7
SN0
 71
     0
 72
     5
 11
2.745173
 21
1.235244
  0
TEXT
  8
AB0CF1H
 10
2.638083
 20
1.456146
 40
0.083603
  1
18
 41
1.000000
  7
SN0
 71
     0
 72
     5
 11
2.745173
 21
1.456146
  0
TEXT
  8
AB0CF1H
 10
2.638083
 20
1.677047
 40
0.083603
  1
17
 41
1.000000
  7
SN0
 71
     0
 72
     5
 11
2.745173
 21
1.677047
  0
TEXT
  8
AB0CF1H
 10
2.638083
 20
1.897949
 40
0.083603
  1
16
 41
1.000000
  7
SN0
 71
     0
 72
     5
 11
2.745173
 21
1.897949
  0
POLYLINE
  8
AB0CF1H
 62
     3
  6
CONTINUOUS
 66
     1
 40
0.003000
 41
0.003000
 70
     1
  0
VERTEX
  8
AB0CF1H
 62
     3
  6
CONTINUOUS
 10
2.542575
 20
1.348291
  0
VERTEX
  8
AB0CF1H
 62
     3
  6
CONTINUOUS
 10
2.506483
 20
1.338686
  0
VERTEX
  8
AB0CF1H
 62
     3
  6
CONTINUOUS
 10
2.484828
 20
1.314621
  0
VERTEX
  8
AB0CF1H
 62
     3
  6
CONTINUOUS
 10
2.477608
 20
1.283326
  0
VERTEX
  8
AB0CF1H
 62
     3
  6
CONTINUOUS
 10
2.484825
 20
1.252031
  0
VERTEX
  8
AB0CF1H
 62
     3
  6
CONTINUOUS
 10
2.506479
 20
1.227966
  0
VERTEX
  8
AB0CF1H
 62
     3
  6
CONTINUOUS
 10
2.542571
 20
1.218358
  0
VERTEX
  8
AB0CF1H
 62
     3
  6
CONTINUOUS
 10
2.578663
 20
1.227959
  0
VERTEX
  8
AB0CF1H
 62
     3
  6
CONTINUOUS
 10
2.600320
 20
1.252021
  0
VERTEX
  8
AB0CF1H
 62
     3
  6
CONTINUOUS
 10
2.607542
 20
1.283314
  0
VERTEX
  8
AB0CF1H
 62
     3
  6
CONTINUOUS
 10
2.600328
 20
1.314609
  0
VERTEX
  8
AB0CF1H
 62
     3
  6
CONTINUOUS
 10
2.578676
 20
1.338677
  0
VERTEX
  8
AB0CF1H
 62
     3
  6
CONTINUOUS
 10
2.542587
 20
1.348287
  0
VERTEX
  8
AB0CF1H
 62
     3
  6
CONTINUOUS
 10
2.542584
 20
1.348288
  0
VERTEX
  8
AB0CF1H
 62
     3
  6
CONTINUOUS
 10
2.542578
 20
1.348290
  0
SEQEND
  8
0
  0
POLYLINE
  8
AB0CF1H
 62
     3
  6
CONTINUOUS
 66
     1
 40
0.003000
 41
0.003000
 70
     1
  0
VERTEX
  8
AB0CF1H
 62
     3
  6
CONTINUOUS
 10
2.542575
 20
1.569193
  0
VERTEX
  8
AB0CF1H
 62
     3
  6
CONTINUOUS
 10
2.506483
 20
1.559587
  0
VERTEX
  8
AB0CF1H
 62
     3
  6
CONTINUOUS
 10
2.484828
 20
1.535522
  0
VERTEX
  8
AB0CF1H
 62
     3
  6
CONTINUOUS
 10
2.477608
 20
1.504228
  0
VERTEX
  8
AB0CF1H
 62
     3
  6
CONTINUOUS
 10
2.484825
 20
1.472933
  0
VERTEX
  8
AB0CF1H
 62
     3
  6
CONTINUOUS
 10
2.506479
 20
1.448867
  0
VERTEX
  8
AB0CF1H
 62
     3
  6
CONTINUOUS
 10
2.542571
 20
1.439260
  0
VERTEX
  8
AB0CF1H
 62
     3
  6
CONTINUOUS
 10
2.578663
 20
1.448861
  0
VERTEX
  8
AB0CF1H
 62
     3
  6
CONTINUOUS
 10
2.600320
 20
1.472922
  0
VERTEX
  8
AB0CF1H
 62
     3
  6
CONTINUOUS
 10
2.607542
 20
1.504216
  0
VERTEX
  8
AB0CF1H
 62
     3
  6
CONTINUOUS
 10
2.600328
 20
1.535511
  0
VERTEX
  8
AB0CF1H
 62
     3
  6
CONTINUOUS
 10
2.578676
 20
1.559578
  0
VERTEX
  8
AB0CF1H
 62
     3
  6
CONTINUOUS
 10
2.542587
 20
1.569189
  0
VERTEX
  8
AB0CF1H
 62
     3
  6
CONTINUOUS
 10
2.542584
 20
1.569190
  0
VERTEX
  8
AB0CF1H
 62
     3
  6
CONTINUOUS
 10
2.542578
 20
1.569192
  0
SEQEND
  8
0
  0
POLYLINE
  8
AB0CF1H
 62
     3
  6
CONTINUOUS
 66
     1
 40
0.003000
 41
0.003000
 70
     1
  0
VERTEX
  8
AB0CF1H
 62
     3
  6
CONTINUOUS
 10
2.542575
 20
1.790094
  0
VERTEX
  8
AB0CF1H
 62
     3
  6
CONTINUOUS
 10
2.506483
 20
1.780489
  0
VERTEX
  8
AB0CF1H
 62
     3
  6
CONTINUOUS
 10
2.484828
 20
1.756424
  0
VERTEX
  8
AB0CF1H
 62
     3
  6
CONTINUOUS
 10
2.477608
 20
1.725129
  0
VERTEX
  8
AB0CF1H
 62
     3
  6
CONTINUOUS
 10
2.484825
 20
1.693835
  0
VERTEX
  8
AB0CF1H
 62
     3
  6
CONTINUOUS
 10
2.506479
 20
1.669769
  0
VERTEX
  8
AB0CF1H
 62
     3
  6
CONTINUOUS
 10
2.542571
 20
1.660161
  0
VERTEX
  8
AB0CF1H
 62
     3
  6
CONTINUOUS
 10
2.578663
 20
1.669762
  0
VERTEX
  8
AB0CF1H
 62
     3
  6
CONTINUOUS
 10
2.600320
 20
1.693824
  0
VERTEX
  8
AB0CF1H
 62
     3
  6
CONTINUOUS
 10
2.607542
 20
1.725117
  0
VERTEX
  8
AB0CF1H
 62
     3
  6
CONTINUOUS
 10
2.600328
 20
1.756412
  0
VERTEX
  8
AB0CF1H
 62
     3
  6
CONTINUOUS
 10
2.578676
 20
1.780480
  0
VERTEX
  8
AB0CF1H
 62
     3
  6
CONTINUOUS
 10
2.542587
 20
1.790091
  0
VERTEX
  8
AB0CF1H
 62
     3
  6
CONTINUOUS
 10
2.542584
 20
1.790092
  0
VERTEX
  8
AB0CF1H
 62
     3
  6
CONTINUOUS
 10
2.542578
 20
1.790093
  0
SEQEND
  8
0
  0
POLYLINE
  8
AB0CF1H
 62
     3
  6
CONTINUOUS
 66
     1
 40
0.003000
 41
0.003000
 70
     1
  0
VERTEX
  8
AB0CF1H
 62
     3
  6
CONTINUOUS
 10
2.542575
 20
2.010996
  0
VERTEX
  8
AB0CF1H
 62
     3
  6
CONTINUOUS
 10
2.506483
 20
2.001390
  0
VERTEX
  8
AB0CF1H
 62
     3
  6
CONTINUOUS
 10
2.484828
 20
1.977325
  0
VERTEX
  8
AB0CF1H
 62
     3
  6
CONTINUOUS
 10
2.477608
 20
1.946031
  0
VERTEX
  8
AB0CF1H
 62
     3
  6
CONTINUOUS
 10
2.484825
 20
1.914736
  0
VERTEX
  8
AB0CF1H
 62
     3
  6
CONTINUOUS
 10
2.506479
 20
1.890670
  0
VERTEX
  8
AB0CF1H
 62
     3
  6
CONTINUOUS
 10
2.542571
 20
1.881063
  0
VERTEX
  8
AB0CF1H
 62
     3
  6
CONTINUOUS
 10
2.578663
 20
1.890664
  0
VERTEX
  8
AB0CF1H
 62
     3
  6
CONTINUOUS
 10
2.600320
 20
1.914726
  0
VERTEX
  8
AB0CF1H
 62
     3
  6
CONTINUOUS
 10
2.607542
 20
1.946019
  0
VERTEX
  8
AB0CF1H
 62
     3
  6
CONTINUOUS
 10
2.600328
 20
1.977314
  0
VERTEX
  8
AB0CF1H
 62
     3
  6
CONTINUOUS
 10
2.578676
 20
2.001381
  0
VERTEX
  8
AB0CF1H
 62
     3
  6
CONTINUOUS
 10
2.542587
 20
2.010992
  0
VERTEX
  8
AB0CF1H
 62
     3
  6
CONTINUOUS
 10
2.542584
 20
2.010993
  0
VERTEX
  8
AB0CF1H
 62
     3
  6
CONTINUOUS
 10
2.542578
 20
2.010995
  0
SEQEND
  8
0
  0
TEXT
  8
AB0CF1H
 10
-1.117232
 20
1.658854
 40
0.083603
  1
P24, A2,
 41
1.000000
  7
SN0
 71
     0
 72
     5
 11
-0.750360
 21
1.658854
  0
TEXT
  8
AB0CF1H
 10
-1.117232
 20
1.534110
 40
0.083603
  1
 LA, C2
 41
1.000000
  7
SN0
 71
     0
 72
     5
 11
-0.782487
 21
1.534110
  0
TEXT
  8
AB0CF1H
 10
3.756362
 20
1.477587
 40
0.083603
  1
DC (mA)
 41
1.000000
  7
SN0
 71
     0
 72
     5
 11
4.160889
 21
1.477587
  0
POLYLINE
  8
AB0CF1H
 62
     3
  6
CONTINUOUS
 66
     1
 40
0.003000
 41
0.003000
 70
     1
  0
VERTEX
  8
AB0CF1H
 62
     3
  6
CONTINUOUS
 10
1.931850
 20
1.283319
  0
VERTEX
  8
AB0CF1H
 62
     3
  6
CONTINUOUS
 10
1.920304
 20
1.276585
  0
VERTEX
  8
AB0CF1H
 62
     3
  6
CONTINUOUS
 10
1.920303
 20
1.264070
  0
VERTEX
  8
AB0CF1H
 62
     3
  6
CONTINUOUS
 10
1.931850
 20
1.257339
  0
VERTEX
  8
AB0CF1H
 62
     3
  6
CONTINUOUS
 10
1.943397
 20
1.264069
  0
VERTEX
  8
AB0CF1H
 62
     3
  6
CONTINUOUS
 10
1.943398
 20
1.276582
  0
VERTEX
  8
AB0CF1H
 62
     3
  6
CONTINUOUS
 10
1.931850
 20
1.283315
  0
VERTEX
  8
AB0CF1H
 62
     3
  6
CONTINUOUS
 10
1.931850
 20
1.283316
  0
VERTEX
  8
AB0CF1H
 62
     3
  6
CONTINUOUS
 10
1.931850
 20
1.283318
  0
SEQEND
  8
0
  0
TEXT
  8
AB0CF1H
 10
1.975382
 20
1.105303
 40
0.083603
  1
Pt100
 41
1.000000
  7
SN0
 71
     0
 72
     5
 11
2.227563
 21
1.105303
  0
POLYLINE
  8
AB0CF1H
 62
     3
  6
CONTINUOUS
 66
     1
 40
0.003000
 41
0.003000
  0
VERTEX
  8
AB0CF1H
 62
     3
  6
CONTINUOUS
 10
2.425630
 20
1.960476
  0
VERTEX
  8
AB0CF1H
 62
     3
  6
CONTINUOUS
 10
2.425630
 20
0.958469
  0
SEQEND
  8
0
  0
POLYLINE
  8
AB0CF1H
 62
     3
  6
CONTINUOUS
 66
     1
 40
0.003000
 41
0.003000
  0
VERTEX
  8
AB0CF1H
 62
     3
  6
CONTINUOUS
 10
2.480949
 20
1.262748
  0
VERTEX
  8
AB0CF1H
 62
     3
  6
CONTINUOUS
 10
2.524827
 20
1.288079
  0
SEQEND
  8
0
  0
POLYLINE
  8
AB0CF1H
 62
     3
  6
CONTINUOUS
 66
     1
 40
0.003000
 41
0.003000
  0
VERTEX
  8
AB0CF1H
 62
     3
  6
CONTINUOUS
 10
2.480949
 20
1.483646
  0
VERTEX
  8
AB0CF1H
 62
     3
  6
CONTINUOUS
 10
2.524827
 20
1.508980
  0
SEQEND
  8
0
  0
POLYLINE
  8
AB0CF1H
 62
     3
  6
CONTINUOUS
 66
     1
 40
0.003000
 41
0.003000
  0
VERTEX
  8
AB0CF1H
 62
     3
  6
CONTINUOUS
 10
2.480949
 20
1.704547
  0
VERTEX
  8
AB0CF1H
 62
     3
  6
CONTINUOUS
 10
2.524827
 20
1.729882
  0
SEQEND
  8
0
  0
POLYLINE
  8
AB0CF1H
 62
     3
  6
CONTINUOUS
 66
     1
 40
0.003000
 41
0.003000
  0
VERTEX
  8
AB0CF1H
 62
     3
  6
CONTINUOUS
 10
2.480949
 20
1.925449
  0
VERTEX
  8
AB0CF1H
 62
     3
  6
CONTINUOUS
 10
2.524827
 20
1.950783
  0
SEQEND
  8
0
  0
POLYLINE
  8
AB0CF1H
 62
     3
  6
CONTINUOUS
 66
     1
 40
0.003000
 41
0.003000
  0
VERTEX
  8
AB0CF1H
 62
     3
  6
CONTINUOUS
 10
2.493945
 20
1.240240
  0
VERTEX
  8
AB0CF1H
 62
     3
  6
CONTINUOUS
 10
2.537819
 20
1.265575
  0
SEQEND
  8
0
  0
POLYLINE
  8
AB0CF1H
 62
     3
  6
CONTINUOUS
 66
     1
 40
0.003000
 41
0.003000
  0
VERTEX
  8
AB0CF1H
 62
     3
  6
CONTINUOUS
 10
2.493945
 20
1.461142
  0
VERTEX
  8
AB0CF1H
 62
     3
  6
CONTINUOUS
 10
2.537819
 20
1.486472
  0
SEQEND
  8
0
  0
POLYLINE
  8
AB0CF1H
 62
     3
  6
CONTINUOUS
 66
     1
 40
0.003000
 41
0.003000
  0
VERTEX
  8
AB0CF1H
 62
     3
  6
CONTINUOUS
 10
2.493945
 20
1.682043
  0
VERTEX
  8
AB0CF1H
 62
     3
  6
CONTINUOUS
 10
2.537819
 20
1.707374
  0
SEQEND
  8
0
  0
POLYLINE
  8
AB0CF1H
 62
     3
  6
CONTINUOUS
 66
     1
 40
0.003000
 41
0.003000
  0
VERTEX
  8
AB0CF1H
 62
     3
  6
CONTINUOUS
 10
2.493945
 20
1.902945
  0
VERTEX
  8
AB0CF1H
 62
     3
  6
CONTINUOUS
 10
2.537819
 20
1.928276
  0
SEQEND
  8
0
  0
POLYLINE
  8
AB0CF1H
 62
     3
  6
CONTINUOUS
 66
     1
 40
0.003000
 41
0.003000
  0
VERTEX
  8
AB0CF1H
 62
     3
  6
CONTINUOUS
 10
2.560327
 20
1.278567
  0
VERTEX
  8
AB0CF1H
 62
     3
  6
CONTINUOUS
 10
2.585661
 20
1.234689
  0
SEQEND
  8
0
  0
POLYLINE
  8
AB0CF1H
 62
     3
  6
CONTINUOUS
 66
     1
 40
0.003000
 41
0.003000
  0
VERTEX
  8
AB0CF1H
 62
     3
  6
CONTINUOUS
 10
2.560327
 20
1.499469
  0
VERTEX
  8
AB0CF1H
 62
     3
  6
CONTINUOUS
 10
2.585661
 20
1.455591
  0
SEQEND
  8
0
  0
POLYLINE
  8
AB0CF1H
 62
     3
  6
CONTINUOUS
 66
     1
 40
0.003000
 41
0.003000
  0
VERTEX
  8
AB0CF1H
 62
     3
  6
CONTINUOUS
 10
2.560327
 20
1.720370
  0
VERTEX
  8
AB0CF1H
 62
     3
  6
CONTINUOUS
 10
2.585661
 20
1.676492
  0
SEQEND
  8
0
  0
POLYLINE
  8
AB0CF1H
 62
     3
  6
CONTINUOUS
 66
     1
 40
0.003000
 41
0.003000
  0
VERTEX
  8
AB0CF1H
 62
     3
  6
CONTINUOUS
 10
2.560327
 20
1.941272
  0
VERTEX
  8
AB0CF1H
 62
     3
  6
CONTINUOUS
 10
2.585661
 20
1.897394
  0
SEQEND
  8
0
  0
POLYLINE
  8
AB0CF1H
 62
     3
  6
CONTINUOUS
 66
     1
 40
0.003000
 41
0.003000
  0
VERTEX
  8
AB0CF1H
 62
     3
  6
CONTINUOUS
 10
2.537819
 20
1.265575
  0
VERTEX
  8
AB0CF1H
 62
     3
  6
CONTINUOUS
 10
2.563150
 20
1.221697
  0
SEQEND
  8
0
  0
POLYLINE
  8
AB0CF1H
 62
     3
  6
CONTINUOUS
 66
     1
 40
0.003000
 41
0.003000
  0
VERTEX
  8
AB0CF1H
 62
     3
  6
CONTINUOUS
 10
2.537819
 20
1.486472
  0
VERTEX
  8
AB0CF1H
 62
     3
  6
CONTINUOUS
 10
2.563150
 20
1.442598
  0
SEQEND
  8
0
  0
POLYLINE
  8
AB0CF1H
 62
     3
  6
CONTINUOUS
 66
     1
 40
0.003000
 41
0.003000
  0
VERTEX
  8
AB0CF1H
 62
     3
  6
CONTINUOUS
 10
2.537819
 20
1.707374
  0
VERTEX
  8
AB0CF1H
 62
     3
  6
CONTINUOUS
 10
2.563150
 20
1.663496
  0
SEQEND
  8
0
  0
POLYLINE
  8
AB0CF1H
 62
     3
  6
CONTINUOUS
 66
     1
 40
0.003000
 41
0.003000
  0
VERTEX
  8
AB0CF1H
 62
     3
  6
CONTINUOUS
 10
2.537819
 20
1.928276
  0
VERTEX
  8
AB0CF1H
 62
     3
  6
CONTINUOUS
 10
2.563150
 20
1.884398
  0
SEQEND
  8
0
  0
POLYLINE
  8
AB0CF1H
 62
     3
  6
CONTINUOUS
 66
     1
 40
0.003000
 41
0.003000
  0
VERTEX
  8
AB0CF1H
 62
     3
  6
CONTINUOUS
 10
2.547335
 20
1.301075
  0
VERTEX
  8
AB0CF1H
 62
     3
  6
CONTINUOUS
 10
2.591209
 20
1.326406
  0
SEQEND
  8
0
  0
POLYLINE
  8
AB0CF1H
 62
     3
  6
CONTINUOUS
 66
     1
 40
0.003000
 41
0.003000
  0
VERTEX
  8
AB0CF1H
 62
     3
  6
CONTINUOUS
 10
2.547335
 20
1.521976
  0
VERTEX
  8
AB0CF1H
 62
     3
  6
CONTINUOUS
 10
2.591209
 20
1.547307
  0
SEQEND
  8
0
  0
POLYLINE
  8
AB0CF1H
 62
     3
  6
CONTINUOUS
 66
     1
 40
0.003000
 41
0.003000
  0
VERTEX
  8
AB0CF1H
 62
     3
  6
CONTINUOUS
 10
2.547335
 20
1.742878
  0
VERTEX
  8
AB0CF1H
 62
     3
  6
CONTINUOUS
 10
2.591209
 20
1.768209
  0
SEQEND
  8
0
  0
POLYLINE
  8
AB0CF1H
 62
     3
  6
CONTINUOUS
 66
     1
 40
0.003000
 41
0.003000
  0
VERTEX
  8
AB0CF1H
 62
     3
  6
CONTINUOUS
 10
2.547335
 20
1.963776
  0
VERTEX
  8
AB0CF1H
 62
     3
  6
CONTINUOUS
 10
2.591209
 20
1.989110
  0
SEQEND
  8
0
  0
POLYLINE
  8
AB0CF1H
 62
     3
  6
CONTINUOUS
 66
     1
 40
0.003000
 41
0.003000
  0
VERTEX
  8
AB0CF1H
 62
     3
  6
CONTINUOUS
 10
2.560327
 20
1.278567
  0
VERTEX
  8
AB0CF1H
 62
     3
  6
CONTINUOUS
 10
2.604201
 20
1.303898
  0
SEQEND
  8
0
  0
POLYLINE
  8
AB0CF1H
 62
     3
  6
CONTINUOUS
 66
     1
 40
0.003000
 41
0.003000
  0
VERTEX
  8
AB0CF1H
 62
     3
  6
CONTINUOUS
 10
2.560327
 20
1.499469
  0
VERTEX
  8
AB0CF1H
 62
     3
  6
CONTINUOUS
 10
2.604201
 20
1.524799
  0
SEQEND
  8
0
  0
POLYLINE
  8
AB0CF1H
 62
     3
  6
CONTINUOUS
 66
     1
 40
0.003000
 41
0.003000
  0
VERTEX
  8
AB0CF1H
 62
     3
  6
CONTINUOUS
 10
2.560327
 20
1.720370
  0
VERTEX
  8
AB0CF1H
 62
     3
  6
CONTINUOUS
 10
2.604201
 20
1.745701
  0
SEQEND
  8
0
  0
POLYLINE
  8
AB0CF1H
 62
     3
  6
CONTINUOUS
 66
     1
 40
0.003000
 41
0.003000
  0
VERTEX
  8
AB0CF1H
 62
     3
  6
CONTINUOUS
 10
2.560327
 20
1.941272
  0
VERTEX
  8
AB0CF1H
 62
     3
  6
CONTINUOUS
 10
2.604201
 20
1.966602
  0
SEQEND
  8
0
  0
POLYLINE
  8
AB0CF1H
 62
     3
  6
CONTINUOUS
 66
     1
 40
0.003000
 41
0.003000
  0
VERTEX
  8
AB0CF1H
 62
     3
  6
CONTINUOUS
 10
2.499492
 20
1.331957
  0
VERTEX
  8
AB0CF1H
 62
     3
  6
CONTINUOUS
 10
2.524827
 20
1.288079
  0
SEQEND
  8
0
  0
POLYLINE
  8
AB0CF1H
 62
     3
  6
CONTINUOUS
 66
     1
 40
0.003000
 41
0.003000
  0
VERTEX
  8
AB0CF1H
 62
     3
  6
CONTINUOUS
 10
2.499492
 20
1.552858
  0
VERTEX
  8
AB0CF1H
 62
     3
  6
CONTINUOUS
 10
2.524827
 20
1.508980
  0
SEQEND
  8
0
  0
POLYLINE
  8
AB0CF1H
 62
     3
  6
CONTINUOUS
 66
     1
 40
0.003000
 41
0.003000
  0
VERTEX
  8
AB0CF1H
 62
     3
  6
CONTINUOUS
 10
2.499492
 20
1.773760
  0
VERTEX
  8
AB0CF1H
 62
     3
  6
CONTINUOUS
 10
2.524827
 20
1.729882
  0
SEQEND
  8
0
  0
POLYLINE
  8
AB0CF1H
 62
     3
  6
CONTINUOUS
 66
     1
 40
0.003000
 41
0.003000
  0
VERTEX
  8
AB0CF1H
 62
     3
  6
CONTINUOUS
 10
2.499492
 20
1.994657
  0
VERTEX
  8
AB0CF1H
 62
     3
  6
CONTINUOUS
 10
2.524827
 20
1.950783
  0
SEQEND
  8
0
  0
POLYLINE
  8
AB0CF1H
 62
     3
  6
CONTINUOUS
 66
     1
 40
0.003000
 41
0.003000
  0
VERTEX
  8
AB0CF1H
 62
     3
  6
CONTINUOUS
 10
2.522000
 20
1.344949
  0
VERTEX
  8
AB0CF1H
 62
     3
  6
CONTINUOUS
 10
2.547335
 20
1.301075
  0
SEQEND
  8
0
  0
POLYLINE
  8
AB0CF1H
 62
     3
  6
CONTINUOUS
 66
     1
 40
0.003000
 41
0.003000
  0
VERTEX
  8
AB0CF1H
 62
     3
  6
CONTINUOUS
 10
2.522000
 20
1.565850
  0
VERTEX
  8
AB0CF1H
 62
     3
  6
CONTINUOUS
 10
2.547335
 20
1.521976
  0
SEQEND
  8
0
  0
POLYLINE
  8
AB0CF1H
 62
     3
  6
CONTINUOUS
 66
     1
 40
0.003000
 41
0.003000
  0
VERTEX
  8
AB0CF1H
 62
     3
  6
CONTINUOUS
 10
2.522000
 20
1.786752
  0
VERTEX
  8
AB0CF1H
 62
     3
  6
CONTINUOUS
 10
2.547335
 20
1.742878
  0
SEQEND
  8
0
  0
POLYLINE
  8
AB0CF1H
 62
     3
  6
CONTINUOUS
 66
     1
 40
0.003000
 41
0.003000
  0
VERTEX
  8
AB0CF1H
 62
     3
  6
CONTINUOUS
 10
2.522000
 20
2.007654
  0
VERTEX
  8
AB0CF1H
 62
     3
  6
CONTINUOUS
 10
2.547335
 20
1.963776
  0
SEQEND
  8
0
  0
POLYLINE
  8
AB0CF1H
 62
     3
  6
CONTINUOUS
 66
     1
 40
0.003000
 41
0.003000
  0
VERTEX
  8
AB0CF1H
 62
     3
  6
CONTINUOUS
 10
2.535299
 20
2.075969
  0
VERTEX
  8
AB0CF1H
 62
     3
  6
CONTINUOUS
 10
2.737488
 20
2.075969
  0
SEQEND
  8
0
  0
POLYLINE
  8
AB0CF1H
 62
     3
  6
CONTINUOUS
 66
     1
 40
0.003000
 41
0.003000
  0
VERTEX
  8
AB0CF1H
 62
     3
  6
CONTINUOUS
 10
2.425630
 20
1.595185
  0
VERTEX
  8
AB0CF1H
 62
     3
  6
CONTINUOUS
 10
2.737488
 20
1.595185
  0
SEQEND
  8
0
  0
POLYLINE
  8
AB0CF1H
 62
     3
  6
CONTINUOUS
 66
     1
 40
0.003000
 41
0.003000
  0
VERTEX
  8
AB0CF1H
 62
     3
  6
CONTINUOUS
 10
2.425630
 20
1.413264
  0
VERTEX
  8
AB0CF1H
 62
     3
  6
CONTINUOUS
 10
2.737488
 20
1.413264
  0
SEQEND
  8
0
  0
POLYLINE
  8
AB0CF1H
 62
     3
  6
CONTINUOUS
 66
     1
 40
0.003000
 41
0.003000
  0
VERTEX
  8
AB0CF1H
 62
     3
  6
CONTINUOUS
 10
2.425630
 20
1.374283
  0
VERTEX
  8
AB0CF1H
 62
     3
  6
CONTINUOUS
 10
2.737488
 20
1.374283
  0
SEQEND
  8
0
  0
POLYLINE
  8
AB0CF1H
 62
     3
  6
CONTINUOUS
 66
     1
 40
0.003000
 41
0.003000
  0
VERTEX
  8
AB0CF1H
 62
     3
  6
CONTINUOUS
 10
2.498280
 20
2.036984
  0
VERTEX
  8
AB0CF1H
 62
     3
  6
CONTINUOUS
 10
2.737488
 20
2.036984
  0
SEQEND
  8
0
  0
POLYLINE
  8
AB0CF1H
 62
     3
  6
CONTINUOUS
 66
     1
 40
0.003000
 41
0.003000
  0
VERTEX
  8
AB0CF1H
 62
     3
  6
CONTINUOUS
 10
2.425630
 20
1.855067
  0
VERTEX
  8
AB0CF1H
 62
     3
  6
CONTINUOUS
 10
2.737488
 20
1.855067
  0
SEQEND
  8
0
  0
POLYLINE
  8
AB0CF1H
 62
     3
  6
CONTINUOUS
 66
     1
 40
0.003000
 41
0.003000
  0
VERTEX
  8
AB0CF1H
 62
     3
  6
CONTINUOUS
 10
2.425630
 20
1.816083
  0
VERTEX
  8
AB0CF1H
 62
     3
  6
CONTINUOUS
 10
2.737488
 20
1.816083
  0
SEQEND
  8
0
  0
POLYLINE
  8
AB0CF1H
 62
     3
  6
CONTINUOUS
 66
     1
 40
0.003000
 41
0.003000
  0
VERTEX
  8
AB0CF1H
 62
     3
  6
CONTINUOUS
 10
2.425630
 20
1.634165
  0
VERTEX
  8
AB0CF1H
 62
     3
  6
CONTINUOUS
 10
2.737488
 20
1.634165
  0
SEQEND
  8
0
  0
POLYLINE
  8
AB0CF1H
 62
     3
  6
CONTINUOUS
 66
     1
 40
0.003000
 41
0.003000
  0
VERTEX
  8
AB0CF1H
 62
     3
  6
CONTINUOUS
 10
2.737488
 20
2.096591
  0
VERTEX
  8
AB0CF1H
 62
     3
  6
CONTINUOUS
 10
2.737488
 20
0.854516
  0
SEQEND
  8
0
  0
POLYLINE
  8
AB0CF1H
 62
     3
  6
CONTINUOUS
 66
     1
 40
0.003000
 41
0.003000
  0
VERTEX
  8
AB0CF1H
 62
     3
  6
CONTINUOUS
 10
-0.666984
 20
1.504224
  0
VERTEX
  8
AB0CF1H
 62
     3
  6
CONTINUOUS
 10
-0.666984
 20
1.556201
  0
SEQEND
  8
0
  0
POLYLINE
  8
AB0CF1H
 62
     3
  6
CONTINUOUS
 66
     1
 40
0.003000
 41
0.003000
  0
VERTEX
  8
AB0CF1H
 62
     3
  6
CONTINUOUS
 10
-0.666984
 20
1.504224
  0
VERTEX
  8
AB0CF1H
 62
     3
  6
CONTINUOUS
 10
-0.433087
 20
1.504224
  0
SEQEND
  8
0
  0
POLYLINE
  8
AB0CF1H
 62
     3
  6
CONTINUOUS
 66
     1
 40
0.003000
 41
0.003000
  0
VERTEX
  8
AB0CF1H
 62
     3
  6
CONTINUOUS
 10
-0.666984
 20
1.556201
  0
VERTEX
  8
AB0CF1H
 62
     3
  6
CONTINUOUS
 10
-0.718961
 20
1.673150
  0
SEQEND
  8
0
  0
POLYLINE
  8
AB0CF1H
 62
     3
  6
CONTINUOUS
 66
     1
 40
0.003000
 41
0.003000
  0
VERTEX
  8
AB0CF1H
 62
     3
  6
CONTINUOUS
 10
-0.666984
 20
1.673150
  0
VERTEX
  8
AB0CF1H
 62
     3
  6
CONTINUOUS
 10
-0.666984
 20
1.725126
  0
SEQEND
  8
0
  0
POLYLINE
  8
AB0CF1H
 62
     3
  6
CONTINUOUS
 66
     1
 40
0.003000
 41
0.003000
  0
VERTEX
  8
AB0CF1H
 62
     3
  6
CONTINUOUS
 10
-0.666984
 20
1.725126
  0
VERTEX
  8
AB0CF1H
 62
     3
  6
CONTINUOUS
 10
-0.433087
 20
1.725126
  0
SEQEND
  8
0
  0
POLYLINE
  8
AB0CF1H
 62
     3
  6
CONTINUOUS
 66
     1
 40
0.003000
 41
0.003000
  0
VERTEX
  8
AB0CF1H
 62
     3
  6
CONTINUOUS
 10
3.854988
 20
1.562697
  0
VERTEX
  8
AB0CF1H
 62
     3
  6
CONTINUOUS
 10
3.854988
 20
1.725126
  0
SEQEND
  8
0
  0
POLYLINE
  8
AB0CF1H
 62
     3
  6
CONTINUOUS
 66
     1
 40
0.003000
 41
0.003000
  0
VERTEX
  8
AB0CF1H
 62
     3
  6
CONTINUOUS
 10
3.854988
 20
1.283323
  0
VERTEX
  8
AB0CF1H
 62
     3
  6
CONTINUOUS
 10
3.854988
 20
1.445752
  0
SEQEND
  8
0
  0
POLYLINE
  8
AB0CF1H
 62
     3
  6
CONTINUOUS
 66
     1
 40
0.003000
 41
0.003000
  0
VERTEX
  8
AB0CF1H
 62
     3
  6
CONTINUOUS
 10
3.854988
 20
1.283323
  0
VERTEX
  8
AB0CF1H
 62
     3
  6
CONTINUOUS
 10
3.673071
 20
1.283323
  0
SEQEND
  8
0
  0
POLYLINE
  8
AB0CF1H
 62
     3
  6
CONTINUOUS
 66
     1
 40
0.003000
 41
0.003000
  0
VERTEX
  8
AB0CF1H
 62
     3
  6
CONTINUOUS
 10
3.854988
 20
1.725126
  0
VERTEX
  8
AB0CF1H
 62
     3
  6
CONTINUOUS
 10
3.673071
 20
1.725126
  0
SEQEND
  8
0
  0
POLYLINE
  8
AB0CF1H
 62
     3
  6
CONTINUOUS
 66
     1
 40
0.003000
 41
0.003000
  0
VERTEX
  8
AB0CF1H
 62
     3
  6
CONTINUOUS
 10
1.931850
 20
1.049429
  0
VERTEX
  8
AB0CF1H
 62
     3
  6
CONTINUOUS
 10
1.931850
 20
1.309311
  0
SEQEND
  8
0
  0
POLYLINE
  8
AB0CF1H
 62
     3
  6
CONTINUOUS
 66
     1
 40
0.003000
 41
0.003000
  0
VERTEX
  8
AB0CF1H
 62
     3
  6
CONTINUOUS
 10
1.892866
 20
1.309311
  0
VERTEX
  8
AB0CF1H
 62
     3
  6
CONTINUOUS
 10
1.892866
 20
1.465240
  0
SEQEND
  8
0
  0
POLYLINE
  8
AB0CF1H
 62
     3
  6
CONTINUOUS
 66
     1
 40
0.003000
 41
0.003000
  0
VERTEX
  8
AB0CF1H
 62
     3
  6
CONTINUOUS
 10
1.970831
 20
1.309311
  0
VERTEX
  8
AB0CF1H
 62
     3
  6
CONTINUOUS
 10
1.970831
 20
1.465240
  0
SEQEND
  8
0
  0
POLYLINE
  8
AB0CF1H
 62
     3
  6
CONTINUOUS
 66
     1
 40
0.003000
 41
0.003000
  0
VERTEX
  8
AB0CF1H
 62
     3
  6
CONTINUOUS
 10
1.892866
 20
1.309311
  0
VERTEX
  8
AB0CF1H
 62
     3
  6
CONTINUOUS
 10
1.970831
 20
1.309311
  0
SEQEND
  8
0
  0
POLYLINE
  8
AB0CF1H
 62
     3
  6
CONTINUOUS
 66
     1
 40
0.003000
 41
0.003000
  0
VERTEX
  8
AB0CF1H
 62
     3
  6
CONTINUOUS
 10
1.892866
 20
1.465240
  0
VERTEX
  8
AB0CF1H
 62
     3
  6
CONTINUOUS
 10
1.970831
 20
1.465240
  0
SEQEND
  8
0
  0
POLYLINE
  8
AB0CF1H
 62
     3
  6
CONTINUOUS
 66
     1
 40
0.003000
 41
0.003000
  0
VERTEX
  8
AB0CF1H
 62
     3
  6
CONTINUOUS
 10
1.931850
 20
1.491228
  0
VERTEX
  8
AB0CF1H
 62
     3
  6
CONTINUOUS
 10
1.749933
 20
1.491228
  0
SEQEND
  8
0
  0
POLYLINE
  8
AB0CF1H
 62
     3
  6
CONTINUOUS
 66
     1
 40
0.003000
 41
0.003000
  0
VERTEX
  8
AB0CF1H
 62
     3
  6
CONTINUOUS
 10
1.931850
 20
1.049429
  0
VERTEX
  8
AB0CF1H
 62
     3
  6
CONTINUOUS
 10
1.749933
 20
1.049429
  0
SEQEND
  8
0
  0
POLYLINE
  8
AB0CF1H
 62
     3
  6
CONTINUOUS
 66
     1
 40
0.003000
 41
0.003000
  0
VERTEX
  8
AB0CF1H
 62
     3
  6
CONTINUOUS
 10
1.931850
 20
1.270327
  0
VERTEX
  8
AB0CF1H
 62
     3
  6
CONTINUOUS
 10
1.749933
 20
1.270327
  0
SEQEND
  8
0
  0
POLYLINE
  8
AB0CF1H
 62
     3
  6
CONTINUOUS
 66
     1
 40
0.003000
 41
0.003000
  0
VERTEX
  8
AB0CF1H
 62
     3
  6
CONTINUOUS
 10
1.931850
 20
1.465240
  0
VERTEX
  8
AB0CF1H
 62
     3
  6
CONTINUOUS
 10
1.931850
 20
1.491228
  0
SEQEND
  8
0
  0
POLYLINE
  8
AB0CF1H
 62
     3
  6
CONTINUOUS
 66
     1
 40
0.003000
 41
0.003000
  0
VERTEX
  8
AB0CF1H
 62
     3
  6
CONTINUOUS
 10
1.931850
 20
1.946028
  0
VERTEX
  8
AB0CF1H
 62
     3
  6
CONTINUOUS
 10
1.931850
 20
2.308488
  0
SEQEND
  8
0
  0
POLYLINE
  8
AB0CF1H
 62
     1
  6
CONTINUOUS
 66
     1
 40
0.003000
 41
0.003000
  0
VERTEX
  8
AB0CF1H
 62
     1
  6
CONTINUOUS
 10
3.673071
 20
2.096591
  0
VERTEX
  8
AB0CF1H
 62
     1
  6
CONTINUOUS
 10
3.498732
 20
2.105299
  0
SEQEND
  8
0
  0
POLYLINE
  8
AB0CF1H
 62
     1
  6
CONTINUOUS
 66
     1
 40
0.003000
 41
0.003000
  0
VERTEX
  8
AB0CF1H
 62
     1
  6
CONTINUOUS
 10
3.498732
 20
2.105299
  0
VERTEX
  8
AB0CF1H
 62
     1
  6
CONTINUOUS
 10
3.274650
 20
1.869319
  0
SEQEND
  8
0
  0
POLYLINE
  8
AB0CF1H
 62
     1
  6
CONTINUOUS
 66
     1
 40
0.003000
 41
0.003000
  0
VERTEX
  8
AB0CF1H
 62
     1
  6
CONTINUOUS
 10
3.274650
 20
1.869319
  0
VERTEX
  8
AB0CF1H
 62
     1
  6
CONTINUOUS
 10
3.237610
 20
1.583594
  0
SEQEND
  8
0
  0
POLYLINE
  8
AB0CF1H
 62
     1
  6
CONTINUOUS
 66
     1
 40
0.003000
 41
0.003000
  0
VERTEX
  8
AB0CF1H
 62
     1
  6
CONTINUOUS
 10
3.237610
 20
1.583594
  0
VERTEX
  8
AB0CF1H
 62
     1
  6
CONTINUOUS
 10
3.232319
 20
1.271413
  0
SEQEND
  8
0
  0
POLYLINE
  8
AB0CF1H
 62
     1
  6
CONTINUOUS
 66
     1
 40
0.003000
 41
0.003000
  0
VERTEX
  8
AB0CF1H
 62
     1
  6
CONTINUOUS
 10
3.232319
 20
1.271413
  0
VERTEX
  8
AB0CF1H
 62
     1
  6
CONTINUOUS
 10
3.237953
 20
0.854516
  0
SEQEND
  8
0
  0
TEXT
  8
AB0CF1H
 10
3.573665
 20
1.014343
 40
0.083603
  1
20
 41
1.000000
  7
SN0
 71
     0
 72
     5
 11
3.680756
 21
1.014343
  0
TEXT
  8
AB0CF1H
 10
1.650528
 20
1.014343
 40
0.083603
  1
20
 41
1.000000
  7
SN0
 71
     0
 72
     5
 11
1.757618
 21
1.014343
  0
TEXT
  8
AB0CF1H
 10
3.573665
 20
1.235244
 40
0.083603
  1
19
 41
1.000000
  7
SN0
 71
     0
 72
     5
 11
3.680756
 21
1.235244
  0
TEXT
  8
AB0CF1H
 10
1.650528
 20
1.235244
 40
0.083603
  1
19
 41
1.000000
  7
SN0
 71
     0
 72
     5
 11
1.757618
 21
1.235244
  0
TEXT
  8
AB0CF1H
 10
3.573665
 20
1.456146
 40
0.083603
  1
18
 41
1.000000
  7
SN0
 71
     0
 72
     5
 11
3.680756
 21
1.456146
  0
TEXT
  8
AB0CF1H
 10
1.650528
 20
1.456146
 40
0.083603
  1
18
 41
1.000000
  7
SN0
 71
     0
 72
     5
 11
1.757618
 21
1.456146
  0
TEXT
  8
AB0CF1H
 10
3.573665
 20
1.677047
 40
0.083603
  1
17
 41
1.000000
  7
SN0
 71
     0
 72
     5
 11
3.680756
 21
1.677047
  0
TEXT
  8
AB0CF1H
 10
1.650528
 20
1.677047
 40
0.083603
  1
17
 41
1.000000
  7
SN0
 71
     0
 72
     5
 11
1.757618
 21
1.677047
  0
TEXT
  8
AB0CF1H
 10
3.573665
 20
1.897949
 40
0.083603
  1
16
 41
1.000000
  7
SN0
 71
     0
 72
     5
 11
3.680756
 21
1.897949
  0
TEXT
  8
AB0CF1H
 10
1.650528
 20
1.897949
 40
0.083603
  1
16
 41
1.000000
  7
SN0
 71
     0
 72
     5
 11
1.757618
 21
1.897949
  0
TEXT
  8
AB0CF1H
 10
1.650528
 20
2.118850
 40
0.083603
  1
15
 41
1.000000
  7
SN0
 71
     0
 72
     5
 11
1.757618
 21
2.118850
  0
TEXT
  8
AB0CF1H
 10
1.650528
 20
2.339748
 40
0.083603
  1
14
 41
1.000000
  7
SN0
 71
     0
 72
     5
 11
1.757618
 21
2.339748
  0
TEXT
  8
AB0CF1H
 10
1.650528
 20
2.560650
 40
0.083603
  1
13
 41
1.000000
  7
SN0
 71
     0
 72
     5
 11
1.757618
 21
2.560650
  0
TEXT
  8
AB0CF1H
 10
1.650528
 20
2.781551
 40
0.083603
  1
12
 41
1.000000
  7
SN0
 71
     0
 72
     5
 11
1.757618
 21
2.781551
  0
TEXT
  8
AB0CF1H
 10
1.650528
 20
3.002453
 40
0.083603
  1
11
 41
1.000000
  7
SN0
 71
     0
 72
     5
 11
1.757618
 21
3.002453
  0
TEXT
  8
AB0CF1H
 10
1.793461
 20
2.490484
 40
0.083603
  1
 RS232
 41
1.000000
  7
SN0
 71
     0
 72
     5
 11
2.102642
 21
2.490484
  0
TEXT
  8
AB0CF1H
 10
1.793461
 20
2.365736
 40
0.083603
  1
(RS485)
 41
1.000000
  7
SN0
 71
     0
 72
     5
 11
2.144097
 21
2.365736
  0
POLYLINE
  8
AB0CF1H
 62
     3
  6
CONTINUOUS
 66
     1
 40
0.003000
 41
0.003000
 70
     1
  0
VERTEX
  8
AB0CF1H
 62
     3
  6
CONTINUOUS
 10
3.478157
 20
1.348291
  0
VERTEX
  8
AB0CF1H
 62
     3
  6
CONTINUOUS
 10
3.442066
 20
1.338686
  0
VERTEX
  8
AB0CF1H
 62
     3
  6
CONTINUOUS
 10
3.420410
 20
1.314621
  0
VERTEX
  8
AB0CF1H
 62
     3
  6
CONTINUOUS
 10
3.413190
 20
1.283326
  0
VERTEX
  8
AB0CF1H
 62
     3
  6
CONTINUOUS
 10
3.420407
 20
1.252031
  0
VERTEX
  8
AB0CF1H
 62
     3
  6
CONTINUOUS
 10
3.442062
 20
1.227966
  0
VERTEX
  8
AB0CF1H
 62
     3
  6
CONTINUOUS
 10
3.478154
 20
1.218358
  0
VERTEX
  8
AB0CF1H
 62
     3
  6
CONTINUOUS
 10
3.514246
 20
1.227959
  0
VERTEX
  8
AB0CF1H
 62
     3
  6
CONTINUOUS
 10
3.535903
 20
1.252021
  0
VERTEX
  8
AB0CF1H
 62
     3
  6
CONTINUOUS
 10
3.543125
 20
1.283314
  0
VERTEX
  8
AB0CF1H
 62
     3
  6
CONTINUOUS
 10
3.535911
 20
1.314609
  0
VERTEX
  8
AB0CF1H
 62
     3
  6
CONTINUOUS
 10
3.514259
 20
1.338677
  0
VERTEX
  8
AB0CF1H
 62
     3
  6
CONTINUOUS
 10
3.478169
 20
1.348287
  0
VERTEX
  8
AB0CF1H
 62
     3
  6
CONTINUOUS
 10
3.478166
 20
1.348288
  0
VERTEX
  8
AB0CF1H
 62
     3
  6
CONTINUOUS
 10
3.478161
 20
1.348290
  0
SEQEND
  8
0
  0
POLYLINE
  8
AB0CF1H
 62
     3
  6
CONTINUOUS
 66
     1
 40
0.003000
 41
0.003000
 70
     1
  0
VERTEX
  8
AB0CF1H
 62
     3
  6
CONTINUOUS
 10
1.555020
 20
1.348291
  0
VERTEX
  8
AB0CF1H
 62
     3
  6
CONTINUOUS
 10
1.518928
 20
1.338686
  0
VERTEX
  8
AB0CF1H
 62
     3
  6
CONTINUOUS
 10
1.497272
 20
1.314621
  0
VERTEX
  8
AB0CF1H
 62
     3
  6
CONTINUOUS
 10
1.490053
 20
1.283326
  0
VERTEX
  8
AB0CF1H
 62
     3
  6
CONTINUOUS
 10
1.497270
 20
1.252031
  0
VERTEX
  8
AB0CF1H
 62
     3
  6
CONTINUOUS
 10
1.518924
 20
1.227966
  0
VERTEX
  8
AB0CF1H
 62
     3
  6
CONTINUOUS
 10
1.555016
 20
1.218358
  0
VERTEX
  8
AB0CF1H
 62
     3
  6
CONTINUOUS
 10
1.591108
 20
1.227959
  0
VERTEX
  8
AB0CF1H
 62
     3
  6
CONTINUOUS
 10
1.612765
 20
1.252021
  0
VERTEX
  8
AB0CF1H
 62
     3
  6
CONTINUOUS
 10
1.619987
 20
1.283314
  0
VERTEX
  8
AB0CF1H
 62
     3
  6
CONTINUOUS
 10
1.612773
 20
1.314609
  0
VERTEX
  8
AB0CF1H
 62
     3
  6
CONTINUOUS
 10
1.591121
 20
1.338677
  0
VERTEX
  8
AB0CF1H
 62
     3
  6
CONTINUOUS
 10
1.555031
 20
1.348287
  0
VERTEX
  8
AB0CF1H
 62
     3
  6
CONTINUOUS
 10
1.555028
 20
1.348288
  0
VERTEX
  8
AB0CF1H
 62
     3
  6
CONTINUOUS
 10
1.555023
 20
1.348290
  0
SEQEND
  8
0
  0
POLYLINE
  8
AB0CF1H
 62
     3
  6
CONTINUOUS
 66
     1
 40
0.003000
 41
0.003000
 70
     1
  0
VERTEX
  8
AB0CF1H
 62
     3
  6
CONTINUOUS
 10
3.478157
 20
1.569193
  0
VERTEX
  8
AB0CF1H
 62
     3
  6
CONTINUOUS
 10
3.442066
 20
1.559587
  0
VERTEX
  8
AB0CF1H
 62
     3
  6
CONTINUOUS
 10
3.420410
 20
1.535522
  0
VERTEX
  8
AB0CF1H
 62
     3
  6
CONTINUOUS
 10
3.413190
 20
1.504228
  0
VERTEX
  8
AB0CF1H
 62
     3
  6
CONTINUOUS
 10
3.420407
 20
1.472933
  0
VERTEX
  8
AB0CF1H
 62
     3
  6
CONTINUOUS
 10
3.442062
 20
1.448867
  0
VERTEX
  8
AB0CF1H
 62
     3
  6
CONTINUOUS
 10
3.478154
 20
1.439260
  0
VERTEX
  8
AB0CF1H
 62
     3
  6
CONTINUOUS
 10
3.514246
 20
1.448861
  0
VERTEX
  8
AB0CF1H
 62
     3
  6
CONTINUOUS
 10
3.535903
 20
1.472922
  0
VERTEX
  8
AB0CF1H
 62
     3
  6
CONTINUOUS
 10
3.543125
 20
1.504216
  0
VERTEX
  8
AB0CF1H
 62
     3
  6
CONTINUOUS
 10
3.535911
 20
1.535511
  0
VERTEX
  8
AB0CF1H
 62
     3
  6
CONTINUOUS
 10
3.514259
 20
1.559578
  0
VERTEX
  8
AB0CF1H
 62
     3
  6
CONTINUOUS
 10
3.478169
 20
1.569189
  0
VERTEX
  8
AB0CF1H
 62
     3
  6
CONTINUOUS
 10
3.478166
 20
1.569190
  0
VERTEX
  8
AB0CF1H
 62
     3
  6
CONTINUOUS
 10
3.478161
 20
1.569192
  0
SEQEND
  8
0
  0
POLYLINE
  8
AB0CF1H
 62
     3
  6
CONTINUOUS
 66
     1
 40
0.003000
 41
0.003000
 70
     1
  0
VERTEX
  8
AB0CF1H
 62
     3
  6
CONTINUOUS
 10
1.555020
 20
1.569193
  0
VERTEX
  8
AB0CF1H
 62
     3
  6
CONTINUOUS
 10
1.518928
 20
1.559587
  0
VERTEX
  8
AB0CF1H
 62
     3
  6
CONTINUOUS
 10
1.497272
 20
1.535522
  0
VERTEX
  8
AB0CF1H
 62
     3
  6
CONTINUOUS
 10
1.490053
 20
1.504228
  0
VERTEX
  8
AB0CF1H
 62
     3
  6
CONTINUOUS
 10
1.497270
 20
1.472933
  0
VERTEX
  8
AB0CF1H
 62
     3
  6
CONTINUOUS
 10
1.518924
 20
1.448867
  0
VERTEX
  8
AB0CF1H
 62
     3
  6
CONTINUOUS
 10
1.555016
 20
1.439260
  0
VERTEX
  8
AB0CF1H
 62
     3
  6
CONTINUOUS
 10
1.591108
 20
1.448861
  0
VERTEX
  8
AB0CF1H
 62
     3
  6
CONTINUOUS
 10
1.612765
 20
1.472922
  0
VERTEX
  8
AB0CF1H
 62
     3
  6
CONTINUOUS
 10
1.619987
 20
1.504216
  0
VERTEX
  8
AB0CF1H
 62
     3
  6
CONTINUOUS
 10
1.612773
 20
1.535511
  0
VERTEX
  8
AB0CF1H
 62
     3
  6
CONTINUOUS
 10
1.591121
 20
1.559578
  0
VERTEX
  8
AB0CF1H
 62
     3
  6
CONTINUOUS
 10
1.555031
 20
1.569189
  0
VERTEX
  8
AB0CF1H
 62
     3
  6
CONTINUOUS
 10
1.555028
 20
1.569190
  0
VERTEX
  8
AB0CF1H
 62
     3
  6
CONTINUOUS
 10
1.555023
 20
1.569192
  0
SEQEND
  8
0
  0
POLYLINE
  8
AB0CF1H
 62
     3
  6
CONTINUOUS
 66
     1
 40
0.003000
 41
0.003000
 70
     1
  0
VERTEX
  8
AB0CF1H
 62
     3
  6
CONTINUOUS
 10
3.478157
 20
1.790094
  0
VERTEX
  8
AB0CF1H
 62
     3
  6
CONTINUOUS
 10
3.442066
 20
1.780489
  0
VERTEX
  8
AB0CF1H
 62
     3
  6
CONTINUOUS
 10
3.420410
 20
1.756424
  0
VERTEX
  8
AB0CF1H
 62
     3
  6
CONTINUOUS
 10
3.413190
 20
1.725129
  0
VERTEX
  8
AB0CF1H
 62
     3
  6
CONTINUOUS
 10
3.420407
 20
1.693835
  0
VERTEX
  8
AB0CF1H
 62
     3
  6
CONTINUOUS
 10
3.442062
 20
1.669769
  0
VERTEX
  8
AB0CF1H
 62
     3
  6
CONTINUOUS
 10
3.478154
 20
1.660161
  0
VERTEX
  8
AB0CF1H
 62
     3
  6
CONTINUOUS
 10
3.514246
 20
1.669762
  0
VERTEX
  8
AB0CF1H
 62
     3
  6
CONTINUOUS
 10
3.535903
 20
1.693824
  0
VERTEX
  8
AB0CF1H
 62
     3
  6
CONTINUOUS
 10
3.543125
 20
1.725117
  0
VERTEX
  8
AB0CF1H
 62
     3
  6
CONTINUOUS
 10
3.535911
 20
1.756412
  0
VERTEX
  8
AB0CF1H
 62
     3
  6
CONTINUOUS
 10
3.514259
 20
1.780480
  0
VERTEX
  8
AB0CF1H
 62
     3
  6
CONTINUOUS
 10
3.478169
 20
1.790091
  0
VERTEX
  8
AB0CF1H
 62
     3
  6
CONTINUOUS
 10
3.478166
 20
1.790092
  0
VERTEX
  8
AB0CF1H
 62
     3
  6
CONTINUOUS
 10
3.478161
 20
1.790093
  0
SEQEND
  8
0
  0
POLYLINE
  8
AB0CF1H
 62
     3
  6
CONTINUOUS
 66
     1
 40
0.003000
 41
0.003000
 70
     1
  0
VERTEX
  8
AB0CF1H
 62
     3
  6
CONTINUOUS
 10
1.555020
 20
1.790094
  0
VERTEX
  8
AB0CF1H
 62
     3
  6
CONTINUOUS
 10
1.518928
 20
1.780489
  0
VERTEX
  8
AB0CF1H
 62
     3
  6
CONTINUOUS
 10
1.497272
 20
1.756424
  0
VERTEX
  8
AB0CF1H
 62
     3
  6
CONTINUOUS
 10
1.490053
 20
1.725129
  0
VERTEX
  8
AB0CF1H
 62
     3
  6
CONTINUOUS
 10
1.497270
 20
1.693835
  0
VERTEX
  8
AB0CF1H
 62
     3
  6
CONTINUOUS
 10
1.518924
 20
1.669769
  0
VERTEX
  8
AB0CF1H
 62
     3
  6
CONTINUOUS
 10
1.555016
 20
1.660161
  0
VERTEX
  8
AB0CF1H
 62
     3
  6
CONTINUOUS
 10
1.591108
 20
1.669762
  0
VERTEX
  8
AB0CF1H
 62
     3
  6
CONTINUOUS
 10
1.612765
 20
1.693824
  0
VERTEX
  8
AB0CF1H
 62
     3
  6
CONTINUOUS
 10
1.619987
 20
1.725117
  0
VERTEX
  8
AB0CF1H
 62
     3
  6
CONTINUOUS
 10
1.612773
 20
1.756412
  0
VERTEX
  8
AB0CF1H
 62
     3
  6
CONTINUOUS
 10
1.591121
 20
1.780480
  0
VERTEX
  8
AB0CF1H
 62
     3
  6
CONTINUOUS
 10
1.555031
 20
1.790091
  0
VERTEX
  8
AB0CF1H
 62
     3
  6
CONTINUOUS
 10
1.555028
 20
1.790092
  0
VERTEX
  8
AB0CF1H
 62
     3
  6
CONTINUOUS
 10
1.555023
 20
1.790093
  0
SEQEND
  8
0
  0
POLYLINE
  8
AB0CF1H
 62
     3
  6
CONTINUOUS
 66
     1
 40
0.003000
 41
0.003000
 70
     1
  0
VERTEX
  8
AB0CF1H
 62
     3
  6
CONTINUOUS
 10
3.478157
 20
2.010996
  0
VERTEX
  8
AB0CF1H
 62
     3
  6
CONTINUOUS
 10
3.442066
 20
2.001390
  0
VERTEX
  8
AB0CF1H
 62
     3
  6
CONTINUOUS
 10
3.420410
 20
1.977325
  0
VERTEX
  8
AB0CF1H
 62
     3
  6
CONTINUOUS
 10
3.413190
 20
1.946031
  0
VERTEX
  8
AB0CF1H
 62
     3
  6
CONTINUOUS
 10
3.420407
 20
1.914736
  0
VERTEX
  8
AB0CF1H
 62
     3
  6
CONTINUOUS
 10
3.442062
 20
1.890670
  0
VERTEX
  8
AB0CF1H
 62
     3
  6
CONTINUOUS
 10
3.478154
 20
1.881063
  0
VERTEX
  8
AB0CF1H
 62
     3
  6
CONTINUOUS
 10
3.514246
 20
1.890664
  0
VERTEX
  8
AB0CF1H
 62
     3
  6
CONTINUOUS
 10
3.535903
 20
1.914726
  0
VERTEX
  8
AB0CF1H
 62
     3
  6
CONTINUOUS
 10
3.543125
 20
1.946019
  0
VERTEX
  8
AB0CF1H
 62
     3
  6
CONTINUOUS
 10
3.535911
 20
1.977314
  0
VERTEX
  8
AB0CF1H
 62
     3
  6
CONTINUOUS
 10
3.514259
 20
2.001381
  0
VERTEX
  8
AB0CF1H
 62
     3
  6
CONTINUOUS
 10
3.478169
 20
2.010992
  0
VERTEX
  8
AB0CF1H
 62
     3
  6
CONTINUOUS
 10
3.478166
 20
2.010993
  0
VERTEX
  8
AB0CF1H
 62
     3
  6
CONTINUOUS
 10
3.478161
 20
2.010995
  0
SEQEND
  8
0
  0
POLYLINE
  8
AB0CF1H
 62
     3
  6
CONTINUOUS
 66
     1
 40
0.003000
 41
0.003000
 70
     1
  0
VERTEX
  8
AB0CF1H
 62
     3
  6
CONTINUOUS
 10
1.555020
 20
2.010996
  0
VERTEX
  8
AB0CF1H
 62
     3
  6
CONTINUOUS
 10
1.518928
 20
2.001390
  0
VERTEX
  8
AB0CF1H
 62
     3
  6
CONTINUOUS
 10
1.497272
 20
1.977325
  0
VERTEX
  8
AB0CF1H
 62
     3
  6
CONTINUOUS
 10
1.490053
 20
1.946031
  0
VERTEX
  8
AB0CF1H
 62
     3
  6
CONTINUOUS
 10
1.497270
 20
1.914736
  0
VERTEX
  8
AB0CF1H
 62
     3
  6
CONTINUOUS
 10
1.518924
 20
1.890670
  0
VERTEX
  8
AB0CF1H
 62
     3
  6
CONTINUOUS
 10
1.555016
 20
1.881063
  0
VERTEX
  8
AB0CF1H
 62
     3
  6
CONTINUOUS
 10
1.591108
 20
1.890664
  0
VERTEX
  8
AB0CF1H
 62
     3
  6
CONTINUOUS
 10
1.612765
 20
1.914726
  0
VERTEX
  8
AB0CF1H
 62
     3
  6
CONTINUOUS
 10
1.619987
 20
1.946019
  0
VERTEX
  8
AB0CF1H
 62
     3
  6
CONTINUOUS
 10
1.612773
 20
1.977314
  0
VERTEX
  8
AB0CF1H
 62
     3
  6
CONTINUOUS
 10
1.591121
 20
2.001381
  0
VERTEX
  8
AB0CF1H
 62
     3
  6
CONTINUOUS
 10
1.555031
 20
2.010992
  0
VERTEX
  8
AB0CF1H
 62
     3
  6
CONTINUOUS
 10
1.555028
 20
2.010993
  0
VERTEX
  8
AB0CF1H
 62
     3
  6
CONTINUOUS
 10
1.555023
 20
2.010995
  0
SEQEND
  8
0
  0
POLYLINE
  8
AB0CF1H
 62
     3
  6
CONTINUOUS
 66
     1
 40
0.003000
 41
0.003000
 70
     1
  0
VERTEX
  8
AB0CF1H
 62
     3
  6
CONTINUOUS
 10
1.555020
 20
2.231898
  0
VERTEX
  8
AB0CF1H
 62
     3
  6
CONTINUOUS
 10
1.518928
 20
2.222292
  0
VERTEX
  8
AB0CF1H
 62
     3
  6
CONTINUOUS
 10
1.497272
 20
2.198227
  0
VERTEX
  8
AB0CF1H
 62
     3
  6
CONTINUOUS
 10
1.490053
 20
2.166933
  0
VERTEX
  8
AB0CF1H
 62
     3
  6
CONTINUOUS
 10
1.497270
 20
2.135638
  0
VERTEX
  8
AB0CF1H
 62
     3
  6
CONTINUOUS
 10
1.518924
 20
2.111572
  0
VERTEX
  8
AB0CF1H
 62
     3
  6
CONTINUOUS
 10
1.555016
 20
2.101965
  0
VERTEX
  8
AB0CF1H
 62
     3
  6
CONTINUOUS
 10
1.591108
 20
2.111565
  0
VERTEX
  8
AB0CF1H
 62
     3
  6
CONTINUOUS
 10
1.612765
 20
2.135627
  0
VERTEX
  8
AB0CF1H
 62
     3
  6
CONTINUOUS
 10
1.619987
 20
2.166920
  0
VERTEX
  8
AB0CF1H
 62
     3
  6
CONTINUOUS
 10
1.612773
 20
2.198215
  0
VERTEX
  8
AB0CF1H
 62
     3
  6
CONTINUOUS
 10
1.591121
 20
2.222283
  0
VERTEX
  8
AB0CF1H
 62
     3
  6
CONTINUOUS
 10
1.555031
 20
2.231894
  0
VERTEX
  8
AB0CF1H
 62
     3
  6
CONTINUOUS
 10
1.555028
 20
2.231895
  0
VERTEX
  8
AB0CF1H
 62
     3
  6
CONTINUOUS
 10
1.555023
 20
2.231897
  0
SEQEND
  8
0
  0
POLYLINE
  8
AB0CF1H
 62
     3
  6
CONTINUOUS
 66
     1
 40
0.003000
 41
0.003000
 70
     1
  0
VERTEX
  8
AB0CF1H
 62
     3
  6
CONTINUOUS
 10
1.555020
 20
2.452795
  0
VERTEX
  8
AB0CF1H
 62
     3
  6
CONTINUOUS
 10
1.518928
 20
2.443189
  0
VERTEX
  8
AB0CF1H
 62
     3
  6
CONTINUOUS
 10
1.497272
 20
2.419125
  0
VERTEX
  8
AB0CF1H
 62
     3
  6
CONTINUOUS
 10
1.490053
 20
2.387830
  0
VERTEX
  8
AB0CF1H
 62
     3
  6
CONTINUOUS
 10
1.497270
 20
2.356535
  0
VERTEX
  8
AB0CF1H
 62
     3
  6
CONTINUOUS
 10
1.518924
 20
2.332470
  0
VERTEX
  8
AB0CF1H
 62
     3
  6
CONTINUOUS
 10
1.555016
 20
2.322862
  0
VERTEX
  8
AB0CF1H
 62
     3
  6
CONTINUOUS
 10
1.591108
 20
2.332463
  0
VERTEX
  8
AB0CF1H
 62
     3
  6
CONTINUOUS
 10
1.612765
 20
2.356525
  0
VERTEX
  8
AB0CF1H
 62
     3
  6
CONTINUOUS
 10
1.619987
 20
2.387818
  0
VERTEX
  8
AB0CF1H
 62
     3
  6
CONTINUOUS
 10
1.612773
 20
2.419113
  0
VERTEX
  8
AB0CF1H
 62
     3
  6
CONTINUOUS
 10
1.591121
 20
2.443181
  0
VERTEX
  8
AB0CF1H
 62
     3
  6
CONTINUOUS
 10
1.555031
 20
2.452791
  0
VERTEX
  8
AB0CF1H
 62
     3
  6
CONTINUOUS
 10
1.555028
 20
2.452792
  0
VERTEX
  8
AB0CF1H
 62
     3
  6
CONTINUOUS
 10
1.555023
 20
2.452794
  0
SEQEND
  8
0
  0
POLYLINE
  8
AB0CF1H
 62
     3
  6
CONTINUOUS
 66
     1
 40
0.003000
 41
0.003000
 70
     1
  0
VERTEX
  8
AB0CF1H
 62
     3
  6
CONTINUOUS
 10
1.555020
 20
2.673697
  0
VERTEX
  8
AB0CF1H
 62
     3
  6
CONTINUOUS
 10
1.518928
 20
2.664091
  0
VERTEX
  8
AB0CF1H
 62
     3
  6
CONTINUOUS
 10
1.497272
 20
2.640026
  0
VERTEX
  8
AB0CF1H
 62
     3
  6
CONTINUOUS
 10
1.490053
 20
2.608732
  0
VERTEX
  8
AB0CF1H
 62
     3
  6
CONTINUOUS
 10
1.497270
 20
2.577437
  0
VERTEX
  8
AB0CF1H
 62
     3
  6
CONTINUOUS
 10
1.518924
 20
2.553371
  0
VERTEX
  8
AB0CF1H
 62
     3
  6
CONTINUOUS
 10
1.555016
 20
2.543764
  0
VERTEX
  8
AB0CF1H
 62
     3
  6
CONTINUOUS
 10
1.591108
 20
2.553365
  0
VERTEX
  8
AB0CF1H
 62
     3
  6
CONTINUOUS
 10
1.612765
 20
2.577426
  0
VERTEX
  8
AB0CF1H
 62
     3
  6
CONTINUOUS
 10
1.619987
 20
2.608719
  0
VERTEX
  8
AB0CF1H
 62
     3
  6
CONTINUOUS
 10
1.612773
 20
2.640015
  0
VERTEX
  8
AB0CF1H
 62
     3
  6
CONTINUOUS
 10
1.591121
 20
2.664082
  0
VERTEX
  8
AB0CF1H
 62
     3
  6
CONTINUOUS
 10
1.555031
 20
2.673693
  0
VERTEX
  8
AB0CF1H
 62
     3
  6
CONTINUOUS
 10
1.555028
 20
2.673694
  0
VERTEX
  8
AB0CF1H
 62
     3
  6
CONTINUOUS
 10
1.555023
 20
2.673696
  0
SEQEND
  8
0
  0
POLYLINE
  8
AB0CF1H
 62
     3
  6
CONTINUOUS
 66
     1
 40
0.003000
 41
0.003000
 70
     1
  0
VERTEX
  8
AB0CF1H
 62
     3
  6
CONTINUOUS
 10
1.555020
 20
2.894598
  0
VERTEX
  8
AB0CF1H
 62
     3
  6
CONTINUOUS
 10
1.518928
 20
2.884993
  0
VERTEX
  8
AB0CF1H
 62
     3
  6
CONTINUOUS
 10
1.497272
 20
2.860928
  0
VERTEX
  8
AB0CF1H
 62
     3
  6
CONTINUOUS
 10
1.490053
 20
2.829633
  0
VERTEX
  8
AB0CF1H
 62
     3
  6
CONTINUOUS
 10
1.497270
 20
2.798339
  0
VERTEX
  8
AB0CF1H
 62
     3
  6
CONTINUOUS
 10
1.518924
 20
2.774273
  0
VERTEX
  8
AB0CF1H
 62
     3
  6
CONTINUOUS
 10
1.555016
 20
2.764665
  0
VERTEX
  8
AB0CF1H
 62
     3
  6
CONTINUOUS
 10
1.591108
 20
2.774266
  0
VERTEX
  8
AB0CF1H
 62
     3
  6
CONTINUOUS
 10
1.612765
 20
2.798328
  0
VERTEX
  8
AB0CF1H
 62
     3
  6
CONTINUOUS
 10
1.619987
 20
2.829621
  0
VERTEX
  8
AB0CF1H
 62
     3
  6
CONTINUOUS
 10
1.612773
 20
2.860916
  0
VERTEX
  8
AB0CF1H
 62
     3
  6
CONTINUOUS
 10
1.591121
 20
2.884984
  0
VERTEX
  8
AB0CF1H
 62
     3
  6
CONTINUOUS
 10
1.555031
 20
2.894594
  0
VERTEX
  8
AB0CF1H
 62
     3
  6
CONTINUOUS
 10
1.555028
 20
2.894596
  0
VERTEX
  8
AB0CF1H
 62
     3
  6
CONTINUOUS
 10
1.555023
 20
2.894597
  0
SEQEND
  8
0
  0
POLYLINE
  8
AB0CF1H
 62
     3
  6
CONTINUOUS
 66
     1
 40
0.003000
 41
0.003000
  0
VERTEX
  8
AB0CF1H
 62
     3
  6
CONTINUOUS
 10
3.673071
 20
0.854516
  0
VERTEX
  8
AB0CF1H
 62
     3
  6
CONTINUOUS
 10
3.237953
 20
0.854516
  0
SEQEND
  8
0
  0
POLYLINE
  8
AB0CF1H
 62
     3
  6
CONTINUOUS
 66
     1
 40
0.003000
 41
0.003000
  0
VERTEX
  8
AB0CF1H
 62
     3
  6
CONTINUOUS
 10
3.236547
 20
0.958469
  0
VERTEX
  8
AB0CF1H
 62
     3
  6
CONTINUOUS
 10
3.673071
 20
0.958469
  0
SEQEND
  8
0
  0
POLYLINE
  8
AB0CF1H
 62
     3
  6
CONTINUOUS
 66
     1
 40
0.003000
 41
0.003000
  0
VERTEX
  8
AB0CF1H
 62
     3
  6
CONTINUOUS
 10
1.340807
 20
3.141492
  0
VERTEX
  8
AB0CF1H
 62
     3
  6
CONTINUOUS
 10
1.749933
 20
3.141492
  0
SEQEND
  8
0
  0
POLYLINE
  8
AB0CF1H
 62
     3
  6
CONTINUOUS
 66
     1
 40
0.003000
 41
0.003000
  0
VERTEX
  8
AB0CF1H
 62
     3
  6
CONTINUOUS
 10
1.313409
 20
0.958469
  0
VERTEX
  8
AB0CF1H
 62
     3
  6
CONTINUOUS
 10
1.749933
 20
0.958469
  0
SEQEND
  8
0
  0
POLYLINE
  8
AB0CF1H
 62
     3
  6
CONTINUOUS
 66
     1
 40
0.003000
 41
0.003000
  0
VERTEX
  8
AB0CF1H
 62
     3
  6
CONTINUOUS
 10
1.749933
 20
0.854516
  0
VERTEX
  8
AB0CF1H
 62
     3
  6
CONTINUOUS
 10
1.314811
 20
0.854516
  0
SEQEND
  8
0
  0
POLYLINE
  8
AB0CF1H
 62
     3
  6
CONTINUOUS
 66
     1
 40
0.003000
 41
0.003000
  0
VERTEX
  8
AB0CF1H
 62
     3
  6
CONTINUOUS
 10
1.749933
 20
3.245445
  0
VERTEX
  8
AB0CF1H
 62
     3
  6
CONTINUOUS
 10
1.316819
 20
3.245445
  0
SEQEND
  8
0
  0
POLYLINE
  8
AB0CF1H
 62
     3
  6
CONTINUOUS
 66
     1
 40
0.003000
 41
0.003000
  0
VERTEX
  8
AB0CF1H
 62
     3
  6
CONTINUOUS
 10
3.361209
 20
1.960476
  0
VERTEX
  8
AB0CF1H
 62
     3
  6
CONTINUOUS
 10
3.361209
 20
0.958469
  0
SEQEND
  8
0
  0
POLYLINE
  8
AB0CF1H
 62
     3
  6
CONTINUOUS
 66
     1
 40
0.003000
 41
0.003000
  0
VERTEX
  8
AB0CF1H
 62
     3
  6
CONTINUOUS
 10
1.438071
 20
3.141492
  0
VERTEX
  8
AB0CF1H
 62
     3
  6
CONTINUOUS
 10
1.438071
 20
0.958469
  0
SEQEND
  8
0
  0
POLYLINE
  8
AB0CF1H
 62
     3
  6
CONTINUOUS
 66
     1
 40
0.003000
 41
0.003000
  0
VERTEX
  8
AB0CF1H
 62
     3
  6
CONTINUOUS
 10
1.931850
 20
3.050531
  0
VERTEX
  8
AB0CF1H
 62
     3
  6
CONTINUOUS
 10
1.749933
 20
3.050531
  0
SEQEND
  8
0
  0
POLYLINE
  8
AB0CF1H
 62
     3
  6
CONTINUOUS
 66
     1
 40
0.003000
 41
0.003000
  0
VERTEX
  8
AB0CF1H
 62
     3
  6
CONTINUOUS
 10
1.931850
 20
2.631260
  0
VERTEX
  8
AB0CF1H
 62
     3
  6
CONTINUOUS
 10
1.931850
 20
3.050531
  0
SEQEND
  8
0
  0
POLYLINE
  8
AB0CF1H
 62
     3
  6
CONTINUOUS
 66
     1
 40
0.003000
 41
0.003000
  0
VERTEX
  8
AB0CF1H
 62
     3
  6
CONTINUOUS
 10
1.931850
 20
1.946028
  0
VERTEX
  8
AB0CF1H
 62
     3
  6
CONTINUOUS
 10
1.749933
 20
1.946028
  0
SEQEND
  8
0
  0
POLYLINE
  8
AB0CF1H
 62
     3
  6
CONTINUOUS
 66
     1
 40
0.003000
 41
0.003000
  0
VERTEX
  8
AB0CF1H
 62
     3
  6
CONTINUOUS
 10
1.931850
 20
2.829630
  0
VERTEX
  8
AB0CF1H
 62
     3
  6
CONTINUOUS
 10
1.749933
 20
2.829630
  0
SEQEND
  8
0
  0
POLYLINE
  8
AB0CF1H
 62
     3
  6
CONTINUOUS
 66
     1
 40
0.003000
 41
0.003000
  0
VERTEX
  8
AB0CF1H
 62
     3
  6
CONTINUOUS
 10
3.416531
 20
1.262748
  0
VERTEX
  8
AB0CF1H
 62
     3
  6
CONTINUOUS
 10
3.460406
 20
1.288079
  0
SEQEND
  8
0
  0
POLYLINE
  8
AB0CF1H
 62
     3
  6
CONTINUOUS
 66
     1
 40
0.003000
 41
0.003000
  0
VERTEX
  8
AB0CF1H
 62
     3
  6
CONTINUOUS
 10
1.493394
 20
1.262748
  0
VERTEX
  8
AB0CF1H
 62
     3
  6
CONTINUOUS
 10
1.537268
 20
1.288079
  0
SEQEND
  8
0
  0
POLYLINE
  8
AB0CF1H
 62
     3
  6
CONTINUOUS
 66
     1
 40
0.003000
 41
0.003000
  0
VERTEX
  8
AB0CF1H
 62
     3
  6
CONTINUOUS
 10
3.416531
 20
1.483646
  0
VERTEX
  8
AB0CF1H
 62
     3
  6
CONTINUOUS
 10
3.460406
 20
1.508980
  0
SEQEND
  8
0
  0
POLYLINE
  8
AB0CF1H
 62
     3
  6
CONTINUOUS
 66
     1
 40
0.003000
 41
0.003000
  0
VERTEX
  8
AB0CF1H
 62
     3
  6
CONTINUOUS
 10
1.493394
 20
1.483646
  0
VERTEX
  8
AB0CF1H
 62
     3
  6
CONTINUOUS
 10
1.537268
 20
1.508980
  0
SEQEND
  8
0
  0
POLYLINE
  8
AB0CF1H
 62
     3
  6
CONTINUOUS
 66
     1
 40
0.003000
 41
0.003000
  0
VERTEX
  8
AB0CF1H
 62
     3
  6
CONTINUOUS
 10
3.416531
 20
1.704547
  0
VERTEX
  8
AB0CF1H
 62
     3
  6
CONTINUOUS
 10
3.460406
 20
1.729882
  0
SEQEND
  8
0
  0
POLYLINE
  8
AB0CF1H
 62
     3
  6
CONTINUOUS
 66
     1
 40
0.003000
 41
0.003000
  0
VERTEX
  8
AB0CF1H
 62
     3
  6
CONTINUOUS
 10
1.493394
 20
1.704547
  0
VERTEX
  8
AB0CF1H
 62
     3
  6
CONTINUOUS
 10
1.537268
 20
1.729882
  0
SEQEND
  8
0
  0
POLYLINE
  8
AB0CF1H
 62
     3
  6
CONTINUOUS
 66
     1
 40
0.003000
 41
0.003000
  0
VERTEX
  8
AB0CF1H
 62
     3
  6
CONTINUOUS
 10
3.416531
 20
1.925449
  0
VERTEX
  8
AB0CF1H
 62
     3
  6
CONTINUOUS
 10
3.460406
 20
1.950783
  0
SEQEND
  8
0
  0
POLYLINE
  8
AB0CF1H
 62
     3
  6
CONTINUOUS
 66
     1
 40
0.003000
 41
0.003000
  0
VERTEX
  8
AB0CF1H
 62
     3
  6
CONTINUOUS
 10
1.493394
 20
1.925449
  0
VERTEX
  8
AB0CF1H
 62
     3
  6
CONTINUOUS
 10
1.537268
 20
1.950783
  0
SEQEND
  8
0
  0
POLYLINE
  8
AB0CF1H
 62
     3
  6
CONTINUOUS
 66
     1
 40
0.003000
 41
0.003000
  0
VERTEX
  8
AB0CF1H
 62
     3
  6
CONTINUOUS
 10
1.493394
 20
2.146350
  0
VERTEX
  8
AB0CF1H
 62
     3
  6
CONTINUOUS
 10
1.537268
 20
2.171685
  0
SEQEND
  8
0
  0
POLYLINE
  8
AB0CF1H
 62
     3
  6
CONTINUOUS
 66
     1
 40
0.003000
 41
0.003000
  0
VERTEX
  8
AB0CF1H
 62
     3
  6
CONTINUOUS
 10
1.493394
 20
2.367252
  0
VERTEX
  8
AB0CF1H
 62
     3
  6
CONTINUOUS
 10
1.537268
 20
2.392587
  0
SEQEND
  8
0
  0
POLYLINE
  8
AB0CF1H
 62
     3
  6
CONTINUOUS
 66
     1
 40
0.003000
 41
0.003000
  0
VERTEX
  8
AB0CF1H
 62
     3
  6
CONTINUOUS
 10
1.493394
 20
2.588154
  0
VERTEX
  8
AB0CF1H
 62
     3
  6
CONTINUOUS
 10
1.537268
 20
2.613488
  0
SEQEND
  8
0
  0
POLYLINE
  8
AB0CF1H
 62
     3
  6
CONTINUOUS
 66
     1
 40
0.003000
 41
0.003000
  0
VERTEX
  8
AB0CF1H
 62
     3
  6
CONTINUOUS
 10
1.493394
 20
2.809055
  0
VERTEX
  8
AB0CF1H
 62
     3
  6
CONTINUOUS
 10
1.537268
 20
2.834386
  0
SEQEND
  8
0
  0
POLYLINE
  8
AB0CF1H
 62
     3
  6
CONTINUOUS
 66
     1
 40
0.003000
 41
0.003000
  0
VERTEX
  8
AB0CF1H
 62
     3
  6
CONTINUOUS
 10
3.429524
 20
1.240240
  0
VERTEX
  8
AB0CF1H
 62
     3
  6
CONTINUOUS
 10
3.473402
 20
1.265575
  0
SEQEND
  8
0
  0
POLYLINE
  8
AB0CF1H
 62
     3
  6
CONTINUOUS
 66
     1
 40
0.003000
 41
0.003000
  0
VERTEX
  8
AB0CF1H
 62
     3
  6
CONTINUOUS
 10
1.506386
 20
1.240240
  0
VERTEX
  8
AB0CF1H
 62
     3
  6
CONTINUOUS
 10
1.550264
 20
1.265575
  0
SEQEND
  8
0
  0
POLYLINE
  8
AB0CF1H
 62
     3
  6
CONTINUOUS
 66
     1
 40
0.003000
 41
0.003000
  0
VERTEX
  8
AB0CF1H
 62
     3
  6
CONTINUOUS
 10
3.429524
 20
1.461142
  0
VERTEX
  8
AB0CF1H
 62
     3
  6
CONTINUOUS
 10
3.473402
 20
1.486472
  0
SEQEND
  8
0
  0
POLYLINE
  8
AB0CF1H
 62
     3
  6
CONTINUOUS
 66
     1
 40
0.003000
 41
0.003000
  0
VERTEX
  8
AB0CF1H
 62
     3
  6
CONTINUOUS
 10
1.506386
 20
1.461142
  0
VERTEX
  8
AB0CF1H
 62
     3
  6
CONTINUOUS
 10
1.550264
 20
1.486472
  0
SEQEND
  8
0
  0
POLYLINE
  8
AB0CF1H
 62
     3
  6
CONTINUOUS
 66
     1
 40
0.003000
 41
0.003000
  0
VERTEX
  8
AB0CF1H
 62
     3
  6
CONTINUOUS
 10
3.429524
 20
1.682043
  0
VERTEX
  8
AB0CF1H
 62
     3
  6
CONTINUOUS
 10
3.473402
 20
1.707374
  0
SEQEND
  8
0
  0
POLYLINE
  8
AB0CF1H
 62
     3
  6
CONTINUOUS
 66
     1
 40
0.003000
 41
0.003000
  0
VERTEX
  8
AB0CF1H
 62
     3
  6
CONTINUOUS
 10
1.506386
 20
1.682043
  0
VERTEX
  8
AB0CF1H
 62
     3
  6
CONTINUOUS
 10
1.550264
 20
1.707374
  0
SEQEND
  8
0
  0
POLYLINE
  8
AB0CF1H
 62
     3
  6
CONTINUOUS
 66
     1
 40
0.003000
 41
0.003000
  0
VERTEX
  8
AB0CF1H
 62
     3
  6
CONTINUOUS
 10
3.429524
 20
1.902945
  0
VERTEX
  8
AB0CF1H
 62
     3
  6
CONTINUOUS
 10
3.473402
 20
1.928276
  0
SEQEND
  8
0
  0
POLYLINE
  8
AB0CF1H
 62
     3
  6
CONTINUOUS
 66
     1
 40
0.003000
 41
0.003000
  0
VERTEX
  8
AB0CF1H
 62
     3
  6
CONTINUOUS
 10
1.506386
 20
1.902945
  0
VERTEX
  8
AB0CF1H
 62
     3
  6
CONTINUOUS
 10
1.550264
 20
1.928276
  0
SEQEND
  8
0
  0
POLYLINE
  8
AB0CF1H
 62
     3
  6
CONTINUOUS
 66
     1
 40
0.003000
 41
0.003000
  0
VERTEX
  8
AB0CF1H
 62
     3
  6
CONTINUOUS
 10
1.506386
 20
2.123846
  0
VERTEX
  8
AB0CF1H
 62
     3
  6
CONTINUOUS
 10
1.550264
 20
2.149177
  0
SEQEND
  8
0
  0
POLYLINE
  8
AB0CF1H
 62
     3
  6
CONTINUOUS
 66
     1
 40
0.003000
 41
0.003000
  0
VERTEX
  8
AB0CF1H
 62
     3
  6
CONTINUOUS
 10
1.506386
 20
2.344748
  0
VERTEX
  8
AB0CF1H
 62
     3
  6
CONTINUOUS
 10
1.550264
 20
2.370079
  0
SEQEND
  8
0
  0
POLYLINE
  8
AB0CF1H
 62
     3
  6
CONTINUOUS
 66
     1
 40
0.003000
 41
0.003000
  0
VERTEX
  8
AB0CF1H
 62
     3
  6
CONTINUOUS
 10
1.506386
 20
2.565650
  0
VERTEX
  8
AB0CF1H
 62
     3
  6
CONTINUOUS
 10
1.550264
 20
2.590980
  0
SEQEND
  8
0
  0
POLYLINE
  8
AB0CF1H
 62
     3
  6
CONTINUOUS
 66
     1
 40
0.003000
 41
0.003000
  0
VERTEX
  8
AB0CF1H
 62
     3
  6
CONTINUOUS
 10
1.506386
 20
2.786551
  0
VERTEX
  8
AB0CF1H
 62
     3
  6
CONTINUOUS
 10
1.550264
 20
2.811882
  0
SEQEND
  8
0
  0
POLYLINE
  8
AB0CF1H
 62
     3
  6
CONTINUOUS
 66
     1
 40
0.003000
 41
0.003000
  0
VERTEX
  8
AB0CF1H
 62
     3
  6
CONTINUOUS
 10
3.495909
 20
1.278567
  0
VERTEX
  8
AB0CF1H
 62
     3
  6
CONTINUOUS
 10
3.521240
 20
1.234689
  0
SEQEND
  8
0
  0
POLYLINE
  8
AB0CF1H
 62
     3
  6
CONTINUOUS
 66
     1
 40
0.003000
 41
0.003000
  0
VERTEX
  8
AB0CF1H
 62
     3
  6
CONTINUOUS
 10
1.572772
 20
1.278567
  0
VERTEX
  8
AB0CF1H
 62
     3
  6
CONTINUOUS
 10
1.598102
 20
1.234689
  0
SEQEND
  8
0
  0
POLYLINE
  8
AB0CF1H
 62
     3
  6
CONTINUOUS
 66
     1
 40
0.003000
 41
0.003000
  0
VERTEX
  8
AB0CF1H
 62
     3
  6
CONTINUOUS
 10
3.495909
 20
1.499469
  0
VERTEX
  8
AB0CF1H
 62
     3
  6
CONTINUOUS
 10
3.521240
 20
1.455591
  0
SEQEND
  8
0
  0
POLYLINE
  8
AB0CF1H
 62
     3
  6
CONTINUOUS
 66
     1
 40
0.003000
 41
0.003000
  0
VERTEX
  8
AB0CF1H
 62
     3
  6
CONTINUOUS
 10
1.572772
 20
1.499469
  0
VERTEX
  8
AB0CF1H
 62
     3
  6
CONTINUOUS
 10
1.598102
 20
1.455591
  0
SEQEND
  8
0
  0
POLYLINE
  8
AB0CF1H
 62
     3
  6
CONTINUOUS
 66
     1
 40
0.003000
 41
0.003000
  0
VERTEX
  8
AB0CF1H
 62
     3
  6
CONTINUOUS
 10
3.495909
 20
1.720370
  0
VERTEX
  8
AB0CF1H
 62
     3
  6
CONTINUOUS
 10
3.521240
 20
1.676492
  0
SEQEND
  8
0
  0
POLYLINE
  8
AB0CF1H
 62
     3
  6
CONTINUOUS
 66
     1
 40
0.003000
 41
0.003000
  0
VERTEX
  8
AB0CF1H
 62
     3
  6
CONTINUOUS
 10
1.572772
 20
1.720370
  0
VERTEX
  8
AB0CF1H
 62
     3
  6
CONTINUOUS
 10
1.598102
 20
1.676492
  0
SEQEND
  8
0
  0
POLYLINE
  8
AB0CF1H
 62
     3
  6
CONTINUOUS
 66
     1
 40
0.003000
 41
0.003000
  0
VERTEX
  8
AB0CF1H
 62
     3
  6
CONTINUOUS
 10
3.495909
 20
1.941272
  0
VERTEX
  8
AB0CF1H
 62
     3
  6
CONTINUOUS
 10
3.521240
 20
1.897394
  0
SEQEND
  8
0
  0
POLYLINE
  8
AB0CF1H
 62
     3
  6
CONTINUOUS
 66
     1
 40
0.003000
 41
0.003000
  0
VERTEX
  8
AB0CF1H
 62
     3
  6
CONTINUOUS
 10
1.572772
 20
1.941272
  0
VERTEX
  8
AB0CF1H
 62
     3
  6
CONTINUOUS
 10
1.598102
 20
1.897394
  0
SEQEND
  8
0
  0
POLYLINE
  8
AB0CF1H
 62
     3
  6
CONTINUOUS
 66
     1
 40
0.003000
 41
0.003000
  0
VERTEX
  8
AB0CF1H
 62
     3
  6
CONTINUOUS
 10
1.572772
 20
2.162173
  0
VERTEX
  8
AB0CF1H
 62
     3
  6
CONTINUOUS
 10
1.598102
 20
2.118295
  0
SEQEND
  8
0
  0
POLYLINE
  8
AB0CF1H
 62
     3
  6
CONTINUOUS
 66
     1
 40
0.003000
 41
0.003000
  0
VERTEX
  8
AB0CF1H
 62
     3
  6
CONTINUOUS
 10
1.572772
 20
2.383075
  0
VERTEX
  8
AB0CF1H
 62
     3
  6
CONTINUOUS
 10
1.598102
 20
2.339197
  0
SEQEND
  8
0
  0
POLYLINE
  8
AB0CF1H
 62
     3
  6
CONTINUOUS
 66
     1
 40
0.003000
 41
0.003000
  0
VERTEX
  8
AB0CF1H
 62
     3
  6
CONTINUOUS
 10
1.572772
 20
2.603972
  0
VERTEX
  8
AB0CF1H
 62
     3
  6
CONTINUOUS
 10
1.598102
 20
2.560098
  0
SEQEND
  8
0
  0
POLYLINE
  8
AB0CF1H
 62
     3
  6
CONTINUOUS
 66
     1
 40
0.003000
 41
0.003000
  0
VERTEX
  8
AB0CF1H
 62
     3
  6
CONTINUOUS
 10
1.572772
 20
2.824874
  0
VERTEX
  8
AB0CF1H
 62
     3
  6
CONTINUOUS
 10
1.598102
 20
2.780996
  0
SEQEND
  8
0
  0
POLYLINE
  8
AB0CF1H
 62
     3
  6
CONTINUOUS
 66
     1
 40
0.003000
 41
0.003000
  0
VERTEX
  8
AB0CF1H
 62
     3
  6
CONTINUOUS
 10
3.473402
 20
1.265575
  0
VERTEX
  8
AB0CF1H
 62
     3
  6
CONTINUOUS
 10
3.498732
 20
1.221697
  0
SEQEND
  8
0
  0
POLYLINE
  8
AB0CF1H
 62
     3
  6
CONTINUOUS
 66
     1
 40
0.003000
 41
0.003000
  0
VERTEX
  8
AB0CF1H
 62
     3
  6
CONTINUOUS
 10
1.550264
 20
1.265575
  0
VERTEX
  8
AB0CF1H
 62
     3
  6
CONTINUOUS
 10
1.575594
 20
1.221697
  0
SEQEND
  8
0
  0
POLYLINE
  8
AB0CF1H
 62
     3
  6
CONTINUOUS
 66
     1
 40
0.003000
 41
0.003000
  0
VERTEX
  8
AB0CF1H
 62
     3
  6
CONTINUOUS
 10
3.473402
 20
1.486472
  0
VERTEX
  8
AB0CF1H
 62
     3
  6
CONTINUOUS
 10
3.498732
 20
1.442598
  0
SEQEND
  8
0
  0
POLYLINE
  8
AB0CF1H
 62
     3
  6
CONTINUOUS
 66
     1
 40
0.003000
 41
0.003000
  0
VERTEX
  8
AB0CF1H
 62
     3
  6
CONTINUOUS
 10
1.550264
 20
1.486472
  0
VERTEX
  8
AB0CF1H
 62
     3
  6
CONTINUOUS
 10
1.575594
 20
1.442598
  0
SEQEND
  8
0
  0
POLYLINE
  8
AB0CF1H
 62
     3
  6
CONTINUOUS
 66
     1
 40
0.003000
 41
0.003000
  0
VERTEX
  8
AB0CF1H
 62
     3
  6
CONTINUOUS
 10
3.473402
 20
1.707374
  0
VERTEX
  8
AB0CF1H
 62
     3
  6
CONTINUOUS
 10
3.498732
 20
1.663496
  0
SEQEND
  8
0
  0
POLYLINE
  8
AB0CF1H
 62
     3
  6
CONTINUOUS
 66
     1
 40
0.003000
 41
0.003000
  0
VERTEX
  8
AB0CF1H
 62
     3
  6
CONTINUOUS
 10
1.550264
 20
1.707374
  0
VERTEX
  8
AB0CF1H
 62
     3
  6
CONTINUOUS
 10
1.575594
 20
1.663496
  0
SEQEND
  8
0
  0
POLYLINE
  8
AB0CF1H
 62
     3
  6
CONTINUOUS
 66
     1
 40
0.003000
 41
0.003000
  0
VERTEX
  8
AB0CF1H
 62
     3
  6
CONTINUOUS
 10
3.473402
 20
1.928276
  0
VERTEX
  8
AB0CF1H
 62
     3
  6
CONTINUOUS
 10
3.498732
 20
1.884398
  0
SEQEND
  8
0
  0
POLYLINE
  8
AB0CF1H
 62
     3
  6
CONTINUOUS
 66
     1
 40
0.003000
 41
0.003000
  0
VERTEX
  8
AB0CF1H
 62
     3
  6
CONTINUOUS
 10
1.550264
 20
1.928276
  0
VERTEX
  8
AB0CF1H
 62
     3
  6
CONTINUOUS
 10
1.575594
 20
1.884398
  0
SEQEND
  8
0
  0
POLYLINE
  8
AB0CF1H
 62
     3
  6
CONTINUOUS
 66
     1
 40
0.003000
 41
0.003000
  0
VERTEX
  8
AB0CF1H
 62
     3
  6
CONTINUOUS
 10
1.550264
 20
2.149177
  0
VERTEX
  8
AB0CF1H
 62
     3
  6
CONTINUOUS
 10
1.575594
 20
2.105299
  0
SEQEND
  8
0
  0
POLYLINE
  8
AB0CF1H
 62
     3
  6
CONTINUOUS
 66
     1
 40
0.003000
 41
0.003000
  0
VERTEX
  8
AB0CF1H
 62
     3
  6
CONTINUOUS
 10
1.550264
 20
2.370079
  0
VERTEX
  8
AB0CF1H
 62
     3
  6
CONTINUOUS
 10
1.575594
 20
2.326201
  0
SEQEND
  8
0
  0
POLYLINE
  8
AB0CF1H
 62
     3
  6
CONTINUOUS
 66
     1
 40
0.003000
 41
0.003000
  0
VERTEX
  8
AB0CF1H
 62
     3
  6
CONTINUOUS
 10
1.550264
 20
2.590980
  0
VERTEX
  8
AB0CF1H
 62
     3
  6
CONTINUOUS
 10
1.575594
 20
2.547102
  0
SEQEND
  8
0
  0
POLYLINE
  8
AB0CF1H
 62
     3
  6
CONTINUOUS
 66
     1
 40
0.003000
 41
0.003000
  0
VERTEX
  8
AB0CF1H
 62
     3
  6
CONTINUOUS
 10
1.550264
 20
2.811882
  0
VERTEX
  8
AB0CF1H
 62
     3
  6
CONTINUOUS
 10
1.575594
 20
2.768004
  0
SEQEND
  8
0
  0
POLYLINE
  8
AB0CF1H
 62
     3
  6
CONTINUOUS
 66
     1
 40
0.003000
 41
0.003000
  0
VERTEX
  8
AB0CF1H
 62
     3
  6
CONTINUOUS
 10
3.482913
 20
1.301075
  0
VERTEX
  8
AB0CF1H
 62
     3
  6
CONTINUOUS
 10
3.526791
 20
1.326406
  0
SEQEND
  8
0
  0
POLYLINE
  8
AB0CF1H
 62
     3
  6
CONTINUOUS
 66
     1
 40
0.003000
 41
0.003000
  0
VERTEX
  8
AB0CF1H
 62
     3
  6
CONTINUOUS
 10
1.559776
 20
1.301075
  0
VERTEX
  8
AB0CF1H
 62
     3
  6
CONTINUOUS
 10
1.603650
 20
1.326406
  0
SEQEND
  8
0
  0
POLYLINE
  8
AB0CF1H
 62
     3
  6
CONTINUOUS
 66
     1
 40
0.003000
 41
0.003000
  0
VERTEX
  8
AB0CF1H
 62
     3
  6
CONTINUOUS
 10
3.482913
 20
1.521976
  0
VERTEX
  8
AB0CF1H
 62
     3
  6
CONTINUOUS
 10
3.526791
 20
1.547307
  0
SEQEND
  8
0
  0
POLYLINE
  8
AB0CF1H
 62
     3
  6
CONTINUOUS
 66
     1
 40
0.003000
 41
0.003000
  0
VERTEX
  8
AB0CF1H
 62
     3
  6
CONTINUOUS
 10
1.559776
 20
1.521976
  0
VERTEX
  8
AB0CF1H
 62
     3
  6
CONTINUOUS
 10
1.603650
 20
1.547307
  0
SEQEND
  8
0
  0
POLYLINE
  8
AB0CF1H
 62
     3
  6
CONTINUOUS
 66
     1
 40
0.003000
 41
0.003000
  0
VERTEX
  8
AB0CF1H
 62
     3
  6
CONTINUOUS
 10
3.482913
 20
1.742878
  0
VERTEX
  8
AB0CF1H
 62
     3
  6
CONTINUOUS
 10
3.526791
 20
1.768209
  0
SEQEND
  8
0
  0
POLYLINE
  8
AB0CF1H
 62
     3
  6
CONTINUOUS
 66
     1
 40
0.003000
 41
0.003000
  0
VERTEX
  8
AB0CF1H
 62
     3
  6
CONTINUOUS
 10
1.559776
 20
1.742878
  0
VERTEX
  8
AB0CF1H
 62
     3
  6
CONTINUOUS
 10
1.603650
 20
1.768209
  0
SEQEND
  8
0
  0
POLYLINE
  8
AB0CF1H
 62
     3
  6
CONTINUOUS
 66
     1
 40
0.003000
 41
0.003000
  0
VERTEX
  8
AB0CF1H
 62
     3
  6
CONTINUOUS
 10
3.482913
 20
1.963776
  0
VERTEX
  8
AB0CF1H
 62
     3
  6
CONTINUOUS
 10
3.526791
 20
1.989110
  0
SEQEND
  8
0
  0
POLYLINE
  8
AB0CF1H
 62
     3
  6
CONTINUOUS
 66
     1
 40
0.003000
 41
0.003000
  0
VERTEX
  8
AB0CF1H
 62
     3
  6
CONTINUOUS
 10
1.559776
 20
1.963776
  0
VERTEX
  8
AB0CF1H
 62
     3
  6
CONTINUOUS
 10
1.603650
 20
1.989110
  0
SEQEND
  8
0
  0
POLYLINE
  8
AB0CF1H
 62
     3
  6
CONTINUOUS
 66
     1
 40
0.003000
 41
0.003000
  0
VERTEX
  8
AB0CF1H
 62
     3
  6
CONTINUOUS
 10
1.559776
 20
2.184677
  0
VERTEX
  8
AB0CF1H
 62
     3
  6
CONTINUOUS
 10
1.603650
 20
2.210012
  0
SEQEND
  8
0
  0
POLYLINE
  8
AB0CF1H
 62
     3
  6
CONTINUOUS
 66
     1
 40
0.003000
 41
0.003000
  0
VERTEX
  8
AB0CF1H
 62
     3
  6
CONTINUOUS
 10
1.559776
 20
2.405579
  0
VERTEX
  8
AB0CF1H
 62
     3
  6
CONTINUOUS
 10
1.603650
 20
2.430909
  0
SEQEND
  8
0
  0
POLYLINE
  8
AB0CF1H
 62
     3
  6
CONTINUOUS
 66
     1
 40
0.003000
 41
0.003000
  0
VERTEX
  8
AB0CF1H
 62
     3
  6
CONTINUOUS
 10
1.559776
 20
2.626480
  0
VERTEX
  8
AB0CF1H
 62
     3
  6
CONTINUOUS
 10
1.603650
 20
2.651811
  0
SEQEND
  8
0
  0
POLYLINE
  8
AB0CF1H
 62
     3
  6
CONTINUOUS
 66
     1
 40
0.003000
 41
0.003000
  0
VERTEX
  8
AB0CF1H
 62
     3
  6
CONTINUOUS
 10
1.559776
 20
2.847382
  0
VERTEX
  8
AB0CF1H
 62
     3
  6
CONTINUOUS
 10
1.603650
 20
2.872713
  0
SEQEND
  8
0
  0
POLYLINE
  8
AB0CF1H
 62
     3
  6
CONTINUOUS
 66
     1
 40
0.003000
 41
0.003000
  0
VERTEX
  8
AB0CF1H
 62
     3
  6
CONTINUOUS
 10
3.495909
 20
1.278567
  0
VERTEX
  8
AB0CF1H
 62
     3
  6
CONTINUOUS
 10
3.539783
 20
1.303898
  0
SEQEND
  8
0
  0
POLYLINE
  8
AB0CF1H
 62
     3
  6
CONTINUOUS
 66
     1
 40
0.003000
 41
0.003000
  0
VERTEX
  8
AB0CF1H
 62
     3
  6
CONTINUOUS
 10
1.572772
 20
1.278567
  0
VERTEX
  8
AB0CF1H
 62
     3
  6
CONTINUOUS
 10
1.616646
 20
1.303898
  0
SEQEND
  8
0
  0
POLYLINE
  8
AB0CF1H
 62
     3
  6
CONTINUOUS
 66
     1
 40
0.003000
 41
0.003000
  0
VERTEX
  8
AB0CF1H
 62
     3
  6
CONTINUOUS
 10
3.495909
 20
1.499469
  0
VERTEX
  8
AB0CF1H
 62
     3
  6
CONTINUOUS
 10
3.539783
 20
1.524799
  0
SEQEND
  8
0
  0
POLYLINE
  8
AB0CF1H
 62
     3
  6
CONTINUOUS
 66
     1
 40
0.003000
 41
0.003000
  0
VERTEX
  8
AB0CF1H
 62
     3
  6
CONTINUOUS
 10
1.572772
 20
1.499469
  0
VERTEX
  8
AB0CF1H
 62
     3
  6
CONTINUOUS
 10
1.616646
 20
1.524799
  0
SEQEND
  8
0
  0
POLYLINE
  8
AB0CF1H
 62
     3
  6
CONTINUOUS
 66
     1
 40
0.003000
 41
0.003000
  0
VERTEX
  8
AB0CF1H
 62
     3
  6
CONTINUOUS
 10
3.495909
 20
1.720370
  0
VERTEX
  8
AB0CF1H
 62
     3
  6
CONTINUOUS
 10
3.539783
 20
1.745701
  0
SEQEND
  8
0
  0
POLYLINE
  8
AB0CF1H
 62
     3
  6
CONTINUOUS
 66
     1
 40
0.003000
 41
0.003000
  0
VERTEX
  8
AB0CF1H
 62
     3
  6
CONTINUOUS
 10
1.572772
 20
1.720370
  0
VERTEX
  8
AB0CF1H
 62
     3
  6
CONTINUOUS
 10
1.616646
 20
1.745701
  0
SEQEND
  8
0
  0
POLYLINE
  8
AB0CF1H
 62
     3
  6
CONTINUOUS
 66
     1
 40
0.003000
 41
0.003000
  0
VERTEX
  8
AB0CF1H
 62
     3
  6
CONTINUOUS
 10
3.495909
 20
1.941272
  0
VERTEX
  8
AB0CF1H
 62
     3
  6
CONTINUOUS
 10
3.539783
 20
1.966602
  0
SEQEND
  8
0
  0
POLYLINE
  8
AB0CF1H
 62
     3
  6
CONTINUOUS
 66
     1
 40
0.003000
 41
0.003000
  0
VERTEX
  8
AB0CF1H
 62
     3
  6
CONTINUOUS
 10
1.572772
 20
1.941272
  0
VERTEX
  8
AB0CF1H
 62
     3
  6
CONTINUOUS
 10
1.616646
 20
1.966602
  0
SEQEND
  8
0
  0
POLYLINE
  8
AB0CF1H
 62
     3
  6
CONTINUOUS
 66
     1
 40
0.003000
 41
0.003000
  0
VERTEX
  8
AB0CF1H
 62
     3
  6
CONTINUOUS
 10
1.572772
 20
2.162173
  0
VERTEX
  8
AB0CF1H
 62
     3
  6
CONTINUOUS
 10
1.616646
 20
2.187504
  0
SEQEND
  8
0
  0
POLYLINE
  8
AB0CF1H
 62
     3
  6
CONTINUOUS
 66
     1
 40
0.003000
 41
0.003000
  0
VERTEX
  8
AB0CF1H
 62
     3
  6
CONTINUOUS
 10
1.572772
 20
2.383075
  0
VERTEX
  8
AB0CF1H
 62
     3
  6
CONTINUOUS
 10
1.616646
 20
2.408406
  0
SEQEND
  8
0
  0
POLYLINE
  8
AB0CF1H
 62
     3
  6
CONTINUOUS
 66
     1
 40
0.003000
 41
0.003000
  0
VERTEX
  8
AB0CF1H
 62
     3
  6
CONTINUOUS
 10
1.572772
 20
2.603972
  0
VERTEX
  8
AB0CF1H
 62
     3
  6
CONTINUOUS
 10
1.616646
 20
2.629307
  0
SEQEND
  8
0
  0
POLYLINE
  8
AB0CF1H
 62
     3
  6
CONTINUOUS
 66
     1
 40
0.003000
 41
0.003000
  0
VERTEX
  8
AB0CF1H
 62
     3
  6
CONTINUOUS
 10
1.572772
 20
2.824874
  0
VERTEX
  8
AB0CF1H
 62
     3
  6
CONTINUOUS
 10
1.616646
 20
2.850209
  0
SEQEND
  8
0
  0
POLYLINE
  8
AB0CF1H
 62
     3
  6
CONTINUOUS
 66
     1
 40
0.003000
 41
0.003000
  0
VERTEX
  8
AB0CF1H
 62
     3
  6
CONTINUOUS
 10
3.435075
 20
1.331957
  0
VERTEX
  8
AB0CF1H
 62
     3
  6
CONTINUOUS
 10
3.460406
 20
1.288079
  0
SEQEND
  8
0
  0
POLYLINE
  8
AB0CF1H
 62
     3
  6
CONTINUOUS
 66
     1
 40
0.003000
 41
0.003000
  0
VERTEX
  8
AB0CF1H
 62
     3
  6
CONTINUOUS
 10
1.511937
 20
1.331957
  0
VERTEX
  8
AB0CF1H
 62
     3
  6
CONTINUOUS
 10
1.537268
 20
1.288079
  0
SEQEND
  8
0
  0
POLYLINE
  8
AB0CF1H
 62
     3
  6
CONTINUOUS
 66
     1
 40
0.003000
 41
0.003000
  0
VERTEX
  8
AB0CF1H
 62
     3
  6
CONTINUOUS
 10
3.435075
 20
1.552858
  0
VERTEX
  8
AB0CF1H
 62
     3
  6
CONTINUOUS
 10
3.460406
 20
1.508980
  0
SEQEND
  8
0
  0
POLYLINE
  8
AB0CF1H
 62
     3
  6
CONTINUOUS
 66
     1
 40
0.003000
 41
0.003000
  0
VERTEX
  8
AB0CF1H
 62
     3
  6
CONTINUOUS
 10
1.511937
 20
1.552858
  0
VERTEX
  8
AB0CF1H
 62
     3
  6
CONTINUOUS
 10
1.537268
 20
1.508980
  0
SEQEND
  8
0
  0
POLYLINE
  8
AB0CF1H
 62
     3
  6
CONTINUOUS
 66
     1
 40
0.003000
 41
0.003000
  0
VERTEX
  8
AB0CF1H
 62
     3
  6
CONTINUOUS
 10
3.435075
 20
1.773760
  0
VERTEX
  8
AB0CF1H
 62
     3
  6
CONTINUOUS
 10
3.460406
 20
1.729882
  0
SEQEND
  8
0
  0
POLYLINE
  8
AB0CF1H
 62
     3
  6
CONTINUOUS
 66
     1
 40
0.003000
 41
0.003000
  0
VERTEX
  8
AB0CF1H
 62
     3
  6
CONTINUOUS
 10
1.511937
 20
1.773760
  0
VERTEX
  8
AB0CF1H
 62
     3
  6
CONTINUOUS
 10
1.537268
 20
1.729882
  0
SEQEND
  8
0
  0
POLYLINE
  8
AB0CF1H
 62
     3
  6
CONTINUOUS
 66
     1
 40
0.003000
 41
0.003000
  0
VERTEX
  8
AB0CF1H
 62
     3
  6
CONTINUOUS
 10
3.435075
 20
1.994657
  0
VERTEX
  8
AB0CF1H
 62
     3
  6
CONTINUOUS
 10
3.460406
 20
1.950783
  0
SEQEND
  8
0
  0
POLYLINE
  8
AB0CF1H
 62
     3
  6
CONTINUOUS
 66
     1
 40
0.003000
 41
0.003000
  0
VERTEX
  8
AB0CF1H
 62
     3
  6
CONTINUOUS
 10
1.511937
 20
1.994657
  0
VERTEX
  8
AB0CF1H
 62
     3
  6
CONTINUOUS
 10
1.537268
 20
1.950783
  0
SEQEND
  8
0
  0
POLYLINE
  8
AB0CF1H
 62
     3
  6
CONTINUOUS
 66
     1
 40
0.003000
 41
0.003000
  0
VERTEX
  8
AB0CF1H
 62
     3
  6
CONTINUOUS
 10
1.511937
 20
2.215559
  0
VERTEX
  8
AB0CF1H
 62
     3
  6
CONTINUOUS
 10
1.537268
 20
2.171685
  0
SEQEND
  8
0
  0
POLYLINE
  8
AB0CF1H
 62
     3
  6
CONTINUOUS
 66
     1
 40
0.003000
 41
0.003000
  0
VERTEX
  8
AB0CF1H
 62
     3
  6
CONTINUOUS
 10
1.511937
 20
2.436461
  0
VERTEX
  8
AB0CF1H
 62
     3
  6
CONTINUOUS
 10
1.537268
 20
2.392587
  0
SEQEND
  8
0
  0
POLYLINE
  8
AB0CF1H
 62
     3
  6
CONTINUOUS
 66
     1
 40
0.003000
 41
0.003000
  0
VERTEX
  8
AB0CF1H
 62
     3
  6
CONTINUOUS
 10
1.511937
 20
2.657362
  0
VERTEX
  8
AB0CF1H
 62
     3
  6
CONTINUOUS
 10
1.537268
 20
2.613488
  0
SEQEND
  8
0
  0
POLYLINE
  8
AB0CF1H
 62
     3
  6
CONTINUOUS
 66
     1
 40
0.003000
 41
0.003000
  0
VERTEX
  8
AB0CF1H
 62
     3
  6
CONTINUOUS
 10
1.511937
 20
2.878264
  0
VERTEX
  8
AB0CF1H
 62
     3
  6
CONTINUOUS
 10
1.537268
 20
2.834386
  0
SEQEND
  8
0
  0
POLYLINE
  8
AB0CF1H
 62
     3
  6
CONTINUOUS
 66
     1
 40
0.003000
 41
0.003000
  0
VERTEX
  8
AB0CF1H
 62
     3
  6
CONTINUOUS
 10
3.457583
 20
1.344949
  0
VERTEX
  8
AB0CF1H
 62
     3
  6
CONTINUOUS
 10
3.482913
 20
1.301075
  0
SEQEND
  8
0
  0
POLYLINE
  8
AB0CF1H
 62
     3
  6
CONTINUOUS
 66
     1
 40
0.003000
 41
0.003000
  0
VERTEX
  8
AB0CF1H
 62
     3
  6
CONTINUOUS
 10
1.534441
 20
1.344949
  0
VERTEX
  8
AB0CF1H
 62
     3
  6
CONTINUOUS
 10
1.559776
 20
1.301075
  0
SEQEND
  8
0
  0
POLYLINE
  8
AB0CF1H
 62
     3
  6
CONTINUOUS
 66
     1
 40
0.003000
 41
0.003000
  0
VERTEX
  8
AB0CF1H
 62
     3
  6
CONTINUOUS
 10
3.457583
 20
1.565850
  0
VERTEX
  8
AB0CF1H
 62
     3
  6
CONTINUOUS
 10
3.482913
 20
1.521976
  0
SEQEND
  8
0
  0
POLYLINE
  8
AB0CF1H
 62
     3
  6
CONTINUOUS
 66
     1
 40
0.003000
 41
0.003000
 70
     1
  0
VERTEX
  8
AB0CF1H
 62
     3
  6
CONTINUOUS
 10
1.555020
 20
3.115500
  0
VERTEX
  8
AB0CF1H
 62
     3
  6
CONTINUOUS
 10
1.518928
 20
3.105894
  0
VERTEX
  8
AB0CF1H
 62
     3
  6
CONTINUOUS
 10
1.497272
 20
3.081829
  0
VERTEX
  8
AB0CF1H
 62
     3
  6
CONTINUOUS
 10
1.490053
 20
3.050535
  0
VERTEX
  8
AB0CF1H
 62
     3
  6
CONTINUOUS
 10
1.497270
 20
3.019240
  0
VERTEX
  8
AB0CF1H
 62
     3
  6
CONTINUOUS
 10
1.518924
 20
2.995174
  0
VERTEX
  8
AB0CF1H
 62
     3
  6
CONTINUOUS
 10
1.555016
 20
2.985567
  0
VERTEX
  8
AB0CF1H
 62
     3
  6
CONTINUOUS
 10
1.591108
 20
2.995168
  0
VERTEX
  8
AB0CF1H
 62
     3
  6
CONTINUOUS
 10
1.612765
 20
3.019230
  0
VERTEX
  8
AB0CF1H
 62
     3
  6
CONTINUOUS
 10
1.619987
 20
3.050523
  0
VERTEX
  8
AB0CF1H
 62
     3
  6
CONTINUOUS
 10
1.612773
 20
3.081818
  0
VERTEX
  8
AB0CF1H
 62
     3
  6
CONTINUOUS
 10
1.591121
 20
3.105885
  0
VERTEX
  8
AB0CF1H
 62
     3
  6
CONTINUOUS
 10
1.555031
 20
3.115496
  0
VERTEX
  8
AB0CF1H
 62
     3
  6
CONTINUOUS
 10
1.555028
 20
3.115497
  0
VERTEX
  8
AB0CF1H
 62
     3
  6
CONTINUOUS
 10
1.555023
 20
3.115499
  0
SEQEND
  8
0
  0
POLYLINE
  8
AB0CF1H
 62
     3
  6
CONTINUOUS
 66
     1
 40
0.003000
 41
0.003000
 70
     1
  0
VERTEX
  8
AB0CF1H
 62
     3
  6
CONTINUOUS
 10
3.478157
 20
1.127390
  0
VERTEX
  8
AB0CF1H
 62
     3
  6
CONTINUOUS
 10
3.442066
 20
1.117784
  0
VERTEX
  8
AB0CF1H
 62
     3
  6
CONTINUOUS
 10
3.420410
 20
1.093719
  0
VERTEX
  8
AB0CF1H
 62
     3
  6
CONTINUOUS
 10
3.413190
 20
1.062425
  0
VERTEX
  8
AB0CF1H
 62
     3
  6
CONTINUOUS
 10
3.420407
 20
1.031130
  0
VERTEX
  8
AB0CF1H
 62
     3
  6
CONTINUOUS
 10
3.442062
 20
1.007064
  0
VERTEX
  8
AB0CF1H
 62
     3
  6
CONTINUOUS
 10
3.478154
 20
0.997457
  0
VERTEX
  8
AB0CF1H
 62
     3
  6
CONTINUOUS
 10
3.514246
 20
1.007058
  0
VERTEX
  8
AB0CF1H
 62
     3
  6
CONTINUOUS
 10
3.535903
 20
1.031119
  0
VERTEX
  8
AB0CF1H
 62
     3
  6
CONTINUOUS
 10
3.543125
 20
1.062412
  0
VERTEX
  8
AB0CF1H
 62
     3
  6
CONTINUOUS
 10
3.535911
 20
1.093707
  0
VERTEX
  8
AB0CF1H
 62
     3
  6
CONTINUOUS
 10
3.514259
 20
1.117775
  0
VERTEX
  8
AB0CF1H
 62
     3
  6
CONTINUOUS
 10
3.478169
 20
1.127386
  0
VERTEX
  8
AB0CF1H
 62
     3
  6
CONTINUOUS
 10
3.478166
 20
1.127387
  0
VERTEX
  8
AB0CF1H
 62
     3
  6
CONTINUOUS
 10
3.478161
 20
1.127389
  0
SEQEND
  8
0
  0
POLYLINE
  8
AB0CF1H
 62
     3
  6
CONTINUOUS
 66
     1
 40
0.003000
 41
0.003000
 70
     1
  0
VERTEX
  8
AB0CF1H
 62
     3
  6
CONTINUOUS
 10
1.555020
 20
1.127390
  0
VERTEX
  8
AB0CF1H
 62
     3
  6
CONTINUOUS
 10
1.518928
 20
1.117784
  0
VERTEX
  8
AB0CF1H
 62
     3
  6
CONTINUOUS
 10
1.497272
 20
1.093719
  0
VERTEX
  8
AB0CF1H
 62
     3
  6
CONTINUOUS
 10
1.490053
 20
1.062425
  0
VERTEX
  8
AB0CF1H
 62
     3
  6
CONTINUOUS
 10
1.497270
 20
1.031130
  0
VERTEX
  8
AB0CF1H
 62
     3
  6
CONTINUOUS
 10
1.518924
 20
1.007064
  0
VERTEX
  8
AB0CF1H
 62
     3
  6
CONTINUOUS
 10
1.555016
 20
0.997457
  0
VERTEX
  8
AB0CF1H
 62
     3
  6
CONTINUOUS
 10
1.591108
 20
1.007058
  0
VERTEX
  8
AB0CF1H
 62
     3
  6
CONTINUOUS
 10
1.612765
 20
1.031119
  0
VERTEX
  8
AB0CF1H
 62
     3
  6
CONTINUOUS
 10
1.619987
 20
1.062412
  0
VERTEX
  8
AB0CF1H
 62
     3
  6
CONTINUOUS
 10
1.612773
 20
1.093707
  0
VERTEX
  8
AB0CF1H
 62
     3
  6
CONTINUOUS
 10
1.591121
 20
1.117775
  0
VERTEX
  8
AB0CF1H
 62
     3
  6
CONTINUOUS
 10
1.555031
 20
1.127386
  0
VERTEX
  8
AB0CF1H
 62
     3
  6
CONTINUOUS
 10
1.555028
 20
1.127387
  0
VERTEX
  8
AB0CF1H
 62
     3
  6
CONTINUOUS
 10
1.555023
 20
1.127389
  0
SEQEND
  8
0
  0
TEXT
  8
AB0CF1H
 10
0.774067
 20
1.870661
 40
0.055735
  1
COM
 41
1.000000
  7
SN0
 71
     0
 72
     5
 11
0.946103
 21
1.870661
  0
TEXT
  8
AB0CF1H
 10
0.774067
 20
2.091563
 40
0.055735
  1
b2
 41
1.000000
  7
SN0
 71
     0
 72
     5
 11
0.845921
 21
2.091563
  0
TEXT
  8
AB0CF1H
 10
0.774067
 20
2.312461
 40
0.055735
  1
b1
 41
1.000000
  7
SN0
 71
     0
 72
     5
 11
0.845921
 21
2.312461
  0
TEXT
  8
AB0CF1H
 10
0.774067
 20
2.533362
 40
0.055735
  1
b0
 41
1.000000
  7
SN0
 71
     0
 72
     5
 11
0.845921
 21
2.533362
  0
TEXT
  8
AB0CF1H
 10
0.987823
 20
2.235795
 40
0.083603
  1
SM
 41
1.000000
  7
SN0
 71
     0
 72
     5
 11
1.138095
 21
2.235795
  0
TEXT
  8
AB0CF1H
 10
-1.117232
 20
2.243594
 40
0.083603
  1
    C1
 41
1.000000
  7
SN0
 71
     0
 72
     5
 11
-0.881287
 21
2.243594
  0
TEXT
  8
AB0CF1H
 10
-1.117232
 20
2.118850
 40
0.083603
  1
(ON/OFF)
 41
1.000000
  7
SN0
 71
     0
 72
     5
 11
-0.644651
 21
2.118850
  0
TEXT
  8
AB0CF1H
 10
-0.713630
 20
1.146232
 40
0.083603
  1
A1
 41
1.000000
  7
SN0
 71
     0
 72
     5
 11
-0.593412
 21
1.146232
  0
TEXT
  8
AB0CF1H
 10
-0.753394
 20
2.763362
 40
0.083603
  1
Power
 41
1.000000
  7
SN0
 71
     0
 72
     5
 11
-0.493612
 21
2.763362
  0
TEXT
  8
AB0CF1H
 10
-0.753394
 20
2.638614
 40
0.083603
  1
supply
 41
1.000000
  7
SN0
 71
     0
 72
     5
 11
-0.481867
 21
2.638614
  0
TEXT
  8
AB0CF1H
 10
-0.727406
 20
3.002453
 40
0.083603
  1
GND
 41
1.000000
  7
SN0
 71
     0
 72
     5
 11
-0.479715
 21
3.002453
  0
POLYLINE
  8
AB0CF1H
 62
     3
  6
CONTINUOUS
 66
     1
 40
0.003000
 41
0.003000
  0
VERTEX
  8
AB0CF1H
 62
     3
  6
CONTINUOUS
 10
1.534441
 20
1.565850
  0
VERTEX
  8
AB0CF1H
 62
     3
  6
CONTINUOUS
 10
1.559776
 20
1.521976
  0
SEQEND
  8
0
  0
POLYLINE
  8
AB0CF1H
 62
     3
  6
CONTINUOUS
 66
     1
 40
0.003000
 41
0.003000
  0
VERTEX
  8
AB0CF1H
 62
     3
  6
CONTINUOUS
 10
3.457583
 20
1.786752
  0
VERTEX
  8
AB0CF1H
 62
     3
  6
CONTINUOUS
 10
3.482913
 20
1.742878
  0
SEQEND
  8
0
  0
POLYLINE
  8
AB0CF1H
 62
     3
  6
CONTINUOUS
 66
     1
 40
0.003000
 41
0.003000
  0
VERTEX
  8
AB0CF1H
 62
     3
  6
CONTINUOUS
 10
1.534441
 20
1.786752
  0
VERTEX
  8
AB0CF1H
 62
     3
  6
CONTINUOUS
 10
1.559776
 20
1.742878
  0
SEQEND
  8
0
  0
POLYLINE
  8
AB0CF1H
 62
     3
  6
CONTINUOUS
 66
     1
 40
0.003000
 41
0.003000
  0
VERTEX
  8
AB0CF1H
 62
     3
  6
CONTINUOUS
 10
3.457583
 20
2.007654
  0
VERTEX
  8
AB0CF1H
 62
     3
  6
CONTINUOUS
 10
3.482913
 20
1.963776
  0
SEQEND
  8
0
  0
POLYLINE
  8
AB0CF1H
 62
     3
  6
CONTINUOUS
 66
     1
 40
0.003000
 41
0.003000
  0
VERTEX
  8
AB0CF1H
 62
     3
  6
CONTINUOUS
 10
1.534441
 20
2.007654
  0
VERTEX
  8
AB0CF1H
 62
     3
  6
CONTINUOUS
 10
1.559776
 20
1.963776
  0
SEQEND
  8
0
  0
POLYLINE
  8
AB0CF1H
 62
     3
  6
CONTINUOUS
 66
     1
 40
0.003000
 41
0.003000
  0
VERTEX
  8
AB0CF1H
 62
     3
  6
CONTINUOUS
 10
1.534441
 20
2.228555
  0
VERTEX
  8
AB0CF1H
 62
     3
  6
CONTINUOUS
 10
1.559776
 20
2.184677
  0
SEQEND
  8
0
  0
POLYLINE
  8
AB0CF1H
 62
     3
  6
CONTINUOUS
 66
     1
 40
0.003000
 41
0.003000
  0
VERTEX
  8
AB0CF1H
 62
     3
  6
CONTINUOUS
 10
1.534441
 20
2.449457
  0
VERTEX
  8
AB0CF1H
 62
     3
  6
CONTINUOUS
 10
1.559776
 20
2.405579
  0
SEQEND
  8
0
  0
POLYLINE
  8
AB0CF1H
 62
     3
  6
CONTINUOUS
 66
     1
 40
0.003000
 41
0.003000
  0
VERTEX
  8
AB0CF1H
 62
     3
  6
CONTINUOUS
 10
1.534441
 20
2.670358
  0
VERTEX
  8
AB0CF1H
 62
     3
  6
CONTINUOUS
 10
1.559776
 20
2.626480
  0
SEQEND
  8
0
  0
POLYLINE
  8
AB0CF1H
 62
     3
  6
CONTINUOUS
 66
     1
 40
0.003000
 41
0.003000
  0
VERTEX
  8
AB0CF1H
 62
     3
  6
CONTINUOUS
 10
1.534441
 20
2.891260
  0
VERTEX
  8
AB0CF1H
 62
     3
  6
CONTINUOUS
 10
1.559776
 20
2.847382
  0
SEQEND
  8
0
  0
POLYLINE
  8
AB0CF1H
 62
     3
  6
CONTINUOUS
 66
     1
 40
0.003000
 41
0.003000
  0
VERTEX
  8
AB0CF1H
 62
     3
  6
CONTINUOUS
 10
1.534441
 20
3.112157
  0
VERTEX
  8
AB0CF1H
 62
     3
  6
CONTINUOUS
 10
1.559776
 20
3.068283
  0
SEQEND
  8
0
  0
POLYLINE
  8
AB0CF1H
 62
     3
  6
CONTINUOUS
 66
     1
 40
0.003000
 41
0.003000
  0
VERTEX
  8
AB0CF1H
 62
     3
  6
CONTINUOUS
 10
1.511937
 20
3.099165
  0
VERTEX
  8
AB0CF1H
 62
     3
  6
CONTINUOUS
 10
1.537268
 20
3.055287
  0
SEQEND
  8
0
  0
POLYLINE
  8
AB0CF1H
 62
     3
  6
CONTINUOUS
 66
     1
 40
0.003000
 41
0.003000
  0
VERTEX
  8
AB0CF1H
 62
     3
  6
CONTINUOUS
 10
1.572772
 20
3.045776
  0
VERTEX
  8
AB0CF1H
 62
     3
  6
CONTINUOUS
 10
1.616646
 20
3.071106
  0
SEQEND
  8
0
  0
POLYLINE
  8
AB0CF1H
 62
     3
  6
CONTINUOUS
 66
     1
 40
0.003000
 41
0.003000
  0
VERTEX
  8
AB0CF1H
 62
     3
  6
CONTINUOUS
 10
1.559776
 20
3.068283
  0
VERTEX
  8
AB0CF1H
 62
     3
  6
CONTINUOUS
 10
1.603650
 20
3.093614
  0
SEQEND
  8
0
  0
POLYLINE
  8
AB0CF1H
 62
     3
  6
CONTINUOUS
 66
     1
 40
0.003000
 41
0.003000
  0
VERTEX
  8
AB0CF1H
 62
     3
  6
CONTINUOUS
 10
1.550264
 20
3.032783
  0
VERTEX
  8
AB0CF1H
 62
     3
  6
CONTINUOUS
 10
1.575594
 20
2.988906
  0
SEQEND
  8
0
  0
POLYLINE
  8
AB0CF1H
 62
     3
  6
CONTINUOUS
 66
     1
 40
0.003000
 41
0.003000
  0
VERTEX
  8
AB0CF1H
 62
     3
  6
CONTINUOUS
 10
1.572772
 20
3.045776
  0
VERTEX
  8
AB0CF1H
 62
     3
  6
CONTINUOUS
 10
1.598102
 20
3.001898
  0
SEQEND
  8
0
  0
POLYLINE
  8
AB0CF1H
 62
     3
  6
CONTINUOUS
 66
     1
 40
0.003000
 41
0.003000
  0
VERTEX
  8
AB0CF1H
 62
     3
  6
CONTINUOUS
 10
1.506386
 20
3.007449
  0
VERTEX
  8
AB0CF1H
 62
     3
  6
CONTINUOUS
 10
1.550264
 20
3.032783
  0
SEQEND
  8
0
  0
POLYLINE
  8
AB0CF1H
 62
     3
  6
CONTINUOUS
 66
     1
 40
0.003000
 41
0.003000
  0
VERTEX
  8
AB0CF1H
 62
     3
  6
CONTINUOUS
 10
1.493394
 20
3.029957
  0
VERTEX
  8
AB0CF1H
 62
     3
  6
CONTINUOUS
 10
1.537268
 20
3.055287
  0
SEQEND
  8
0
  0
POLYLINE
  8
AB0CF1H
 62
     3
  6
CONTINUOUS
 66
     1
 40
0.003000
 41
0.003000
  0
VERTEX
  8
AB0CF1H
 62
     3
  6
CONTINUOUS
 10
1.438071
 20
2.959571
  0
VERTEX
  8
AB0CF1H
 62
     3
  6
CONTINUOUS
 10
1.749933
 20
2.959571
  0
SEQEND
  8
0
  0
POLYLINE
  8
AB0CF1H
 62
     3
  6
CONTINUOUS
 66
     1
 40
0.003000
 41
0.003000
  0
VERTEX
  8
AB0CF1H
 62
     3
  6
CONTINUOUS
 10
1.438071
 20
2.920591
  0
VERTEX
  8
AB0CF1H
 62
     3
  6
CONTINUOUS
 10
1.749933
 20
2.920591
  0
SEQEND
  8
0
  0
POLYLINE
  8
AB0CF1H
 62
     3
  6
CONTINUOUS
 66
     1
 40
0.003000
 41
0.003000
  0
VERTEX
  8
AB0CF1H
 62
     3
  6
CONTINUOUS
 10
1.438071
 20
2.738673
  0
VERTEX
  8
AB0CF1H
 62
     3
  6
CONTINUOUS
 10
1.749933
 20
2.738673
  0
SEQEND
  8
0
  0
POLYLINE
  8
AB0CF1H
 62
     3
  6
CONTINUOUS
 66
     1
 40
0.003000
 41
0.003000
  0
VERTEX
  8
AB0CF1H
 62
     3
  6
CONTINUOUS
 10
1.438071
 20
2.699689
  0
VERTEX
  8
AB0CF1H
 62
     3
  6
CONTINUOUS
 10
1.749933
 20
2.699689
  0
SEQEND
  8
0
  0
POLYLINE
  8
AB0CF1H
 62
     3
  6
CONTINUOUS
 66
     1
 40
0.003000
 41
0.003000
  0
VERTEX
  8
AB0CF1H
 62
     3
  6
CONTINUOUS
 10
1.438071
 20
2.517772
  0
VERTEX
  8
AB0CF1H
 62
     3
  6
CONTINUOUS
 10
1.749933
 20
2.517772
  0
SEQEND
  8
0
  0
POLYLINE
  8
AB0CF1H
 62
     3
  6
CONTINUOUS
 66
     1
 40
0.003000
 41
0.003000
  0
VERTEX
  8
AB0CF1H
 62
     3
  6
CONTINUOUS
 10
1.438071
 20
2.478787
  0
VERTEX
  8
AB0CF1H
 62
     3
  6
CONTINUOUS
 10
1.749933
 20
2.478787
  0
SEQEND
  8
0
  0
POLYLINE
  8
AB0CF1H
 62
     3
  6
CONTINUOUS
 66
     1
 40
0.003000
 41
0.003000
  0
VERTEX
  8
AB0CF1H
 62
     3
  6
CONTINUOUS
 10
1.438071
 20
2.296870
  0
VERTEX
  8
AB0CF1H
 62
     3
  6
CONTINUOUS
 10
1.749933
 20
2.296870
  0
SEQEND
  8
0
  0
POLYLINE
  8
AB0CF1H
 62
     3
  6
CONTINUOUS
 66
     1
 40
0.003000
 41
0.003000
  0
VERTEX
  8
AB0CF1H
 62
     3
  6
CONTINUOUS
 10
1.438071
 20
2.257886
  0
VERTEX
  8
AB0CF1H
 62
     3
  6
CONTINUOUS
 10
1.749933
 20
2.257886
  0
SEQEND
  8
0
  0
POLYLINE
  8
AB0CF1H
 62
     3
  6
CONTINUOUS
 66
     1
 40
0.003000
 41
0.003000
  0
VERTEX
  8
AB0CF1H
 62
     3
  6
CONTINUOUS
 10
3.470878
 20
2.075969
  0
VERTEX
  8
AB0CF1H
 62
     3
  6
CONTINUOUS
 10
3.673071
 20
2.075969
  0
SEQEND
  8
0
  0
POLYLINE
  8
AB0CF1H
 62
     3
  6
CONTINUOUS
 66
     1
 40
0.003000
 41
0.003000
  0
VERTEX
  8
AB0CF1H
 62
     3
  6
CONTINUOUS
 10
1.438071
 20
2.075969
  0
VERTEX
  8
AB0CF1H
 62
     3
  6
CONTINUOUS
 10
1.749933
 20
2.075969
  0
SEQEND
  8
0
  0
POLYLINE
  8
AB0CF1H
 62
     3
  6
CONTINUOUS
 66
     1
 40
0.003000
 41
0.003000
  0
VERTEX
  8
AB0CF1H
 62
     3
  6
CONTINUOUS
 10
3.361209
 20
1.595185
  0
VERTEX
  8
AB0CF1H
 62
     3
  6
CONTINUOUS
 10
3.673071
 20
1.595185
  0
SEQEND
  8
0
  0
POLYLINE
  8
AB0CF1H
 62
     3
  6
CONTINUOUS
 66
     1
 40
0.003000
 41
0.003000
  0
VERTEX
  8
AB0CF1H
 62
     3
  6
CONTINUOUS
 10
1.438071
 20
1.595185
  0
VERTEX
  8
AB0CF1H
 62
     3
  6
CONTINUOUS
 10
1.749933
 20
1.595185
  0
SEQEND
  8
0
  0
POLYLINE
  8
AB0CF1H
 62
     3
  6
CONTINUOUS
 66
     1
 40
0.003000
 41
0.003000
  0
VERTEX
  8
AB0CF1H
 62
     3
  6
CONTINUOUS
 10
3.361209
 20
1.413264
  0
VERTEX
  8
AB0CF1H
 62
     3
  6
CONTINUOUS
 10
3.673071
 20
1.413264
  0
SEQEND
  8
0
  0
POLYLINE
  8
AB0CF1H
 62
     3
  6
CONTINUOUS
 66
     1
 40
0.003000
 41
0.003000
  0
VERTEX
  8
AB0CF1H
 62
     3
  6
CONTINUOUS
 10
1.438071
 20
1.413264
  0
VERTEX
  8
AB0CF1H
 62
     3
  6
CONTINUOUS
 10
1.749933
 20
1.413264
  0
SEQEND
  8
0
  0
POLYLINE
  8
AB0CF1H
 62
     3
  6
CONTINUOUS
 66
     1
 40
0.003000
 41
0.003000
  0
VERTEX
  8
AB0CF1H
 62
     3
  6
CONTINUOUS
 10
3.361209
 20
1.374283
  0
VERTEX
  8
AB0CF1H
 62
     3
  6
CONTINUOUS
 10
3.673071
 20
1.374283
  0
SEQEND
  8
0
  0
POLYLINE
  8
AB0CF1H
 62
     3
  6
CONTINUOUS
 66
     1
 40
0.003000
 41
0.003000
  0
VERTEX
  8
AB0CF1H
 62
     3
  6
CONTINUOUS
 10
1.438071
 20
1.374283
  0
VERTEX
  8
AB0CF1H
 62
     3
  6
CONTINUOUS
 10
1.749933
 20
1.374283
  0
SEQEND
  8
0
  0
POLYLINE
  8
AB0CF1H
 62
     3
  6
CONTINUOUS
 66
     1
 40
0.003000
 41
0.003000
  0
VERTEX
  8
AB0CF1H
 62
     3
  6
CONTINUOUS
 10
3.361209
 20
1.192362
  0
VERTEX
  8
AB0CF1H
 62
     3
  6
CONTINUOUS
 10
3.673071
 20
1.192362
  0
SEQEND
  8
0
  0
POLYLINE
  8
AB0CF1H
 62
     3
  6
CONTINUOUS
 66
     1
 40
0.003000
 41
0.003000
  0
VERTEX
  8
AB0CF1H
 62
     3
  6
CONTINUOUS
 10
1.438071
 20
1.192362
  0
VERTEX
  8
AB0CF1H
 62
     3
  6
CONTINUOUS
 10
1.749933
 20
1.192362
  0
SEQEND
  8
0
  0
POLYLINE
  8
AB0CF1H
 62
     3
  6
CONTINUOUS
 66
     1
 40
0.003000
 41
0.003000
  0
VERTEX
  8
AB0CF1H
 62
     3
  6
CONTINUOUS
 10
3.433862
 20
2.036984
  0
VERTEX
  8
AB0CF1H
 62
     3
  6
CONTINUOUS
 10
3.673071
 20
2.036984
  0
SEQEND
  8
0
  0
POLYLINE
  8
AB0CF1H
 62
     3
  6
CONTINUOUS
 66
     1
 40
0.003000
 41
0.003000
  0
VERTEX
  8
AB0CF1H
 62
     3
  6
CONTINUOUS
 10
1.438071
 20
2.036984
  0
VERTEX
  8
AB0CF1H
 62
     3
  6
CONTINUOUS
 10
1.749933
 20
2.036984
  0
SEQEND
  8
0
  0
POLYLINE
  8
AB0CF1H
 62
     3
  6
CONTINUOUS
 66
     1
 40
0.003000
 41
0.003000
  0
VERTEX
  8
AB0CF1H
 62
     3
  6
CONTINUOUS
 10
3.361209
 20
1.855067
  0
VERTEX
  8
AB0CF1H
 62
     3
  6
CONTINUOUS
 10
3.673071
 20
1.855067
  0
SEQEND
  8
0
  0
POLYLINE
  8
AB0CF1H
 62
     3
  6
CONTINUOUS
 66
     1
 40
0.003000
 41
0.003000
  0
VERTEX
  8
AB0CF1H
 62
     3
  6
CONTINUOUS
 10
1.438071
 20
1.855067
  0
VERTEX
  8
AB0CF1H
 62
     3
  6
CONTINUOUS
 10
1.749933
 20
1.855067
  0
SEQEND
  8
0
  0
POLYLINE
  8
AB0CF1H
 62
     3
  6
CONTINUOUS
 66
     1
 40
0.003000
 41
0.003000
  0
VERTEX
  8
AB0CF1H
 62
     3
  6
CONTINUOUS
 10
3.457583
 20
1.124047
  0
VERTEX
  8
AB0CF1H
 62
     3
  6
CONTINUOUS
 10
3.482913
 20
1.080173
  0
SEQEND
  8
0
  0
POLYLINE
  8
AB0CF1H
 62
     3
  6
CONTINUOUS
 66
     1
 40
0.003000
 41
0.003000
  0
VERTEX
  8
AB0CF1H
 62
     3
  6
CONTINUOUS
 10
1.534441
 20
1.124047
  0
VERTEX
  8
AB0CF1H
 62
     3
  6
CONTINUOUS
 10
1.559776
 20
1.080173
  0
SEQEND
  8
0
  0
POLYLINE
  8
AB0CF1H
 62
     3
  6
CONTINUOUS
 66
     1
 40
0.003000
 41
0.003000
  0
VERTEX
  8
AB0CF1H
 62
     3
  6
CONTINUOUS
 10
3.361209
 20
1.816083
  0
VERTEX
  8
AB0CF1H
 62
     3
  6
CONTINUOUS
 10
3.673071
 20
1.816083
  0
SEQEND
  8
0
  0
POLYLINE
  8
AB0CF1H
 62
     3
  6
CONTINUOUS
 66
     1
 40
0.003000
 41
0.003000
  0
VERTEX
  8
AB0CF1H
 62
     3
  6
CONTINUOUS
 10
1.438071
 20
1.816083
  0
VERTEX
  8
AB0CF1H
 62
     3
  6
CONTINUOUS
 10
1.749933
 20
1.816083
  0
SEQEND
  8
0
  0
POLYLINE
  8
AB0CF1H
 62
     3
  6
CONTINUOUS
 66
     1
 40
0.003000
 41
0.003000
  0
VERTEX
  8
AB0CF1H
 62
     3
  6
CONTINUOUS
 10
3.361209
 20
1.634165
  0
VERTEX
  8
AB0CF1H
 62
     3
  6
CONTINUOUS
 10
3.673071
 20
1.634165
  0
SEQEND
  8
0
  0
POLYLINE
  8
AB0CF1H
 62
     3
  6
CONTINUOUS
 66
     1
 40
0.003000
 41
0.003000
  0
VERTEX
  8
AB0CF1H
 62
     3
  6
CONTINUOUS
 10
1.438071
 20
1.634165
  0
VERTEX
  8
AB0CF1H
 62
     3
  6
CONTINUOUS
 10
1.749933
 20
1.634165
  0
SEQEND
  8
0
  0
POLYLINE
  8
AB0CF1H
 62
     3
  6
CONTINUOUS
 66
     1
 40
0.003000
 41
0.003000
  0
VERTEX
  8
AB0CF1H
 62
     3
  6
CONTINUOUS
 10
3.435075
 20
1.111055
  0
VERTEX
  8
AB0CF1H
 62
     3
  6
CONTINUOUS
 10
3.460406
 20
1.067177
  0
SEQEND
  8
0
  0
POLYLINE
  8
AB0CF1H
 62
     3
  6
CONTINUOUS
 66
     1
 40
0.003000
 41
0.003000
  0
VERTEX
  8
AB0CF1H
 62
     3
  6
CONTINUOUS
 10
1.511937
 20
1.111055
  0
VERTEX
  8
AB0CF1H
 62
     3
  6
CONTINUOUS
 10
1.537268
 20
1.067177
  0
SEQEND
  8
0
  0
POLYLINE
  8
AB0CF1H
 62
     3
  6
CONTINUOUS
 66
     1
 40
0.003000
 41
0.003000
  0
VERTEX
  8
AB0CF1H
 62
     3
  6
CONTINUOUS
 10
3.495909
 20
1.057665
  0
VERTEX
  8
AB0CF1H
 62
     3
  6
CONTINUOUS
 10
3.539783
 20
1.082996
  0
SEQEND
  8
0
  0
POLYLINE
  8
AB0CF1H
 62
     3
  6
CONTINUOUS
 66
     1
 40
0.003000
 41
0.003000
  0
VERTEX
  8
AB0CF1H
 62
     3
  6
CONTINUOUS
 10
1.572772
 20
1.057665
  0
VERTEX
  8
AB0CF1H
 62
     3
  6
CONTINUOUS
 10
1.616646
 20
1.082996
  0
SEQEND
  8
0
  0
POLYLINE
  8
AB0CF1H
 62
     3
  6
CONTINUOUS
 66
     1
 40
0.003000
 41
0.003000
  0
VERTEX
  8
AB0CF1H
 62
     3
  6
CONTINUOUS
 10
3.482913
 20
1.080173
  0
VERTEX
  8
AB0CF1H
 62
     3
  6
CONTINUOUS
 10
3.526791
 20
1.105504
  0
SEQEND
  8
0
  0
POLYLINE
  8
AB0CF1H
 62
     3
  6
CONTINUOUS
 66
     1
 40
0.003000
 41
0.003000
  0
VERTEX
  8
AB0CF1H
 62
     3
  6
CONTINUOUS
 10
1.559776
 20
1.080173
  0
VERTEX
  8
AB0CF1H
 62
     3
  6
CONTINUOUS
 10
1.603650
 20
1.105504
  0
SEQEND
  8
0
  0
POLYLINE
  8
AB0CF1H
 62
     3
  6
CONTINUOUS
 66
     1
 40
0.003000
 41
0.003000
  0
VERTEX
  8
AB0CF1H
 62
     3
  6
CONTINUOUS
 10
3.473402
 20
1.044673
  0
VERTEX
  8
AB0CF1H
 62
     3
  6
CONTINUOUS
 10
3.498732
 20
1.000795
  0
SEQEND
  8
0
  0
POLYLINE
  8
AB0CF1H
 62
     3
  6
CONTINUOUS
 66
     1
 40
0.003000
 41
0.003000
  0
VERTEX
  8
AB0CF1H
 62
     3
  6
CONTINUOUS
 10
1.550264
 20
1.044673
  0
VERTEX
  8
AB0CF1H
 62
     3
  6
CONTINUOUS
 10
1.575594
 20
1.000795
  0
SEQEND
  8
0
  0
POLYLINE
  8
AB0CF1H
 62
     3
  6
CONTINUOUS
 66
     1
 40
0.003000
 41
0.003000
  0
VERTEX
  8
AB0CF1H
 62
     3
  6
CONTINUOUS
 10
3.495909
 20
1.057665
  0
VERTEX
  8
AB0CF1H
 62
     3
  6
CONTINUOUS
 10
3.521240
 20
1.013787
  0
SEQEND
  8
0
  0
POLYLINE
  8
AB0CF1H
 62
     3
  6
CONTINUOUS
 66
     1
 40
0.003000
 41
0.003000
  0
VERTEX
  8
AB0CF1H
 62
     3
  6
CONTINUOUS
 10
1.572772
 20
1.057665
  0
VERTEX
  8
AB0CF1H
 62
     3
  6
CONTINUOUS
 10
1.598102
 20
1.013787
  0
SEQEND
  8
0
  0
POLYLINE
  8
AB0CF1H
 62
     3
  6
CONTINUOUS
 66
     1
 40
0.003000
 41
0.003000
  0
VERTEX
  8
AB0CF1H
 62
     3
  6
CONTINUOUS
 10
3.429524
 20
1.019339
  0
VERTEX
  8
AB0CF1H
 62
     3
  6
CONTINUOUS
 10
3.473402
 20
1.044673
  0
SEQEND
  8
0
  0
POLYLINE
  8
AB0CF1H
 62
     3
  6
CONTINUOUS
 66
     1
 40
0.003000
 41
0.003000
  0
VERTEX
  8
AB0CF1H
 62
     3
  6
CONTINUOUS
 10
1.506386
 20
1.019339
  0
VERTEX
  8
AB0CF1H
 62
     3
  6
CONTINUOUS
 10
1.550264
 20
1.044673
  0
SEQEND
  8
0
  0
POLYLINE
  8
AB0CF1H
 62
     3
  6
CONTINUOUS
 66
     1
 40
0.003000
 41
0.003000
  0
VERTEX
  8
AB0CF1H
 62
     3
  6
CONTINUOUS
 10
3.416531
 20
1.041846
  0
VERTEX
  8
AB0CF1H
 62
     3
  6
CONTINUOUS
 10
3.460406
 20
1.067177
  0
SEQEND
  8
0
  0
POLYLINE
  8
AB0CF1H
 62
     3
  6
CONTINUOUS
 66
     1
 40
0.003000
 41
0.003000
  0
VERTEX
  8
AB0CF1H
 62
     3
  6
CONTINUOUS
 10
1.493394
 20
1.041846
  0
VERTEX
  8
AB0CF1H
 62
     3
  6
CONTINUOUS
 10
1.537268
 20
1.067177
  0
SEQEND
  8
0
  0
POLYLINE
  8
AB0CF1H
 62
     3
  6
CONTINUOUS
 66
     1
 40
0.003000
 41
0.003000
  0
VERTEX
  8
AB0CF1H
 62
     3
  6
CONTINUOUS
 10
3.673071
 20
2.096591
  0
VERTEX
  8
AB0CF1H
 62
     3
  6
CONTINUOUS
 10
3.673071
 20
0.854516
  0
SEQEND
  8
0
  0
POLYLINE
  8
AB0CF1H
 62
     3
  6
CONTINUOUS
 66
     1
 40
0.003000
 41
0.003000
  0
VERTEX
  8
AB0CF1H
 62
     3
  6
CONTINUOUS
 10
1.749933
 20
3.245445
  0
VERTEX
  8
AB0CF1H
 62
     3
  6
CONTINUOUS
 10
1.749933
 20
0.854516
  0
SEQEND
  8
0
  0
POLYLINE
  8
AB0CF1H
 62
     3
  6
CONTINUOUS
 66
     1
 40
0.003000
 41
0.003000
  0
VERTEX
  8
AB0CF1H
 62
     3
  6
CONTINUOUS
 10
0.944291
 20
2.608728
  0
VERTEX
  8
AB0CF1H
 62
     3
  6
CONTINUOUS
 10
0.710398
 20
2.608728
  0
SEQEND
  8
0
  0
POLYLINE
  8
AB0CF1H
 62
     3
  6
CONTINUOUS
 66
     1
 40
0.003000
 41
0.003000
  0
VERTEX
  8
AB0CF1H
 62
     3
  6
CONTINUOUS
 10
0.944291
 20
1.946028
  0
VERTEX
  8
AB0CF1H
 62
     3
  6
CONTINUOUS
 10
0.944291
 20
2.608728
  0
SEQEND
  8
0
  0
POLYLINE
  8
AB0CF1H
 62
     3
  6
CONTINUOUS
 66
     1
 40
0.003000
 41
0.003000
  0
VERTEX
  8
AB0CF1H
 62
     3
  6
CONTINUOUS
 10
0.944291
 20
1.946028
  0
VERTEX
  8
AB0CF1H
 62
     3
  6
CONTINUOUS
 10
0.710398
 20
1.946028
  0
SEQEND
  8
0
  0
POLYLINE
  8
AB0CF1H
 62
     3
  6
CONTINUOUS
 66
     1
 40
0.003000
 41
0.003000
  0
VERTEX
  8
AB0CF1H
 62
     3
  6
CONTINUOUS
 10
0.944291
 20
2.166929
  0
VERTEX
  8
AB0CF1H
 62
     3
  6
CONTINUOUS
 10
0.710398
 20
2.166929
  0
SEQEND
  8
0
  0
POLYLINE
  8
AB0CF1H
 62
     3
  6
CONTINUOUS
 66
     1
 40
0.003000
 41
0.003000
  0
VERTEX
  8
AB0CF1H
 62
     3
  6
CONTINUOUS
 10
0.944291
 20
2.387827
  0
VERTEX
  8
AB0CF1H
 62
     3
  6
CONTINUOUS
 10
0.710398
 20
2.387827
  0
SEQEND
  8
0
  0
POLYLINE
  8
AB0CF1H
 62
     3
  6
CONTINUOUS
 66
     1
 40
0.003000
 41
0.003000
  0
VERTEX
  8
AB0CF1H
 62
     3
  6
CONTINUOUS
 10
0.398535
 20
1.374283
  0
VERTEX
  8
AB0CF1H
 62
     3
  6
CONTINUOUS
 10
0.710398
 20
1.374283
  0
SEQEND
  8
0
  0
POLYLINE
  8
AB0CF1H
 62
     3
  6
CONTINUOUS
 66
     1
 40
0.003000
 41
0.003000
  0
VERTEX
  8
AB0CF1H
 62
     3
  6
CONTINUOUS
 10
0.398535
 20
1.413264
  0
VERTEX
  8
AB0CF1H
 62
     3
  6
CONTINUOUS
 10
0.710398
 20
1.413264
  0
SEQEND
  8
0
  0
POLYLINE
  8
AB0CF1H
 62
     3
  6
CONTINUOUS
 66
     1
 40
0.003000
 41
0.003000
  0
VERTEX
  8
AB0CF1H
 62
     3
  6
CONTINUOUS
 10
0.398535
 20
1.595185
  0
VERTEX
  8
AB0CF1H
 62
     3
  6
CONTINUOUS
 10
0.710398
 20
1.595185
  0
SEQEND
  8
0
  0
POLYLINE
  8
AB0CF1H
 62
     3
  6
CONTINUOUS
 66
     1
 40
0.003000
 41
0.003000
  0
VERTEX
  8
AB0CF1H
 62
     3
  6
CONTINUOUS
 10
0.398535
 20
1.634165
  0
VERTEX
  8
AB0CF1H
 62
     3
  6
CONTINUOUS
 10
0.710398
 20
1.634165
  0
SEQEND
  8
0
  0
POLYLINE
  8
AB0CF1H
 62
     3
  6
CONTINUOUS
 66
     1
 40
0.003000
 41
0.003000
  0
VERTEX
  8
AB0CF1H
 62
     3
  6
CONTINUOUS
 10
0.398535
 20
1.816083
  0
VERTEX
  8
AB0CF1H
 62
     3
  6
CONTINUOUS
 10
0.710398
 20
1.816083
  0
SEQEND
  8
0
  0
POLYLINE
  8
AB0CF1H
 62
     3
  6
CONTINUOUS
 66
     1
 40
0.003000
 41
0.003000
  0
VERTEX
  8
AB0CF1H
 62
     3
  6
CONTINUOUS
 10
0.398535
 20
1.855067
  0
VERTEX
  8
AB0CF1H
 62
     3
  6
CONTINUOUS
 10
0.710398
 20
1.855067
  0
SEQEND
  8
0
  0
POLYLINE
  8
AB0CF1H
 62
     3
  6
CONTINUOUS
 66
     1
 40
0.003000
 41
0.003000
  0
VERTEX
  8
AB0CF1H
 62
     3
  6
CONTINUOUS
 10
0.398535
 20
2.036984
  0
VERTEX
  8
AB0CF1H
 62
     3
  6
CONTINUOUS
 10
0.710398
 20
2.036984
  0
SEQEND
  8
0
  0
POLYLINE
  8
AB0CF1H
 62
     3
  6
CONTINUOUS
 66
     1
 40
0.003000
 41
0.003000
  0
VERTEX
  8
AB0CF1H
 62
     3
  6
CONTINUOUS
 10
0.398535
 20
2.075969
  0
VERTEX
  8
AB0CF1H
 62
     3
  6
CONTINUOUS
 10
0.710398
 20
2.075969
  0
SEQEND
  8
0
  0
POLYLINE
  8
AB0CF1H
 62
     3
  6
CONTINUOUS
 66
     1
 40
0.003000
 41
0.003000
  0
VERTEX
  8
AB0CF1H
 62
     3
  6
CONTINUOUS
 10
0.398535
 20
2.257886
  0
VERTEX
  8
AB0CF1H
 62
     3
  6
CONTINUOUS
 10
0.710398
 20
2.257886
  0
SEQEND
  8
0
  0
POLYLINE
  8
AB0CF1H
 62
     3
  6
CONTINUOUS
 66
     1
 40
0.003000
 41
0.003000
  0
VERTEX
  8
AB0CF1H
 62
     3
  6
CONTINUOUS
 10
0.398535
 20
2.296870
  0
VERTEX
  8
AB0CF1H
 62
     3
  6
CONTINUOUS
 10
0.710398
 20
2.296870
  0
SEQEND
  8
0
  0
POLYLINE
  8
AB0CF1H
 62
     3
  6
CONTINUOUS
 66
     1
 40
0.003000
 41
0.003000
  0
VERTEX
  8
AB0CF1H
 62
     3
  6
CONTINUOUS
 10
0.398535
 20
2.478787
  0
VERTEX
  8
AB0CF1H
 62
     3
  6
CONTINUOUS
 10
0.710398
 20
2.478787
  0
SEQEND
  8
0
  0
POLYLINE
  8
AB0CF1H
 62
     3
  6
CONTINUOUS
 66
     1
 40
0.003000
 41
0.003000
  0
VERTEX
  8
AB0CF1H
 62
     3
  6
CONTINUOUS
 10
0.398535
 20
2.517772
  0
VERTEX
  8
AB0CF1H
 62
     3
  6
CONTINUOUS
 10
0.710398
 20
2.517772
  0
SEQEND
  8
0
  0
POLYLINE
  8
AB0CF1H
 62
     3
  6
CONTINUOUS
 66
     1
 40
0.003000
 41
0.003000
  0
VERTEX
  8
AB0CF1H
 62
     3
  6
CONTINUOUS
 10
0.398535
 20
2.699689
  0
VERTEX
  8
AB0CF1H
 62
     3
  6
CONTINUOUS
 10
0.710398
 20
2.699689
  0
SEQEND
  8
0
  0
POLYLINE
  8
AB0CF1H
 62
     3
  6
CONTINUOUS
 66
     1
 40
0.003000
 41
0.003000
  0
VERTEX
  8
AB0CF1H
 62
     3
  6
CONTINUOUS
 10
0.398535
 20
2.738673
  0
VERTEX
  8
AB0CF1H
 62
     3
  6
CONTINUOUS
 10
0.710398
 20
2.738673
  0
SEQEND
  8
0
  0
POLYLINE
  8
AB0CF1H
 62
     3
  6
CONTINUOUS
 66
     1
 40
0.003000
 41
0.003000
  0
VERTEX
  8
AB0CF1H
 62
     3
  6
CONTINUOUS
 10
0.398535
 20
2.920591
  0
VERTEX
  8
AB0CF1H
 62
     3
  6
CONTINUOUS
 10
0.710398
 20
2.920591
  0
SEQEND
  8
0
  0
POLYLINE
  8
AB0CF1H
 62
     3
  6
CONTINUOUS
 66
     1
 40
0.003000
 41
0.003000
  0
VERTEX
  8
AB0CF1H
 62
     3
  6
CONTINUOUS
 10
0.398535
 20
2.959571
  0
VERTEX
  8
AB0CF1H
 62
     3
  6
CONTINUOUS
 10
0.710398
 20
2.959571
  0
SEQEND
  8
0
  0
POLYLINE
  8
AB0CF1H
 62
     3
  6
CONTINUOUS
 66
     1
 40
0.003000
 41
0.003000
  0
VERTEX
  8
AB0CF1H
 62
     3
  6
CONTINUOUS
 10
-0.294484
 20
1.153382
  0
VERTEX
  8
AB0CF1H
 62
     3
  6
CONTINUOUS
 10
0.710398
 20
1.153382
  0
SEQEND
  8
0
  0
POLYLINE
  8
AB0CF1H
 62
     3
  6
CONTINUOUS
 66
     1
 40
0.003000
 41
0.003000
  0
VERTEX
  8
AB0CF1H
 62
     3
  6
CONTINUOUS
 10
0.398535
 20
3.141492
  0
VERTEX
  8
AB0CF1H
 62
     3
  6
CONTINUOUS
 10
0.398535
 20
0.958469
  0
SEQEND
  8
0
  0
POLYLINE
  8
AB0CF1H
 62
     3
  6
CONTINUOUS
 66
     1
 40
0.003000
 41
0.003000
  0
VERTEX
  8
AB0CF1H
 62
     3
  6
CONTINUOUS
 10
-0.121228
 20
3.141492
  0
VERTEX
  8
AB0CF1H
 62
     3
  6
CONTINUOUS
 10
-0.121228
 20
0.958469
  0
SEQEND
  8
0
  0
POLYLINE
  8
AB0CF1H
 62
     3
  6
CONTINUOUS
 66
     1
 40
0.003000
 41
0.003000
  0
VERTEX
  8
AB0CF1H
 62
     3
  6
CONTINUOUS
 10
-0.666984
 20
1.062421
  0
VERTEX
  8
AB0CF1H
 62
     3
  6
CONTINUOUS
 10
-0.433087
 20
1.062421
  0
SEQEND
  8
0
  0
POLYLINE
  8
AB0CF1H
 62
     3
  6
CONTINUOUS
 66
     1
 40
0.003000
 41
0.003000
  0
VERTEX
  8
AB0CF1H
 62
     3
  6
CONTINUOUS
 10
-0.666984
 20
1.062421
  0
VERTEX
  8
AB0CF1H
 62
     3
  6
CONTINUOUS
 10
-0.666984
 20
1.114398
  0
SEQEND
  8
0
  0
POLYLINE
  8
AB0CF1H
 62
     3
  6
CONTINUOUS
 66
     1
 40
0.003000
 41
0.003000
  0
VERTEX
  8
AB0CF1H
 62
     3
  6
CONTINUOUS
 10
-0.666984
 20
1.231346
  0
VERTEX
  8
AB0CF1H
 62
     3
  6
CONTINUOUS
 10
-0.666984
 20
1.283323
  0
SEQEND
  8
0
  0
POLYLINE
  8
AB0CF1H
 62
     3
  6
CONTINUOUS
 66
     1
 40
0.003000
 41
0.003000
  0
VERTEX
  8
AB0CF1H
 62
     3
  6
CONTINUOUS
 10
-0.666984
 20
1.283323
  0
VERTEX
  8
AB0CF1H
 62
     3
  6
CONTINUOUS
 10
-0.433087
 20
1.283323
  0
SEQEND
  8
0
  0
POLYLINE
  8
AB0CF1H
 62
     3
  6
CONTINUOUS
 66
     1
 40
0.003000
 41
0.003000
  0
VERTEX
  8
AB0CF1H
 62
     3
  6
CONTINUOUS
 10
-0.666984
 20
2.218906
  0
VERTEX
  8
AB0CF1H
 62
     3
  6
CONTINUOUS
 10
-0.627453
 20
2.355709
  0
SEQEND
  8
0
  0
POLYLINE
  8
AB0CF1H
 62
     3
  6
CONTINUOUS
 66
     1
 40
0.003000
 41
0.003000
  0
VERTEX
  8
AB0CF1H
 62
     3
  6
CONTINUOUS
 10
-0.666984
 20
2.335850
  0
VERTEX
  8
AB0CF1H
 62
     3
  6
CONTINUOUS
 10
-0.666984
 20
2.387827
  0
SEQEND
  8
0
  0
POLYLINE
  8
AB0CF1H
 62
     3
  6
CONTINUOUS
 66
     1
 40
0.003000
 41
0.003000
  0
VERTEX
  8
AB0CF1H
 62
     3
  6
CONTINUOUS
 10
-0.666984
 20
1.946028
  0
VERTEX
  8
AB0CF1H
 62
     3
  6
CONTINUOUS
 10
-0.666984
 20
1.998004
  0
SEQEND
  8
0
  0
POLYLINE
  8
AB0CF1H
 62
     3
  6
CONTINUOUS
 66
     1
 40
0.003000
 41
0.003000
  0
VERTEX
  8
AB0CF1H
 62
     3
  6
CONTINUOUS
 10
-0.666984
 20
1.998004
  0
VERTEX
  8
AB0CF1H
 62
     3
  6
CONTINUOUS
 10
-0.718961
 20
2.114949
  0
SEQEND
  8
0
  0
POLYLINE
  8
AB0CF1H
 62
     3
  6
CONTINUOUS
 66
     1
 40
0.003000
 41
0.003000
  0
VERTEX
  8
AB0CF1H
 62
     3
  6
CONTINUOUS
 10
-0.666984
 20
2.335850
  0
VERTEX
  8
AB0CF1H
 62
     3
  6
CONTINUOUS
 10
-0.615008
 20
2.335850
  0
SEQEND
  8
0
  0
POLYLINE
  8
AB0CF1H
 62
     3
  6
CONTINUOUS
 66
     1
 40
0.003000
 41
0.003000
  0
VERTEX
  8
AB0CF1H
 62
     3
  6
CONTINUOUS
 10
-0.666984
 20
2.114949
  0
VERTEX
  8
AB0CF1H
 62
     3
  6
CONTINUOUS
 10
-0.666984
 20
2.218906
  0
SEQEND
  8
0
  0
POLYLINE
  8
AB0CF1H
 62
     3
  6
CONTINUOUS
 66
     1
 40
0.003000
 41
0.003000
  0
VERTEX
  8
AB0CF1H
 62
     3
  6
CONTINUOUS
 10
-0.666984
 20
1.946028
  0
VERTEX
  8
AB0CF1H
 62
     3
  6
CONTINUOUS
 10
-0.433087
 20
1.946028
  0
SEQEND
  8
0
  0
POLYLINE
  8
AB0CF1H
 62
     3
  6
CONTINUOUS
 66
     1
 40
0.003000
 41
0.003000
  0
VERTEX
  8
AB0CF1H
 62
     3
  6
CONTINUOUS
 10
-0.666984
 20
2.166929
  0
VERTEX
  8
AB0CF1H
 62
     3
  6
CONTINUOUS
 10
-0.433087
 20
2.166929
  0
SEQEND
  8
0
  0
POLYLINE
  8
AB0CF1H
 62
     3
  6
CONTINUOUS
 66
     1
 40
0.003000
 41
0.003000
  0
VERTEX
  8
AB0CF1H
 62
     3
  6
CONTINUOUS
 10
-0.666984
 20
2.387827
  0
VERTEX
  8
AB0CF1H
 62
     3
  6
CONTINUOUS
 10
-0.433087
 20
2.387827
  0
SEQEND
  8
0
  0
POLYLINE
  8
AB0CF1H
 62
     3
  6
CONTINUOUS
 66
     1
 40
0.003000
 41
0.003000
  0
VERTEX
  8
AB0CF1H
 62
     3
  6
CONTINUOUS
 10
-0.433087
 20
3.141492
  0
VERTEX
  8
AB0CF1H
 62
     3
  6
CONTINUOUS
 10
0.710398
 20
3.141492
  0
SEQEND
  8
0
  0
POLYLINE
  8
AB0CF1H
 62
     3
  6
CONTINUOUS
 66
     1
 40
0.003000
 41
0.003000
  0
VERTEX
  8
AB0CF1H
 62
     3
  6
CONTINUOUS
 10
-0.433087
 20
2.959571
  0
VERTEX
  8
AB0CF1H
 62
     3
  6
CONTINUOUS
 10
-0.121228
 20
2.959571
  0
SEQEND
  8
0
  0
POLYLINE
  8
AB0CF1H
 62
     3
  6
CONTINUOUS
 66
     1
 40
0.003000
 41
0.003000
  0
VERTEX
  8
AB0CF1H
 62
     3
  6
CONTINUOUS
 10
-0.433087
 20
2.920591
  0
VERTEX
  8
AB0CF1H
 62
     3
  6
CONTINUOUS
 10
-0.121228
 20
2.920591
  0
SEQEND
  8
0
  0
POLYLINE
  8
AB0CF1H
 62
     3
  6
CONTINUOUS
 66
     1
 40
0.003000
 41
0.003000
  0
VERTEX
  8
AB0CF1H
 62
     3
  6
CONTINUOUS
 10
-0.433087
 20
2.738673
  0
VERTEX
  8
AB0CF1H
 62
     3
  6
CONTINUOUS
 10
-0.121228
 20
2.738673
  0
SEQEND
  8
0
  0
POLYLINE
  8
AB0CF1H
 62
     3
  6
CONTINUOUS
 66
     1
 40
0.003000
 41
0.003000
  0
VERTEX
  8
AB0CF1H
 62
     3
  6
CONTINUOUS
 10
-0.433087
 20
2.699689
  0
VERTEX
  8
AB0CF1H
 62
     3
  6
CONTINUOUS
 10
-0.121228
 20
2.699689
  0
SEQEND
  8
0
  0
POLYLINE
  8
AB0CF1H
 62
     3
  6
CONTINUOUS
 66
     1
 40
0.003000
 41
0.003000
  0
VERTEX
  8
AB0CF1H
 62
     3
  6
CONTINUOUS
 10
-0.433087
 20
2.517772
  0
VERTEX
  8
AB0CF1H
 62
     3
  6
CONTINUOUS
 10
-0.121228
 20
2.517772
  0
SEQEND
  8
0
  0
POLYLINE
  8
AB0CF1H
 62
     3
  6
CONTINUOUS
 66
     1
 40
0.003000
 41
0.003000
  0
VERTEX
  8
AB0CF1H
 62
     3
  6
CONTINUOUS
 10
-0.433087
 20
2.478787
  0
VERTEX
  8
AB0CF1H
 62
     3
  6
CONTINUOUS
 10
-0.121228
 20
2.478787
  0
SEQEND
  8
0
  0
POLYLINE
  8
AB0CF1H
 62
     3
  6
CONTINUOUS
 66
     1
 40
0.003000
 41
0.003000
  0
VERTEX
  8
AB0CF1H
 62
     3
  6
CONTINUOUS
 10
-0.433087
 20
2.296870
  0
VERTEX
  8
AB0CF1H
 62
     3
  6
CONTINUOUS
 10
-0.121228
 20
2.296870
  0
SEQEND
  8
0
  0
POLYLINE
  8
AB0CF1H
 62
     3
  6
CONTINUOUS
 66
     1
 40
0.003000
 41
0.003000
  0
VERTEX
  8
AB0CF1H
 62
     3
  6
CONTINUOUS
 10
-0.433087
 20
2.257886
  0
VERTEX
  8
AB0CF1H
 62
     3
  6
CONTINUOUS
 10
-0.121228
 20
2.257886
  0
SEQEND
  8
0
  0
POLYLINE
  8
AB0CF1H
 62
     3
  6
CONTINUOUS
 66
     1
 40
0.003000
 41
0.003000
  0
VERTEX
  8
AB0CF1H
 62
     3
  6
CONTINUOUS
 10
-0.433087
 20
2.075969
  0
VERTEX
  8
AB0CF1H
 62
     3
  6
CONTINUOUS
 10
-0.121228
 20
2.075969
  0
SEQEND
  8
0
  0
POLYLINE
  8
AB0CF1H
 62
     3
  6
CONTINUOUS
 66
     1
 40
0.003000
 41
0.003000
  0
VERTEX
  8
AB0CF1H
 62
     3
  6
CONTINUOUS
 10
-0.433087
 20
2.036984
  0
VERTEX
  8
AB0CF1H
 62
     3
  6
CONTINUOUS
 10
-0.121228
 20
2.036984
  0
SEQEND
  8
0
  0
POLYLINE
  8
AB0CF1H
 62
     3
  6
CONTINUOUS
 66
     1
 40
0.003000
 41
0.003000
  0
VERTEX
  8
AB0CF1H
 62
     3
  6
CONTINUOUS
 10
-0.433087
 20
1.855067
  0
VERTEX
  8
AB0CF1H
 62
     3
  6
CONTINUOUS
 10
-0.121228
 20
1.855067
  0
SEQEND
  8
0
  0
POLYLINE
  8
AB0CF1H
 62
     3
  6
CONTINUOUS
 66
     1
 40
0.003000
 41
0.003000
  0
VERTEX
  8
AB0CF1H
 62
     3
  6
CONTINUOUS
 10
-0.433087
 20
1.816083
  0
VERTEX
  8
AB0CF1H
 62
     3
  6
CONTINUOUS
 10
-0.121228
 20
1.816083
  0
SEQEND
  8
0
  0
POLYLINE
  8
AB0CF1H
 62
     3
  6
CONTINUOUS
 66
     1
 40
0.003000
 41
0.003000
  0
VERTEX
  8
AB0CF1H
 62
     3
  6
CONTINUOUS
 10
-0.433087
 20
1.634165
  0
VERTEX
  8
AB0CF1H
 62
     3
  6
CONTINUOUS
 10
-0.121228
 20
1.634165
  0
SEQEND
  8
0
  0
POLYLINE
  8
AB0CF1H
 62
     3
  6
CONTINUOUS
 66
     1
 40
0.003000
 41
0.003000
  0
VERTEX
  8
AB0CF1H
 62
     3
  6
CONTINUOUS
 10
-0.433087
 20
1.595185
  0
VERTEX
  8
AB0CF1H
 62
     3
  6
CONTINUOUS
 10
-0.121228
 20
1.595185
  0
SEQEND
  8
0
  0
POLYLINE
  8
AB0CF1H
 62
     3
  6
CONTINUOUS
 66
     1
 40
0.003000
 41
0.003000
  0
VERTEX
  8
AB0CF1H
 62
     3
  6
CONTINUOUS
 10
-0.433087
 20
1.413264
  0
VERTEX
  8
AB0CF1H
 62
     3
  6
CONTINUOUS
 10
-0.121228
 20
1.413264
  0
SEQEND
  8
0
  0
POLYLINE
  8
AB0CF1H
 62
     3
  6
CONTINUOUS
 66
     1
 40
0.003000
 41
0.003000
  0
VERTEX
  8
AB0CF1H
 62
     3
  6
CONTINUOUS
 10
-0.433087
 20
1.374283
  0
VERTEX
  8
AB0CF1H
 62
     3
  6
CONTINUOUS
 10
-0.121228
 20
1.374283
  0
SEQEND
  8
0
  0
POLYLINE
  8
AB0CF1H
 62
     3
  6
CONTINUOUS
 66
     1
 40
0.003000
 41
0.003000
  0
VERTEX
  8
AB0CF1H
 62
     3
  6
CONTINUOUS
 10
-0.433087
 20
1.192362
  0
VERTEX
  8
AB0CF1H
 62
     3
  6
CONTINUOUS
 10
0.710398
 20
1.192362
  0
SEQEND
  8
0
  0
POLYLINE
  8
AB0CF1H
 62
     3
  6
CONTINUOUS
 66
     1
 40
0.003000
 41
0.003000
  0
VERTEX
  8
AB0CF1H
 62
     3
  6
CONTINUOUS
 10
-0.433087
 20
1.153382
  0
VERTEX
  8
AB0CF1H
 62
     3
  6
CONTINUOUS
 10
-0.121228
 20
1.153382
  0
SEQEND
  8
0
  0
POLYLINE
  8
AB0CF1H
 62
     3
  6
CONTINUOUS
 66
     1
 40
0.003000
 41
0.003000
  0
VERTEX
  8
AB0CF1H
 62
     3
  6
CONTINUOUS
 10
-0.433087
 20
0.958469
  0
VERTEX
  8
AB0CF1H
 62
     3
  6
CONTINUOUS
 10
0.710398
 20
0.958469
  0
SEQEND
  8
0
  0
POLYLINE
  8
AB0CF1H
 62
     3
  6
CONTINUOUS
 66
     1
 40
0.003000
 41
0.003000
  0
VERTEX
  8
AB0CF1H
 62
     3
  6
CONTINUOUS
 10
0.710398
 20
0.854516
  0
VERTEX
  8
AB0CF1H
 62
     3
  6
CONTINUOUS
 10
-0.433087
 20
0.854516
  0
SEQEND
  8
0
  0
POLYLINE
  8
AB0CF1H
 62
     3
  6
CONTINUOUS
 66
     1
 40
0.003000
 41
0.003000
  0
VERTEX
  8
AB0CF1H
 62
     3
  6
CONTINUOUS
 10
0.710398
 20
3.245445
  0
VERTEX
  8
AB0CF1H
 62
     3
  6
CONTINUOUS
 10
0.710398
 20
0.854516
  0
SEQEND
  8
0
  0
POLYLINE
  8
AB0CF1H
 62
     3
  6
CONTINUOUS
 66
     1
 40
0.003000
 41
0.003000
  0
VERTEX
  8
AB0CF1H
 62
     3
  6
CONTINUOUS
 10
-0.433087
 20
3.245445
  0
VERTEX
  8
AB0CF1H
 62
     3
  6
CONTINUOUS
 10
0.710398
 20
3.245445
  0
SEQEND
  8
0
  0
POLYLINE
  8
AB0CF1H
 62
     3
  6
CONTINUOUS
 66
     1
 40
0.003000
 41
0.003000
  0
VERTEX
  8
AB0CF1H
 62
     3
  6
CONTINUOUS
 10
-0.433087
 20
0.854516
  0
VERTEX
  8
AB0CF1H
 62
     3
  6
CONTINUOUS
 10
-0.433087
 20
3.245445
  0
SEQEND
  8
0
  0
ENDSEC
  0
EOF
