  0
SECTION
  2
HEADER
  9
$ACADVER
  1
AC1006
  9
$EXTMIN
 10
-3.189476
 20
2.775429
  9
$EXTMAX
 10
2.597177
 20
4.793091
  9
$LTSCALE
 40
0.000394
  9
$PDMODE
 70
    35
  9
$PDSIZE
 40
0.000315
  0
ENDSEC
  0
SECTION
  2
TABLES
  0
TABLE
  2
LTYPE
 70
     9
  0
LTYPE
  2
CONTINUOUS
 70
    64
  3
Solid line
 72
    65
 73
     0
 40
0.000000
  0
LTYPE
  2
DASHED
 70
    64
  3
__ __ __ __ __ __ __ __ __ __ __ __ __ __ __
 72
    65
 73
     2
 40
0.000003
 49
0.000002
 49
-0.000001
  0
LTYPE
  2
HIDDEN
 70
    64
  3
 _ _ _ _ _ _ _ _ _ _ _ _ _ _ _ _ _ _ _ _ _ _
 72
    65
 73
     2
 40
0.000001
 49
0.000001
 49
-0.000000
  0
LTYPE
  2
CENTER
 70
    64
  3
____ _ ____ _ ____ _ ____ _ ____ _ ____ _ ____
 72
    65
 73
     4
 40
0.000008
 49
0.000005
 49
-0.000001
 49
0.000001
 49
-0.000001
  0
LTYPE
  2
PHANTOM
 70
    64
  3
_____ _ _ _____ _ _ _____ _ _ _____ _ _ ____
 72
    65
 73
     6
 40
0.000010
 49
0.000005
 49
-0.000001
 49
0.000001
 49
-0.000001
 49
0.000001
 49
-0.000001
  0
LTYPE
  2
DOT
 70
    64
  3
...............................................
 72
    65
 73
     2
 40
0.000001
 49
0.000000
 49
-0.000001
  0
LTYPE
  2
DASHDOT
 70
    64
  3
__ . __ . __ . __ . __ . __ . __ . __ . __ . __
 72
    65
 73
     4
 40
0.000004
 49
0.000002
 49
-0.000001
 49
0.000000
 49
-0.000001
  0
LTYPE
  2
BORDER
 70
    64
  3
__ __ . __ __ . __ __ . __ __ . __ __ . __ __
 72
    65
 73
     6
 40
0.000007
 49
0.000002
 49
-0.000001
 49
0.000002
 49
-0.000001
 49
0.000000
 49
-0.000001
  0
LTYPE
  2
DIVIDE
 70
    64
  3
__ . . __ . . __ . . __ . . __ . . __ . . __
 72
    65
 73
     6
 40
0.000005
 49
0.000002
 49
-0.000001
 49
0.000000
 49
-0.000001
 49
0.000000
 49
-0.000001
  0
LTYPE
  2
DOTDOT
 70
    64
  3
 . .  . .  . .  . .  . .  . . 
 72
    65
 73
     5
 40
0.000002
 49
-0.000001
 49
0.000000
 49
-0.000001
 49
0.000000
 49
-0.000001
  0
ENDTAB
  0
TABLE
  2
STYLE
 70
     2
  0
STYLE
 70
     0
  2
SN0
 40
0.000000
 41
0.000004
 50
0.000000
 71
     0
 42
0.000000
  3
AGaramond
  0
STYLE
 70
    68
  2
SV0
 40
0.000000
 41
0.000004
 50
0.000000
 71
     0
 42
0.000000
  3
AGaramond
  0
ENDTAB
  0
TABLE
  2
LAYER
 70
     5
  0
LAYER
  2
FOREGROUND
 70
    64
 62
     7
  6
CONTINUOUS
  0
LAYER
  2
BACKGROUND
 70
    65
 62
    -7
  6
CONTINUOUS
  0
LAYER
  2
AB0CS2S
 70
    64
 62
     7
  6
CONTINUOUS
  0
LAYER
  2
0O0RAH
 70
    64
 62
     7
  6
CONTINUOUS
  0
LAYER
  2
0O0ZEIT
 70
    64
 62
     7
  6
CONTINUOUS
  0
ENDTAB
  0
ENDSEC
  0
SECTION
  2
ENTITIES
  0
POLYLINE
  8
AB0CS2S
 62
     1
  6
CONTINUOUS
 66
     1
 40
0.003000
 41
0.003000
  0
VERTEX
  8
AB0CS2S
 62
     1
  6
CONTINUOUS
 10
1.524433
 20
3.109854
  0
VERTEX
  8
AB0CS2S
 62
     1
  6
CONTINUOUS
 10
1.413457
 20
2.776929
  0
SEQEND
  8
0
  0
POLYLINE
  8
AB0CS2S
 62
     1
  6
CONTINUOUS
 66
     1
 40
0.003000
 41
0.003000
  0
VERTEX
  8
AB0CS2S
 62
     1
  6
CONTINUOUS
 10
1.448874
 20
3.504429
  0
VERTEX
  8
AB0CS2S
 62
     1
  6
CONTINUOUS
 10
1.524433
 20
3.109854
  0
SEQEND
  8
0
  0
POLYLINE
  8
AB0CS2S
 62
     1
  6
CONTINUOUS
 66
     1
 40
0.003000
 41
0.003000
  0
VERTEX
  8
AB0CS2S
 62
     1
  6
CONTINUOUS
 10
1.482457
 20
3.991350
  0
VERTEX
  8
AB0CS2S
 62
     1
  6
CONTINUOUS
 10
1.448874
 20
3.504429
  0
SEQEND
  8
0
  0
POLYLINE
  8
AB0CS2S
 62
     1
  6
CONTINUOUS
 66
     1
 40
0.003000
 41
0.003000
  0
VERTEX
  8
AB0CS2S
 62
     1
  6
CONTINUOUS
 10
1.709126
 20
4.142465
  0
VERTEX
  8
AB0CS2S
 62
     1
  6
CONTINUOUS
 10
1.482457
 20
3.991350
  0
SEQEND
  8
0
  0
POLYLINE
  8
AB0CS2S
 62
     1
  6
CONTINUOUS
 66
     1
 40
0.003000
 41
0.003000
  0
VERTEX
  8
AB0CS2S
 62
     1
  6
CONTINUOUS
 10
2.011354
 20
4.083697
  0
VERTEX
  8
AB0CS2S
 62
     1
  6
CONTINUOUS
 10
1.709126
 20
4.142465
  0
SEQEND
  8
0
  0
POLYLINE
  8
AB0CS2S
 62
     1
  6
CONTINUOUS
 66
     1
 40
0.003000
 41
0.003000
  0
VERTEX
  8
AB0CS2S
 62
     1
  6
CONTINUOUS
 10
2.208783
 20
4.119594
  0
VERTEX
  8
AB0CS2S
 62
     1
  6
CONTINUOUS
 10
2.011354
 20
4.083697
  0
SEQEND
  8
0
  0
TEXT
  8
AB0CS2S
 10
-0.178583
 20
4.417756
 40
0.144286
  1
6
 41
1.000000
  7
SN0
 71
     0
 72
     5
 11
-0.085996
 21
4.417756
  0
TEXT
  8
AB0CS2S
 10
-0.178583
 20
4.059594
 40
0.144286
  1
7
 41
1.000000
  7
SN0
 71
     0
 72
     5
 11
-0.085996
 21
4.059594
  0
TEXT
  8
AB0CS2S
 10
-0.178583
 20
3.701433
 40
0.144286
  1
8
 41
1.000000
  7
SN0
 71
     0
 72
     5
 11
-0.085996
 21
3.701433
  0
TEXT
  8
AB0CS2S
 10
-0.178583
 20
3.343272
 40
0.144286
  1
9
 41
1.000000
  7
SN0
 71
     0
 72
     5
 11
-0.085996
 21
3.343272
  0
TEXT
  8
AB0CS2S
 10
-0.200965
 20
2.985110
 40
0.144286
  1
10
 41
1.000000
  7
SN0
 71
     0
 72
     5
 11
-0.015792
 21
2.985110
  0
TEXT
  8
AB0CS2S
 10
-1.897311
 20
2.985110
 40
0.144286
  1
5
 41
1.000000
  7
SN0
 71
     0
 72
     5
 11
-1.804725
 21
2.985110
  0
TEXT
  8
AB0CS2S
 10
-1.909398
 20
3.343272
 40
0.144286
  1
4
 41
1.000000
  7
SN0
 71
     0
 72
     5
 11
-1.816811
 21
3.343272
  0
TEXT
  8
AB0CS2S
 10
-1.897311
 20
3.701433
 40
0.144286
  1
3
 41
1.000000
  7
SN0
 71
     0
 72
     5
 11
-1.804725
 21
3.701433
  0
TEXT
  8
AB0CS2S
 10
-1.897311
 20
4.059594
 40
0.144286
  1
2
 41
1.000000
  7
SN0
 71
     0
 72
     5
 11
-1.804725
 21
4.059594
  0
TEXT
  8
AB0CS2S
 10
-1.873134
 20
4.417756
 40
0.144286
  1
1
 41
1.000000
  7
SN0
 71
     0
 72
     5
 11
-1.780547
 21
4.417756
  0
POLYLINE
  8
AB0CS2S
 62
     3
  6
CONTINUOUS
 66
     1
 40
0.003000
 41
0.003000
 70
     1
  0
VERTEX
  8
AB0CS2S
 62
     3
  6
CONTINUOUS
 10
-1.551906
 20
3.067937
  0
VERTEX
  8
AB0CS2S
 62
     3
  6
CONTINUOUS
 10
-1.554401
 20
3.094168
  0
VERTEX
  8
AB0CS2S
 62
     3
  6
CONTINUOUS
 10
-1.561494
 20
3.116902
  0
VERTEX
  8
AB0CS2S
 62
     3
  6
CONTINUOUS
 10
-1.572528
 20
3.136138
  0
VERTEX
  8
AB0CS2S
 62
     3
  6
CONTINUOUS
 10
-1.586847
 20
3.151878
  0
VERTEX
  8
AB0CS2S
 62
     3
  6
CONTINUOUS
 10
-1.603792
 20
3.164119
  0
VERTEX
  8
AB0CS2S
 62
     3
  6
CONTINUOUS
 10
-1.622708
 20
3.172864
  0
VERTEX
  8
AB0CS2S
 62
     3
  6
CONTINUOUS
 10
-1.642938
 20
3.178111
  0
VERTEX
  8
AB0CS2S
 62
     3
  6
CONTINUOUS
 10
-1.663824
 20
3.179861
  0
VERTEX
  8
AB0CS2S
 62
     3
  6
CONTINUOUS
 10
-1.684711
 20
3.178113
  0
VERTEX
  8
AB0CS2S
 62
     3
  6
CONTINUOUS
 10
-1.704941
 20
3.172868
  0
VERTEX
  8
AB0CS2S
 62
     3
  6
CONTINUOUS
 10
-1.723858
 20
3.164125
  0
VERTEX
  8
AB0CS2S
 62
     3
  6
CONTINUOUS
 10
-1.740804
 20
3.151884
  0
VERTEX
  8
AB0CS2S
 62
     3
  6
CONTINUOUS
 10
-1.755124
 20
3.136146
  0
VERTEX
  8
AB0CS2S
 62
     3
  6
CONTINUOUS
 10
-1.766159
 20
3.116910
  0
VERTEX
  8
AB0CS2S
 62
     3
  6
CONTINUOUS
 10
-1.773254
 20
3.094176
  0
VERTEX
  8
AB0CS2S
 62
     3
  6
CONTINUOUS
 10
-1.775752
 20
3.067945
  0
VERTEX
  8
AB0CS2S
 62
     3
  6
CONTINUOUS
 10
-1.773259
 20
3.041714
  0
VERTEX
  8
AB0CS2S
 62
     3
  6
CONTINUOUS
 10
-1.766168
 20
3.018981
  0
VERTEX
  8
AB0CS2S
 62
     3
  6
CONTINUOUS
 10
-1.755136
 20
2.999744
  0
VERTEX
  8
AB0CS2S
 62
     3
  6
CONTINUOUS
 10
-1.740820
 20
2.984004
  0
VERTEX
  8
AB0CS2S
 62
     3
  6
CONTINUOUS
 10
-1.723876
 20
2.971760
  0
VERTEX
  8
AB0CS2S
 62
     3
  6
CONTINUOUS
 10
-1.704961
 20
2.963014
  0
VERTEX
  8
AB0CS2S
 62
     3
  6
CONTINUOUS
 10
-1.684732
 20
2.957766
  0
VERTEX
  8
AB0CS2S
 62
     3
  6
CONTINUOUS
 10
-1.663845
 20
2.956014
  0
VERTEX
  8
AB0CS2S
 62
     3
  6
CONTINUOUS
 10
-1.642959
 20
2.957760
  0
VERTEX
  8
AB0CS2S
 62
     3
  6
CONTINUOUS
 10
-1.622728
 20
2.963004
  0
VERTEX
  8
AB0CS2S
 62
     3
  6
CONTINUOUS
 10
-1.603811
 20
2.971745
  0
VERTEX
  8
AB0CS2S
 62
     3
  6
CONTINUOUS
 10
-1.586864
 20
2.983983
  0
VERTEX
  8
AB0CS2S
 62
     3
  6
CONTINUOUS
 10
-1.572543
 20
2.999720
  0
VERTEX
  8
AB0CS2S
 62
     3
  6
CONTINUOUS
 10
-1.561506
 20
3.018954
  0
VERTEX
  8
AB0CS2S
 62
     3
  6
CONTINUOUS
 10
-1.554409
 20
3.041687
  0
VERTEX
  8
AB0CS2S
 62
     3
  6
CONTINUOUS
 10
-1.551909
 20
3.067917
  0
VERTEX
  8
AB0CS2S
 62
     3
  6
CONTINUOUS
 10
-1.551908
 20
3.067922
  0
VERTEX
  8
AB0CS2S
 62
     3
  6
CONTINUOUS
 10
-1.551907
 20
3.067932
  0
SEQEND
  8
0
  0
POLYLINE
  8
AB0CS2S
 62
     3
  6
CONTINUOUS
 66
     1
 40
0.003000
 41
0.003000
 70
     1
  0
VERTEX
  8
AB0CS2S
 62
     3
  6
CONTINUOUS
 10
-1.551906
 20
3.426098
  0
VERTEX
  8
AB0CS2S
 62
     3
  6
CONTINUOUS
 10
-1.554401
 20
3.452329
  0
VERTEX
  8
AB0CS2S
 62
     3
  6
CONTINUOUS
 10
-1.561494
 20
3.475063
  0
VERTEX
  8
AB0CS2S
 62
     3
  6
CONTINUOUS
 10
-1.572528
 20
3.494300
  0
VERTEX
  8
AB0CS2S
 62
     3
  6
CONTINUOUS
 10
-1.586847
 20
3.510039
  0
VERTEX
  8
AB0CS2S
 62
     3
  6
CONTINUOUS
 10
-1.603792
 20
3.522281
  0
VERTEX
  8
AB0CS2S
 62
     3
  6
CONTINUOUS
 10
-1.622708
 20
3.531025
  0
VERTEX
  8
AB0CS2S
 62
     3
  6
CONTINUOUS
 10
-1.642938
 20
3.536272
  0
VERTEX
  8
AB0CS2S
 62
     3
  6
CONTINUOUS
 10
-1.663824
 20
3.538022
  0
VERTEX
  8
AB0CS2S
 62
     3
  6
CONTINUOUS
 10
-1.684711
 20
3.536274
  0
VERTEX
  8
AB0CS2S
 62
     3
  6
CONTINUOUS
 10
-1.704941
 20
3.531029
  0
VERTEX
  8
AB0CS2S
 62
     3
  6
CONTINUOUS
 10
-1.723858
 20
3.522286
  0
VERTEX
  8
AB0CS2S
 62
     3
  6
CONTINUOUS
 10
-1.740804
 20
3.510045
  0
VERTEX
  8
AB0CS2S
 62
     3
  6
CONTINUOUS
 10
-1.755124
 20
3.494307
  0
VERTEX
  8
AB0CS2S
 62
     3
  6
CONTINUOUS
 10
-1.766159
 20
3.475071
  0
VERTEX
  8
AB0CS2S
 62
     3
  6
CONTINUOUS
 10
-1.773254
 20
3.452338
  0
VERTEX
  8
AB0CS2S
 62
     3
  6
CONTINUOUS
 10
-1.775752
 20
3.426106
  0
VERTEX
  8
AB0CS2S
 62
     3
  6
CONTINUOUS
 10
-1.773259
 20
3.399876
  0
VERTEX
  8
AB0CS2S
 62
     3
  6
CONTINUOUS
 10
-1.766168
 20
3.377142
  0
VERTEX
  8
AB0CS2S
 62
     3
  6
CONTINUOUS
 10
-1.755136
 20
3.357905
  0
VERTEX
  8
AB0CS2S
 62
     3
  6
CONTINUOUS
 10
-1.740820
 20
3.342165
  0
VERTEX
  8
AB0CS2S
 62
     3
  6
CONTINUOUS
 10
-1.723876
 20
3.329922
  0
VERTEX
  8
AB0CS2S
 62
     3
  6
CONTINUOUS
 10
-1.704961
 20
3.321176
  0
VERTEX
  8
AB0CS2S
 62
     3
  6
CONTINUOUS
 10
-1.684732
 20
3.315927
  0
VERTEX
  8
AB0CS2S
 62
     3
  6
CONTINUOUS
 10
-1.663845
 20
3.314176
  0
VERTEX
  8
AB0CS2S
 62
     3
  6
CONTINUOUS
 10
-1.642959
 20
3.315922
  0
VERTEX
  8
AB0CS2S
 62
     3
  6
CONTINUOUS
 10
-1.622728
 20
3.321165
  0
VERTEX
  8
AB0CS2S
 62
     3
  6
CONTINUOUS
 10
-1.603811
 20
3.329906
  0
VERTEX
  8
AB0CS2S
 62
     3
  6
CONTINUOUS
 10
-1.586864
 20
3.342145
  0
VERTEX
  8
AB0CS2S
 62
     3
  6
CONTINUOUS
 10
-1.572543
 20
3.357881
  0
VERTEX
  8
AB0CS2S
 62
     3
  6
CONTINUOUS
 10
-1.561506
 20
3.377116
  0
VERTEX
  8
AB0CS2S
 62
     3
  6
CONTINUOUS
 10
-1.554409
 20
3.399848
  0
VERTEX
  8
AB0CS2S
 62
     3
  6
CONTINUOUS
 10
-1.551909
 20
3.426079
  0
VERTEX
  8
AB0CS2S
 62
     3
  6
CONTINUOUS
 10
-1.551908
 20
3.426084
  0
VERTEX
  8
AB0CS2S
 62
     3
  6
CONTINUOUS
 10
-1.551907
 20
3.426093
  0
SEQEND
  8
0
  0
POLYLINE
  8
AB0CS2S
 62
     3
  6
CONTINUOUS
 66
     1
 40
0.003000
 41
0.003000
 70
     1
  0
VERTEX
  8
AB0CS2S
 62
     3
  6
CONTINUOUS
 10
-1.551906
 20
3.784260
  0
VERTEX
  8
AB0CS2S
 62
     3
  6
CONTINUOUS
 10
-1.554401
 20
3.810491
  0
VERTEX
  8
AB0CS2S
 62
     3
  6
CONTINUOUS
 10
-1.561494
 20
3.833225
  0
VERTEX
  8
AB0CS2S
 62
     3
  6
CONTINUOUS
 10
-1.572528
 20
3.852461
  0
VERTEX
  8
AB0CS2S
 62
     3
  6
CONTINUOUS
 10
-1.586847
 20
3.868200
  0
VERTEX
  8
AB0CS2S
 62
     3
  6
CONTINUOUS
 10
-1.603792
 20
3.880442
  0
VERTEX
  8
AB0CS2S
 62
     3
  6
CONTINUOUS
 10
-1.622708
 20
3.889187
  0
VERTEX
  8
AB0CS2S
 62
     3
  6
CONTINUOUS
 10
-1.642938
 20
3.894434
  0
VERTEX
  8
AB0CS2S
 62
     3
  6
CONTINUOUS
 10
-1.663824
 20
3.896184
  0
VERTEX
  8
AB0CS2S
 62
     3
  6
CONTINUOUS
 10
-1.684711
 20
3.894436
  0
VERTEX
  8
AB0CS2S
 62
     3
  6
CONTINUOUS
 10
-1.704941
 20
3.889190
  0
VERTEX
  8
AB0CS2S
 62
     3
  6
CONTINUOUS
 10
-1.723858
 20
3.880447
  0
VERTEX
  8
AB0CS2S
 62
     3
  6
CONTINUOUS
 10
-1.740804
 20
3.868207
  0
VERTEX
  8
AB0CS2S
 62
     3
  6
CONTINUOUS
 10
-1.755124
 20
3.852469
  0
VERTEX
  8
AB0CS2S
 62
     3
  6
CONTINUOUS
 10
-1.766159
 20
3.833233
  0
VERTEX
  8
AB0CS2S
 62
     3
  6
CONTINUOUS
 10
-1.773254
 20
3.810499
  0
VERTEX
  8
AB0CS2S
 62
     3
  6
CONTINUOUS
 10
-1.775752
 20
3.784268
  0
VERTEX
  8
AB0CS2S
 62
     3
  6
CONTINUOUS
 10
-1.773259
 20
3.758037
  0
VERTEX
  8
AB0CS2S
 62
     3
  6
CONTINUOUS
 10
-1.766168
 20
3.735303
  0
VERTEX
  8
AB0CS2S
 62
     3
  6
CONTINUOUS
 10
-1.755136
 20
3.716066
  0
VERTEX
  8
AB0CS2S
 62
     3
  6
CONTINUOUS
 10
-1.740820
 20
3.700326
  0
VERTEX
  8
AB0CS2S
 62
     3
  6
CONTINUOUS
 10
-1.723876
 20
3.688083
  0
VERTEX
  8
AB0CS2S
 62
     3
  6
CONTINUOUS
 10
-1.704961
 20
3.679337
  0
VERTEX
  8
AB0CS2S
 62
     3
  6
CONTINUOUS
 10
-1.684732
 20
3.674089
  0
VERTEX
  8
AB0CS2S
 62
     3
  6
CONTINUOUS
 10
-1.663845
 20
3.672337
  0
VERTEX
  8
AB0CS2S
 62
     3
  6
CONTINUOUS
 10
-1.642959
 20
3.674083
  0
VERTEX
  8
AB0CS2S
 62
     3
  6
CONTINUOUS
 10
-1.622728
 20
3.679327
  0
VERTEX
  8
AB0CS2S
 62
     3
  6
CONTINUOUS
 10
-1.603811
 20
3.688068
  0
VERTEX
  8
AB0CS2S
 62
     3
  6
CONTINUOUS
 10
-1.586864
 20
3.700306
  0
VERTEX
  8
AB0CS2S
 62
     3
  6
CONTINUOUS
 10
-1.572543
 20
3.716043
  0
VERTEX
  8
AB0CS2S
 62
     3
  6
CONTINUOUS
 10
-1.561506
 20
3.735277
  0
VERTEX
  8
AB0CS2S
 62
     3
  6
CONTINUOUS
 10
-1.554409
 20
3.758010
  0
VERTEX
  8
AB0CS2S
 62
     3
  6
CONTINUOUS
 10
-1.551909
 20
3.784240
  0
VERTEX
  8
AB0CS2S
 62
     3
  6
CONTINUOUS
 10
-1.551908
 20
3.784245
  0
VERTEX
  8
AB0CS2S
 62
     3
  6
CONTINUOUS
 10
-1.551907
 20
3.784255
  0
SEQEND
  8
0
  0
POLYLINE
  8
AB0CS2S
 62
     3
  6
CONTINUOUS
 66
     1
 40
0.003000
 41
0.003000
 70
     1
  0
VERTEX
  8
AB0CS2S
 62
     3
  6
CONTINUOUS
 10
-1.551906
 20
4.142421
  0
VERTEX
  8
AB0CS2S
 62
     3
  6
CONTINUOUS
 10
-1.554401
 20
4.168652
  0
VERTEX
  8
AB0CS2S
 62
     3
  6
CONTINUOUS
 10
-1.561494
 20
4.191386
  0
VERTEX
  8
AB0CS2S
 62
     3
  6
CONTINUOUS
 10
-1.572528
 20
4.210623
  0
VERTEX
  8
AB0CS2S
 62
     3
  6
CONTINUOUS
 10
-1.586847
 20
4.226362
  0
VERTEX
  8
AB0CS2S
 62
     3
  6
CONTINUOUS
 10
-1.603792
 20
4.238604
  0
VERTEX
  8
AB0CS2S
 62
     3
  6
CONTINUOUS
 10
-1.622708
 20
4.247348
  0
VERTEX
  8
AB0CS2S
 62
     3
  6
CONTINUOUS
 10
-1.642938
 20
4.252595
  0
VERTEX
  8
AB0CS2S
 62
     3
  6
CONTINUOUS
 10
-1.663824
 20
4.254345
  0
VERTEX
  8
AB0CS2S
 62
     3
  6
CONTINUOUS
 10
-1.684711
 20
4.252597
  0
VERTEX
  8
AB0CS2S
 62
     3
  6
CONTINUOUS
 10
-1.704941
 20
4.247352
  0
VERTEX
  8
AB0CS2S
 62
     3
  6
CONTINUOUS
 10
-1.723858
 20
4.238609
  0
VERTEX
  8
AB0CS2S
 62
     3
  6
CONTINUOUS
 10
-1.740804
 20
4.226368
  0
VERTEX
  8
AB0CS2S
 62
     3
  6
CONTINUOUS
 10
-1.755124
 20
4.210630
  0
VERTEX
  8
AB0CS2S
 62
     3
  6
CONTINUOUS
 10
-1.766159
 20
4.191394
  0
VERTEX
  8
AB0CS2S
 62
     3
  6
CONTINUOUS
 10
-1.773254
 20
4.168661
  0
VERTEX
  8
AB0CS2S
 62
     3
  6
CONTINUOUS
 10
-1.775752
 20
4.142429
  0
VERTEX
  8
AB0CS2S
 62
     3
  6
CONTINUOUS
 10
-1.773259
 20
4.116199
  0
VERTEX
  8
AB0CS2S
 62
     3
  6
CONTINUOUS
 10
-1.766168
 20
4.093465
  0
VERTEX
  8
AB0CS2S
 62
     3
  6
CONTINUOUS
 10
-1.755136
 20
4.074228
  0
VERTEX
  8
AB0CS2S
 62
     3
  6
CONTINUOUS
 10
-1.740820
 20
4.058488
  0
VERTEX
  8
AB0CS2S
 62
     3
  6
CONTINUOUS
 10
-1.723876
 20
4.046245
  0
VERTEX
  8
AB0CS2S
 62
     3
  6
CONTINUOUS
 10
-1.704961
 20
4.037499
  0
VERTEX
  8
AB0CS2S
 62
     3
  6
CONTINUOUS
 10
-1.684732
 20
4.032250
  0
VERTEX
  8
AB0CS2S
 62
     3
  6
CONTINUOUS
 10
-1.663845
 20
4.030499
  0
VERTEX
  8
AB0CS2S
 62
     3
  6
CONTINUOUS
 10
-1.642959
 20
4.032244
  0
VERTEX
  8
AB0CS2S
 62
     3
  6
CONTINUOUS
 10
-1.622728
 20
4.037488
  0
VERTEX
  8
AB0CS2S
 62
     3
  6
CONTINUOUS
 10
-1.603811
 20
4.046229
  0
VERTEX
  8
AB0CS2S
 62
     3
  6
CONTINUOUS
 10
-1.586864
 20
4.058468
  0
VERTEX
  8
AB0CS2S
 62
     3
  6
CONTINUOUS
 10
-1.572543
 20
4.074204
  0
VERTEX
  8
AB0CS2S
 62
     3
  6
CONTINUOUS
 10
-1.561506
 20
4.093439
  0
VERTEX
  8
AB0CS2S
 62
     3
  6
CONTINUOUS
 10
-1.554409
 20
4.116171
  0
VERTEX
  8
AB0CS2S
 62
     3
  6
CONTINUOUS
 10
-1.551909
 20
4.142402
  0
VERTEX
  8
AB0CS2S
 62
     3
  6
CONTINUOUS
 10
-1.551908
 20
4.142407
  0
VERTEX
  8
AB0CS2S
 62
     3
  6
CONTINUOUS
 10
-1.551907
 20
4.142416
  0
SEQEND
  8
0
  0
POLYLINE
  8
AB0CS2S
 62
     3
  6
CONTINUOUS
 66
     1
 40
0.003000
 41
0.003000
 70
     1
  0
VERTEX
  8
AB0CS2S
 62
     3
  6
CONTINUOUS
 10
-0.253579
 20
3.067937
  0
VERTEX
  8
AB0CS2S
 62
     3
  6
CONTINUOUS
 10
-0.256074
 20
3.094167
  0
VERTEX
  8
AB0CS2S
 62
     3
  6
CONTINUOUS
 10
-0.263167
 20
3.116900
  0
VERTEX
  8
AB0CS2S
 62
     3
  6
CONTINUOUS
 10
-0.274201
 20
3.136136
  0
VERTEX
  8
AB0CS2S
 62
     3
  6
CONTINUOUS
 10
-0.288519
 20
3.151875
  0
VERTEX
  8
AB0CS2S
 62
     3
  6
CONTINUOUS
 10
-0.305464
 20
3.164116
  0
VERTEX
  8
AB0CS2S
 62
     3
  6
CONTINUOUS
 10
-0.324379
 20
3.172860
  0
VERTEX
  8
AB0CS2S
 62
     3
  6
CONTINUOUS
 10
-0.344608
 20
3.178107
  0
VERTEX
  8
AB0CS2S
 62
     3
  6
CONTINUOUS
 10
-0.365494
 20
3.179856
  0
VERTEX
  8
AB0CS2S
 62
     3
  6
CONTINUOUS
 10
-0.386380
 20
3.178108
  0
VERTEX
  8
AB0CS2S
 62
     3
  6
CONTINUOUS
 10
-0.406609
 20
3.172863
  0
VERTEX
  8
AB0CS2S
 62
     3
  6
CONTINUOUS
 10
-0.425525
 20
3.164120
  0
VERTEX
  8
AB0CS2S
 62
     3
  6
CONTINUOUS
 10
-0.442471
 20
3.151880
  0
VERTEX
  8
AB0CS2S
 62
     3
  6
CONTINUOUS
 10
-0.456790
 20
3.136143
  0
VERTEX
  8
AB0CS2S
 62
     3
  6
CONTINUOUS
 10
-0.467825
 20
3.116908
  0
VERTEX
  8
AB0CS2S
 62
     3
  6
CONTINUOUS
 10
-0.474920
 20
3.094175
  0
VERTEX
  8
AB0CS2S
 62
     3
  6
CONTINUOUS
 10
-0.477417
 20
3.067945
  0
VERTEX
  8
AB0CS2S
 62
     3
  6
CONTINUOUS
 10
-0.474925
 20
3.041715
  0
VERTEX
  8
AB0CS2S
 62
     3
  6
CONTINUOUS
 10
-0.467834
 20
3.018982
  0
VERTEX
  8
AB0CS2S
 62
     3
  6
CONTINUOUS
 10
-0.456802
 20
2.999745
  0
VERTEX
  8
AB0CS2S
 62
     3
  6
CONTINUOUS
 10
-0.442486
 20
2.984006
  0
VERTEX
  8
AB0CS2S
 62
     3
  6
CONTINUOUS
 10
-0.425543
 20
2.971763
  0
VERTEX
  8
AB0CS2S
 62
     3
  6
CONTINUOUS
 10
-0.406629
 20
2.963017
  0
VERTEX
  8
AB0CS2S
 62
     3
  6
CONTINUOUS
 10
-0.386400
 20
2.957769
  0
VERTEX
  8
AB0CS2S
 62
     3
  6
CONTINUOUS
 10
-0.365515
 20
2.956017
  0
VERTEX
  8
AB0CS2S
 62
     3
  6
CONTINUOUS
 10
-0.344629
 20
2.957763
  0
VERTEX
  8
AB0CS2S
 62
     3
  6
CONTINUOUS
 10
-0.324399
 20
2.963006
  0
VERTEX
  8
AB0CS2S
 62
     3
  6
CONTINUOUS
 10
-0.305483
 20
2.971747
  0
VERTEX
  8
AB0CS2S
 62
     3
  6
CONTINUOUS
 10
-0.288536
 20
2.983986
  0
VERTEX
  8
AB0CS2S
 62
     3
  6
CONTINUOUS
 10
-0.274216
 20
2.999722
  0
VERTEX
  8
AB0CS2S
 62
     3
  6
CONTINUOUS
 10
-0.263179
 20
3.018956
  0
VERTEX
  8
AB0CS2S
 62
     3
  6
CONTINUOUS
 10
-0.256082
 20
3.041688
  0
VERTEX
  8
AB0CS2S
 62
     3
  6
CONTINUOUS
 10
-0.253583
 20
3.067917
  0
VERTEX
  8
AB0CS2S
 62
     3
  6
CONTINUOUS
 10
-0.253582
 20
3.067922
  0
VERTEX
  8
AB0CS2S
 62
     3
  6
CONTINUOUS
 10
-0.253580
 20
3.067932
  0
SEQEND
  8
0
  0
POLYLINE
  8
AB0CS2S
 62
     3
  6
CONTINUOUS
 66
     1
 40
0.003000
 41
0.003000
 70
     1
  0
VERTEX
  8
AB0CS2S
 62
     3
  6
CONTINUOUS
 10
-0.253579
 20
3.426098
  0
VERTEX
  8
AB0CS2S
 62
     3
  6
CONTINUOUS
 10
-0.256074
 20
3.452329
  0
VERTEX
  8
AB0CS2S
 62
     3
  6
CONTINUOUS
 10
-0.263167
 20
3.475062
  0
VERTEX
  8
AB0CS2S
 62
     3
  6
CONTINUOUS
 10
-0.274201
 20
3.494298
  0
VERTEX
  8
AB0CS2S
 62
     3
  6
CONTINUOUS
 10
-0.288519
 20
3.510036
  0
VERTEX
  8
AB0CS2S
 62
     3
  6
CONTINUOUS
 10
-0.305464
 20
3.522278
  0
VERTEX
  8
AB0CS2S
 62
     3
  6
CONTINUOUS
 10
-0.324379
 20
3.531022
  0
VERTEX
  8
AB0CS2S
 62
     3
  6
CONTINUOUS
 10
-0.344608
 20
3.536268
  0
VERTEX
  8
AB0CS2S
 62
     3
  6
CONTINUOUS
 10
-0.365494
 20
3.538018
  0
VERTEX
  8
AB0CS2S
 62
     3
  6
CONTINUOUS
 10
-0.386380
 20
3.536270
  0
VERTEX
  8
AB0CS2S
 62
     3
  6
CONTINUOUS
 10
-0.406609
 20
3.531024
  0
VERTEX
  8
AB0CS2S
 62
     3
  6
CONTINUOUS
 10
-0.425525
 20
3.522282
  0
VERTEX
  8
AB0CS2S
 62
     3
  6
CONTINUOUS
 10
-0.442471
 20
3.510042
  0
VERTEX
  8
AB0CS2S
 62
     3
  6
CONTINUOUS
 10
-0.456790
 20
3.494304
  0
VERTEX
  8
AB0CS2S
 62
     3
  6
CONTINUOUS
 10
-0.467825
 20
3.475069
  0
VERTEX
  8
AB0CS2S
 62
     3
  6
CONTINUOUS
 10
-0.474920
 20
3.452336
  0
VERTEX
  8
AB0CS2S
 62
     3
  6
CONTINUOUS
 10
-0.477417
 20
3.426106
  0
VERTEX
  8
AB0CS2S
 62
     3
  6
CONTINUOUS
 10
-0.474925
 20
3.399876
  0
VERTEX
  8
AB0CS2S
 62
     3
  6
CONTINUOUS
 10
-0.467834
 20
3.377143
  0
VERTEX
  8
AB0CS2S
 62
     3
  6
CONTINUOUS
 10
-0.456802
 20
3.357907
  0
VERTEX
  8
AB0CS2S
 62
     3
  6
CONTINUOUS
 10
-0.442486
 20
3.342167
  0
VERTEX
  8
AB0CS2S
 62
     3
  6
CONTINUOUS
 10
-0.425543
 20
3.329924
  0
VERTEX
  8
AB0CS2S
 62
     3
  6
CONTINUOUS
 10
-0.406629
 20
3.321179
  0
VERTEX
  8
AB0CS2S
 62
     3
  6
CONTINUOUS
 10
-0.386400
 20
3.315930
  0
VERTEX
  8
AB0CS2S
 62
     3
  6
CONTINUOUS
 10
-0.365515
 20
3.314179
  0
VERTEX
  8
AB0CS2S
 62
     3
  6
CONTINUOUS
 10
-0.344629
 20
3.315925
  0
VERTEX
  8
AB0CS2S
 62
     3
  6
CONTINUOUS
 10
-0.324399
 20
3.321168
  0
VERTEX
  8
AB0CS2S
 62
     3
  6
CONTINUOUS
 10
-0.305483
 20
3.329909
  0
VERTEX
  8
AB0CS2S
 62
     3
  6
CONTINUOUS
 10
-0.288536
 20
3.342147
  0
VERTEX
  8
AB0CS2S
 62
     3
  6
CONTINUOUS
 10
-0.274216
 20
3.357883
  0
VERTEX
  8
AB0CS2S
 62
     3
  6
CONTINUOUS
 10
-0.263179
 20
3.377117
  0
VERTEX
  8
AB0CS2S
 62
     3
  6
CONTINUOUS
 10
-0.256082
 20
3.399849
  0
VERTEX
  8
AB0CS2S
 62
     3
  6
CONTINUOUS
 10
-0.253583
 20
3.426079
  0
VERTEX
  8
AB0CS2S
 62
     3
  6
CONTINUOUS
 10
-0.253582
 20
3.426084
  0
VERTEX
  8
AB0CS2S
 62
     3
  6
CONTINUOUS
 10
-0.253580
 20
3.426093
  0
SEQEND
  8
0
  0
POLYLINE
  8
AB0CS2S
 62
     3
  6
CONTINUOUS
 66
     1
 40
0.003000
 41
0.003000
 70
     1
  0
VERTEX
  8
AB0CS2S
 62
     3
  6
CONTINUOUS
 10
-0.253579
 20
3.784260
  0
VERTEX
  8
AB0CS2S
 62
     3
  6
CONTINUOUS
 10
-0.256074
 20
3.810490
  0
VERTEX
  8
AB0CS2S
 62
     3
  6
CONTINUOUS
 10
-0.263167
 20
3.833223
  0
VERTEX
  8
AB0CS2S
 62
     3
  6
CONTINUOUS
 10
-0.274201
 20
3.852459
  0
VERTEX
  8
AB0CS2S
 62
     3
  6
CONTINUOUS
 10
-0.288519
 20
3.868198
  0
VERTEX
  8
AB0CS2S
 62
     3
  6
CONTINUOUS
 10
-0.305464
 20
3.880439
  0
VERTEX
  8
AB0CS2S
 62
     3
  6
CONTINUOUS
 10
-0.324379
 20
3.889183
  0
VERTEX
  8
AB0CS2S
 62
     3
  6
CONTINUOUS
 10
-0.344608
 20
3.894430
  0
VERTEX
  8
AB0CS2S
 62
     3
  6
CONTINUOUS
 10
-0.365494
 20
3.896179
  0
VERTEX
  8
AB0CS2S
 62
     3
  6
CONTINUOUS
 10
-0.386380
 20
3.894431
  0
VERTEX
  8
AB0CS2S
 62
     3
  6
CONTINUOUS
 10
-0.406609
 20
3.889186
  0
VERTEX
  8
AB0CS2S
 62
     3
  6
CONTINUOUS
 10
-0.425525
 20
3.880443
  0
VERTEX
  8
AB0CS2S
 62
     3
  6
CONTINUOUS
 10
-0.442471
 20
3.868203
  0
VERTEX
  8
AB0CS2S
 62
     3
  6
CONTINUOUS
 10
-0.456790
 20
3.852465
  0
VERTEX
  8
AB0CS2S
 62
     3
  6
CONTINUOUS
 10
-0.467825
 20
3.833230
  0
VERTEX
  8
AB0CS2S
 62
     3
  6
CONTINUOUS
 10
-0.474920
 20
3.810498
  0
VERTEX
  8
AB0CS2S
 62
     3
  6
CONTINUOUS
 10
-0.477417
 20
3.784268
  0
VERTEX
  8
AB0CS2S
 62
     3
  6
CONTINUOUS
 10
-0.474925
 20
3.758038
  0
VERTEX
  8
AB0CS2S
 62
     3
  6
CONTINUOUS
 10
-0.467834
 20
3.735305
  0
VERTEX
  8
AB0CS2S
 62
     3
  6
CONTINUOUS
 10
-0.456802
 20
3.716068
  0
VERTEX
  8
AB0CS2S
 62
     3
  6
CONTINUOUS
 10
-0.442486
 20
3.700329
  0
VERTEX
  8
AB0CS2S
 62
     3
  6
CONTINUOUS
 10
-0.425543
 20
3.688086
  0
VERTEX
  8
AB0CS2S
 62
     3
  6
CONTINUOUS
 10
-0.406629
 20
3.679340
  0
VERTEX
  8
AB0CS2S
 62
     3
  6
CONTINUOUS
 10
-0.386400
 20
3.674091
  0
VERTEX
  8
AB0CS2S
 62
     3
  6
CONTINUOUS
 10
-0.365515
 20
3.672340
  0
VERTEX
  8
AB0CS2S
 62
     3
  6
CONTINUOUS
 10
-0.344629
 20
3.674086
  0
VERTEX
  8
AB0CS2S
 62
     3
  6
CONTINUOUS
 10
-0.324399
 20
3.679329
  0
VERTEX
  8
AB0CS2S
 62
     3
  6
CONTINUOUS
 10
-0.305483
 20
3.688070
  0
VERTEX
  8
AB0CS2S
 62
     3
  6
CONTINUOUS
 10
-0.288536
 20
3.700309
  0
VERTEX
  8
AB0CS2S
 62
     3
  6
CONTINUOUS
 10
-0.274216
 20
3.716045
  0
VERTEX
  8
AB0CS2S
 62
     3
  6
CONTINUOUS
 10
-0.263179
 20
3.735279
  0
VERTEX
  8
AB0CS2S
 62
     3
  6
CONTINUOUS
 10
-0.256082
 20
3.758010
  0
VERTEX
  8
AB0CS2S
 62
     3
  6
CONTINUOUS
 10
-0.253583
 20
3.784240
  0
VERTEX
  8
AB0CS2S
 62
     3
  6
CONTINUOUS
 10
-0.253582
 20
3.784245
  0
VERTEX
  8
AB0CS2S
 62
     3
  6
CONTINUOUS
 10
-0.253580
 20
3.784255
  0
SEQEND
  8
0
  0
POLYLINE
  8
AB0CS2S
 62
     3
  6
CONTINUOUS
 66
     1
 40
0.003000
 41
0.003000
 70
     1
  0
VERTEX
  8
AB0CS2S
 62
     3
  6
CONTINUOUS
 10
-0.253579
 20
4.142421
  0
VERTEX
  8
AB0CS2S
 62
     3
  6
CONTINUOUS
 10
-0.256074
 20
4.168652
  0
VERTEX
  8
AB0CS2S
 62
     3
  6
CONTINUOUS
 10
-0.263167
 20
4.191385
  0
VERTEX
  8
AB0CS2S
 62
     3
  6
CONTINUOUS
 10
-0.274201
 20
4.210620
  0
VERTEX
  8
AB0CS2S
 62
     3
  6
CONTINUOUS
 10
-0.288519
 20
4.226359
  0
VERTEX
  8
AB0CS2S
 62
     3
  6
CONTINUOUS
 10
-0.305464
 20
4.238600
  0
VERTEX
  8
AB0CS2S
 62
     3
  6
CONTINUOUS
 10
-0.324379
 20
4.247344
  0
VERTEX
  8
AB0CS2S
 62
     3
  6
CONTINUOUS
 10
-0.344608
 20
4.252591
  0
VERTEX
  8
AB0CS2S
 62
     3
  6
CONTINUOUS
 10
-0.365494
 20
4.254341
  0
VERTEX
  8
AB0CS2S
 62
     3
  6
CONTINUOUS
 10
-0.386380
 20
4.252593
  0
VERTEX
  8
AB0CS2S
 62
     3
  6
CONTINUOUS
 10
-0.406609
 20
4.247347
  0
VERTEX
  8
AB0CS2S
 62
     3
  6
CONTINUOUS
 10
-0.425525
 20
4.238605
  0
VERTEX
  8
AB0CS2S
 62
     3
  6
CONTINUOUS
 10
-0.442471
 20
4.226364
  0
VERTEX
  8
AB0CS2S
 62
     3
  6
CONTINUOUS
 10
-0.456790
 20
4.210627
  0
VERTEX
  8
AB0CS2S
 62
     3
  6
CONTINUOUS
 10
-0.467825
 20
4.191392
  0
VERTEX
  8
AB0CS2S
 62
     3
  6
CONTINUOUS
 10
-0.474920
 20
4.168659
  0
VERTEX
  8
AB0CS2S
 62
     3
  6
CONTINUOUS
 10
-0.477417
 20
4.142429
  0
VERTEX
  8
AB0CS2S
 62
     3
  6
CONTINUOUS
 10
-0.474925
 20
4.116199
  0
VERTEX
  8
AB0CS2S
 62
     3
  6
CONTINUOUS
 10
-0.467834
 20
4.093466
  0
VERTEX
  8
AB0CS2S
 62
     3
  6
CONTINUOUS
 10
-0.456802
 20
4.074230
  0
VERTEX
  8
AB0CS2S
 62
     3
  6
CONTINUOUS
 10
-0.442486
 20
4.058490
  0
VERTEX
  8
AB0CS2S
 62
     3
  6
CONTINUOUS
 10
-0.425543
 20
4.046247
  0
VERTEX
  8
AB0CS2S
 62
     3
  6
CONTINUOUS
 10
-0.406629
 20
4.037501
  0
VERTEX
  8
AB0CS2S
 62
     3
  6
CONTINUOUS
 10
-0.386400
 20
4.032253
  0
VERTEX
  8
AB0CS2S
 62
     3
  6
CONTINUOUS
 10
-0.365515
 20
4.030501
  0
VERTEX
  8
AB0CS2S
 62
     3
  6
CONTINUOUS
 10
-0.344629
 20
4.032247
  0
VERTEX
  8
AB0CS2S
 62
     3
  6
CONTINUOUS
 10
-0.324399
 20
4.037491
  0
VERTEX
  8
AB0CS2S
 62
     3
  6
CONTINUOUS
 10
-0.305483
 20
4.046232
  0
VERTEX
  8
AB0CS2S
 62
     3
  6
CONTINUOUS
 10
-0.288536
 20
4.058470
  0
VERTEX
  8
AB0CS2S
 62
     3
  6
CONTINUOUS
 10
-0.274216
 20
4.074206
  0
VERTEX
  8
AB0CS2S
 62
     3
  6
CONTINUOUS
 10
-0.263179
 20
4.093440
  0
VERTEX
  8
AB0CS2S
 62
     3
  6
CONTINUOUS
 10
-0.256082
 20
4.116172
  0
VERTEX
  8
AB0CS2S
 62
     3
  6
CONTINUOUS
 10
-0.253583
 20
4.142402
  0
VERTEX
  8
AB0CS2S
 62
     3
  6
CONTINUOUS
 10
-0.253582
 20
4.142407
  0
VERTEX
  8
AB0CS2S
 62
     3
  6
CONTINUOUS
 10
-0.253580
 20
4.142416
  0
SEQEND
  8
0
  0
POLYLINE
  8
AB0CS2S
 62
     3
  6
CONTINUOUS
 66
     1
 40
0.003000
 41
0.003000
 70
     1
  0
VERTEX
  8
AB0CS2S
 62
     3
  6
CONTINUOUS
 10
-0.253579
 20
4.500583
  0
VERTEX
  8
AB0CS2S
 62
     3
  6
CONTINUOUS
 10
-0.256074
 20
4.526813
  0
VERTEX
  8
AB0CS2S
 62
     3
  6
CONTINUOUS
 10
-0.263167
 20
4.549546
  0
VERTEX
  8
AB0CS2S
 62
     3
  6
CONTINUOUS
 10
-0.274201
 20
4.568782
  0
VERTEX
  8
AB0CS2S
 62
     3
  6
CONTINUOUS
 10
-0.288519
 20
4.584520
  0
VERTEX
  8
AB0CS2S
 62
     3
  6
CONTINUOUS
 10
-0.305464
 20
4.596762
  0
VERTEX
  8
AB0CS2S
 62
     3
  6
CONTINUOUS
 10
-0.324379
 20
4.605506
  0
VERTEX
  8
AB0CS2S
 62
     3
  6
CONTINUOUS
 10
-0.344608
 20
4.610753
  0
VERTEX
  8
AB0CS2S
 62
     3
  6
CONTINUOUS
 10
-0.365494
 20
4.612502
  0
VERTEX
  8
AB0CS2S
 62
     3
  6
CONTINUOUS
 10
-0.386380
 20
4.610754
  0
VERTEX
  8
AB0CS2S
 62
     3
  6
CONTINUOUS
 10
-0.406609
 20
4.605509
  0
VERTEX
  8
AB0CS2S
 62
     3
  6
CONTINUOUS
 10
-0.425525
 20
4.596766
  0
VERTEX
  8
AB0CS2S
 62
     3
  6
CONTINUOUS
 10
-0.442471
 20
4.584526
  0
VERTEX
  8
AB0CS2S
 62
     3
  6
CONTINUOUS
 10
-0.456790
 20
4.568788
  0
VERTEX
  8
AB0CS2S
 62
     3
  6
CONTINUOUS
 10
-0.467825
 20
4.549553
  0
VERTEX
  8
AB0CS2S
 62
     3
  6
CONTINUOUS
 10
-0.474920
 20
4.526821
  0
VERTEX
  8
AB0CS2S
 62
     3
  6
CONTINUOUS
 10
-0.477417
 20
4.500591
  0
VERTEX
  8
AB0CS2S
 62
     3
  6
CONTINUOUS
 10
-0.474925
 20
4.474361
  0
VERTEX
  8
AB0CS2S
 62
     3
  6
CONTINUOUS
 10
-0.467834
 20
4.451628
  0
VERTEX
  8
AB0CS2S
 62
     3
  6
CONTINUOUS
 10
-0.456802
 20
4.432391
  0
VERTEX
  8
AB0CS2S
 62
     3
  6
CONTINUOUS
 10
-0.442486
 20
4.416651
  0
VERTEX
  8
AB0CS2S
 62
     3
  6
CONTINUOUS
 10
-0.425543
 20
4.404409
  0
VERTEX
  8
AB0CS2S
 62
     3
  6
CONTINUOUS
 10
-0.406629
 20
4.395663
  0
VERTEX
  8
AB0CS2S
 62
     3
  6
CONTINUOUS
 10
-0.386400
 20
4.390414
  0
VERTEX
  8
AB0CS2S
 62
     3
  6
CONTINUOUS
 10
-0.365515
 20
4.388663
  0
VERTEX
  8
AB0CS2S
 62
     3
  6
CONTINUOUS
 10
-0.344629
 20
4.390409
  0
VERTEX
  8
AB0CS2S
 62
     3
  6
CONTINUOUS
 10
-0.324399
 20
4.395652
  0
VERTEX
  8
AB0CS2S
 62
     3
  6
CONTINUOUS
 10
-0.305483
 20
4.404393
  0
VERTEX
  8
AB0CS2S
 62
     3
  6
CONTINUOUS
 10
-0.288536
 20
4.416631
  0
VERTEX
  8
AB0CS2S
 62
     3
  6
CONTINUOUS
 10
-0.274216
 20
4.432367
  0
VERTEX
  8
AB0CS2S
 62
     3
  6
CONTINUOUS
 10
-0.263179
 20
4.451601
  0
VERTEX
  8
AB0CS2S
 62
     3
  6
CONTINUOUS
 10
-0.256082
 20
4.474333
  0
VERTEX
  8
AB0CS2S
 62
     3
  6
CONTINUOUS
 10
-0.253583
 20
4.500563
  0
VERTEX
  8
AB0CS2S
 62
     3
  6
CONTINUOUS
 10
-0.253582
 20
4.500568
  0
VERTEX
  8
AB0CS2S
 62
     3
  6
CONTINUOUS
 10
-0.253580
 20
4.500578
  0
SEQEND
  8
0
  0
POLYLINE
  8
AB0CS2S
 62
     3
  6
CONTINUOUS
 66
     1
 40
0.003000
 41
0.003000
 70
     1
  0
VERTEX
  8
AB0CS2S
 62
     3
  6
CONTINUOUS
 10
-1.551906
 20
4.500583
  0
VERTEX
  8
AB0CS2S
 62
     3
  6
CONTINUOUS
 10
-1.554401
 20
4.526814
  0
VERTEX
  8
AB0CS2S
 62
     3
  6
CONTINUOUS
 10
-1.561494
 20
4.549547
  0
VERTEX
  8
AB0CS2S
 62
     3
  6
CONTINUOUS
 10
-1.572528
 20
4.568784
  0
VERTEX
  8
AB0CS2S
 62
     3
  6
CONTINUOUS
 10
-1.586847
 20
4.584523
  0
VERTEX
  8
AB0CS2S
 62
     3
  6
CONTINUOUS
 10
-1.603792
 20
4.596765
  0
VERTEX
  8
AB0CS2S
 62
     3
  6
CONTINUOUS
 10
-1.622708
 20
4.605510
  0
VERTEX
  8
AB0CS2S
 62
     3
  6
CONTINUOUS
 10
-1.642938
 20
4.610757
  0
VERTEX
  8
AB0CS2S
 62
     3
  6
CONTINUOUS
 10
-1.663824
 20
4.612506
  0
VERTEX
  8
AB0CS2S
 62
     3
  6
CONTINUOUS
 10
-1.684711
 20
4.610759
  0
VERTEX
  8
AB0CS2S
 62
     3
  6
CONTINUOUS
 10
-1.704941
 20
4.605513
  0
VERTEX
  8
AB0CS2S
 62
     3
  6
CONTINUOUS
 10
-1.723858
 20
4.596770
  0
VERTEX
  8
AB0CS2S
 62
     3
  6
CONTINUOUS
 10
-1.740804
 20
4.584530
  0
VERTEX
  8
AB0CS2S
 62
     3
  6
CONTINUOUS
 10
-1.755124
 20
4.568792
  0
VERTEX
  8
AB0CS2S
 62
     3
  6
CONTINUOUS
 10
-1.766159
 20
4.549556
  0
VERTEX
  8
AB0CS2S
 62
     3
  6
CONTINUOUS
 10
-1.773254
 20
4.526822
  0
VERTEX
  8
AB0CS2S
 62
     3
  6
CONTINUOUS
 10
-1.775752
 20
4.500591
  0
VERTEX
  8
AB0CS2S
 62
     3
  6
CONTINUOUS
 10
-1.773259
 20
4.474360
  0
VERTEX
  8
AB0CS2S
 62
     3
  6
CONTINUOUS
 10
-1.766168
 20
4.451626
  0
VERTEX
  8
AB0CS2S
 62
     3
  6
CONTINUOUS
 10
-1.755136
 20
4.432389
  0
VERTEX
  8
AB0CS2S
 62
     3
  6
CONTINUOUS
 10
-1.740820
 20
4.416649
  0
VERTEX
  8
AB0CS2S
 62
     3
  6
CONTINUOUS
 10
-1.723876
 20
4.404406
  0
VERTEX
  8
AB0CS2S
 62
     3
  6
CONTINUOUS
 10
-1.704961
 20
4.395660
  0
VERTEX
  8
AB0CS2S
 62
     3
  6
CONTINUOUS
 10
-1.684732
 20
4.390411
  0
VERTEX
  8
AB0CS2S
 62
     3
  6
CONTINUOUS
 10
-1.663845
 20
4.388660
  0
VERTEX
  8
AB0CS2S
 62
     3
  6
CONTINUOUS
 10
-1.642959
 20
4.390406
  0
VERTEX
  8
AB0CS2S
 62
     3
  6
CONTINUOUS
 10
-1.622728
 20
4.395649
  0
VERTEX
  8
AB0CS2S
 62
     3
  6
CONTINUOUS
 10
-1.603811
 20
4.404390
  0
VERTEX
  8
AB0CS2S
 62
     3
  6
CONTINUOUS
 10
-1.586864
 20
4.416629
  0
VERTEX
  8
AB0CS2S
 62
     3
  6
CONTINUOUS
 10
-1.572543
 20
4.432366
  0
VERTEX
  8
AB0CS2S
 62
     3
  6
CONTINUOUS
 10
-1.561506
 20
4.451600
  0
VERTEX
  8
AB0CS2S
 62
     3
  6
CONTINUOUS
 10
-1.554409
 20
4.474332
  0
VERTEX
  8
AB0CS2S
 62
     3
  6
CONTINUOUS
 10
-1.551909
 20
4.500563
  0
VERTEX
  8
AB0CS2S
 62
     3
  6
CONTINUOUS
 10
-1.551908
 20
4.500568
  0
VERTEX
  8
AB0CS2S
 62
     3
  6
CONTINUOUS
 10
-1.551907
 20
4.500578
  0
SEQEND
  8
0
  0
POLYLINE
  8
AB0CS2S
 62
     3
  6
CONTINUOUS
 66
     1
 40
0.003000
 41
0.003000
  0
VERTEX
  8
AB0CS2S
 62
     3
  6
CONTINUOUS
 10
-1.557669
 20
3.032488
  0
VERTEX
  8
AB0CS2S
 62
     3
  6
CONTINUOUS
 10
-1.633256
 20
3.076130
  0
SEQEND
  8
0
  0
POLYLINE
  8
AB0CS2S
 62
     3
  6
CONTINUOUS
 66
     1
 40
0.003000
 41
0.003000
  0
VERTEX
  8
AB0CS2S
 62
     3
  6
CONTINUOUS
 10
-1.557669
 20
3.390650
  0
VERTEX
  8
AB0CS2S
 62
     3
  6
CONTINUOUS
 10
-1.633256
 20
3.434291
  0
SEQEND
  8
0
  0
POLYLINE
  8
AB0CS2S
 62
     3
  6
CONTINUOUS
 66
     1
 40
0.003000
 41
0.003000
  0
VERTEX
  8
AB0CS2S
 62
     3
  6
CONTINUOUS
 10
-1.557669
 20
3.748811
  0
VERTEX
  8
AB0CS2S
 62
     3
  6
CONTINUOUS
 10
-1.633256
 20
3.792453
  0
SEQEND
  8
0
  0
POLYLINE
  8
AB0CS2S
 62
     3
  6
CONTINUOUS
 66
     1
 40
0.003000
 41
0.003000
  0
VERTEX
  8
AB0CS2S
 62
     3
  6
CONTINUOUS
 10
-1.557669
 20
4.106972
  0
VERTEX
  8
AB0CS2S
 62
     3
  6
CONTINUOUS
 10
-1.633256
 20
4.150614
  0
SEQEND
  8
0
  0
POLYLINE
  8
AB0CS2S
 62
     3
  6
CONTINUOUS
 66
     1
 40
0.003000
 41
0.003000
  0
VERTEX
  8
AB0CS2S
 62
     3
  6
CONTINUOUS
 10
-1.580055
 20
2.993720
  0
VERTEX
  8
AB0CS2S
 62
     3
  6
CONTINUOUS
 10
-1.655642
 20
3.037358
  0
SEQEND
  8
0
  0
POLYLINE
  8
AB0CS2S
 62
     3
  6
CONTINUOUS
 66
     1
 40
0.003000
 41
0.003000
  0
VERTEX
  8
AB0CS2S
 62
     3
  6
CONTINUOUS
 10
-1.580055
 20
3.351882
  0
VERTEX
  8
AB0CS2S
 62
     3
  6
CONTINUOUS
 10
-1.655642
 20
3.395520
  0
SEQEND
  8
0
  0
POLYLINE
  8
AB0CS2S
 62
     3
  6
CONTINUOUS
 66
     1
 40
0.003000
 41
0.003000
  0
VERTEX
  8
AB0CS2S
 62
     3
  6
CONTINUOUS
 10
-1.580055
 20
3.710043
  0
VERTEX
  8
AB0CS2S
 62
     3
  6
CONTINUOUS
 10
-1.655642
 20
3.753681
  0
SEQEND
  8
0
  0
POLYLINE
  8
AB0CS2S
 62
     3
  6
CONTINUOUS
 66
     1
 40
0.003000
 41
0.003000
  0
VERTEX
  8
AB0CS2S
 62
     3
  6
CONTINUOUS
 10
-1.580055
 20
4.068205
  0
VERTEX
  8
AB0CS2S
 62
     3
  6
CONTINUOUS
 10
-1.655642
 20
4.111843
  0
SEQEND
  8
0
  0
POLYLINE
  8
AB0CS2S
 62
     3
  6
CONTINUOUS
 66
     1
 40
0.003000
 41
0.003000
  0
VERTEX
  8
AB0CS2S
 62
     3
  6
CONTINUOUS
 10
-1.694413
 20
3.059744
  0
VERTEX
  8
AB0CS2S
 62
     3
  6
CONTINUOUS
 10
-1.738051
 20
2.984157
  0
SEQEND
  8
0
  0
POLYLINE
  8
AB0CS2S
 62
     3
  6
CONTINUOUS
 66
     1
 40
0.003000
 41
0.003000
  0
VERTEX
  8
AB0CS2S
 62
     3
  6
CONTINUOUS
 10
-1.694413
 20
3.417906
  0
VERTEX
  8
AB0CS2S
 62
     3
  6
CONTINUOUS
 10
-1.738051
 20
3.342319
  0
SEQEND
  8
0
  0
POLYLINE
  8
AB0CS2S
 62
     3
  6
CONTINUOUS
 66
     1
 40
0.003000
 41
0.003000
  0
VERTEX
  8
AB0CS2S
 62
     3
  6
CONTINUOUS
 10
-1.694413
 20
3.776067
  0
VERTEX
  8
AB0CS2S
 62
     3
  6
CONTINUOUS
 10
-1.738051
 20
3.700480
  0
SEQEND
  8
0
  0
POLYLINE
  8
AB0CS2S
 62
     3
  6
CONTINUOUS
 66
     1
 40
0.003000
 41
0.003000
  0
VERTEX
  8
AB0CS2S
 62
     3
  6
CONTINUOUS
 10
-1.694413
 20
4.134228
  0
VERTEX
  8
AB0CS2S
 62
     3
  6
CONTINUOUS
 10
-1.738051
 20
4.058642
  0
SEQEND
  8
0
  0
POLYLINE
  8
AB0CS2S
 62
     3
  6
CONTINUOUS
 66
     1
 40
0.003000
 41
0.003000
  0
VERTEX
  8
AB0CS2S
 62
     3
  6
CONTINUOUS
 10
-1.655642
 20
3.037358
  0
VERTEX
  8
AB0CS2S
 62
     3
  6
CONTINUOUS
 10
-1.699280
 20
2.961772
  0
SEQEND
  8
0
  0
POLYLINE
  8
AB0CS2S
 62
     3
  6
CONTINUOUS
 66
     1
 40
0.003000
 41
0.003000
  0
VERTEX
  8
AB0CS2S
 62
     3
  6
CONTINUOUS
 10
-1.655642
 20
3.395520
  0
VERTEX
  8
AB0CS2S
 62
     3
  6
CONTINUOUS
 10
-1.699280
 20
3.319933
  0
SEQEND
  8
0
  0
POLYLINE
  8
AB0CS2S
 62
     3
  6
CONTINUOUS
 66
     1
 40
0.003000
 41
0.003000
  0
VERTEX
  8
AB0CS2S
 62
     3
  6
CONTINUOUS
 10
-1.655642
 20
3.753681
  0
VERTEX
  8
AB0CS2S
 62
     3
  6
CONTINUOUS
 10
-1.699280
 20
3.678094
  0
SEQEND
  8
0
  0
POLYLINE
  8
AB0CS2S
 62
     3
  6
CONTINUOUS
 66
     1
 40
0.003000
 41
0.003000
  0
VERTEX
  8
AB0CS2S
 62
     3
  6
CONTINUOUS
 10
-1.655642
 20
4.111843
  0
VERTEX
  8
AB0CS2S
 62
     3
  6
CONTINUOUS
 10
-1.699280
 20
4.036256
  0
SEQEND
  8
0
  0
POLYLINE
  8
AB0CS2S
 62
     3
  6
CONTINUOUS
 66
     1
 40
0.003000
 41
0.003000
  0
VERTEX
  8
AB0CS2S
 62
     3
  6
CONTINUOUS
 10
-1.672028
 20
3.098516
  0
VERTEX
  8
AB0CS2S
 62
     3
  6
CONTINUOUS
 10
-1.747614
 20
3.142157
  0
SEQEND
  8
0
  0
POLYLINE
  8
AB0CS2S
 62
     3
  6
CONTINUOUS
 66
     1
 40
0.003000
 41
0.003000
  0
VERTEX
  8
AB0CS2S
 62
     3
  6
CONTINUOUS
 10
-1.672028
 20
3.456677
  0
VERTEX
  8
AB0CS2S
 62
     3
  6
CONTINUOUS
 10
-1.747614
 20
3.500319
  0
SEQEND
  8
0
  0
POLYLINE
  8
AB0CS2S
 62
     3
  6
CONTINUOUS
 66
     1
 40
0.003000
 41
0.003000
  0
VERTEX
  8
AB0CS2S
 62
     3
  6
CONTINUOUS
 10
-1.672028
 20
3.814839
  0
VERTEX
  8
AB0CS2S
 62
     3
  6
CONTINUOUS
 10
-1.747614
 20
3.858480
  0
SEQEND
  8
0
  0
POLYLINE
  8
AB0CS2S
 62
     3
  6
CONTINUOUS
 66
     1
 40
0.003000
 41
0.003000
  0
VERTEX
  8
AB0CS2S
 62
     3
  6
CONTINUOUS
 10
-1.672028
 20
4.173000
  0
VERTEX
  8
AB0CS2S
 62
     3
  6
CONTINUOUS
 10
-1.747614
 20
4.216642
  0
SEQEND
  8
0
  0
POLYLINE
  8
AB0CS2S
 62
     3
  6
CONTINUOUS
 66
     1
 40
0.003000
 41
0.003000
  0
VERTEX
  8
AB0CS2S
 62
     3
  6
CONTINUOUS
 10
-1.694413
 20
3.059744
  0
VERTEX
  8
AB0CS2S
 62
     3
  6
CONTINUOUS
 10
-1.769996
 20
3.103382
  0
SEQEND
  8
0
  0
POLYLINE
  8
AB0CS2S
 62
     3
  6
CONTINUOUS
 66
     1
 40
0.003000
 41
0.003000
  0
VERTEX
  8
AB0CS2S
 62
     3
  6
CONTINUOUS
 10
-1.694413
 20
3.417906
  0
VERTEX
  8
AB0CS2S
 62
     3
  6
CONTINUOUS
 10
-1.769996
 20
3.461543
  0
SEQEND
  8
0
  0
POLYLINE
  8
AB0CS2S
 62
     3
  6
CONTINUOUS
 66
     1
 40
0.003000
 41
0.003000
  0
VERTEX
  8
AB0CS2S
 62
     3
  6
CONTINUOUS
 10
-1.694413
 20
3.776067
  0
VERTEX
  8
AB0CS2S
 62
     3
  6
CONTINUOUS
 10
-1.769996
 20
3.819705
  0
SEQEND
  8
0
  0
POLYLINE
  8
AB0CS2S
 62
     3
  6
CONTINUOUS
 66
     1
 40
0.003000
 41
0.003000
  0
VERTEX
  8
AB0CS2S
 62
     3
  6
CONTINUOUS
 10
-1.694413
 20
4.134228
  0
VERTEX
  8
AB0CS2S
 62
     3
  6
CONTINUOUS
 10
-1.769996
 20
4.177866
  0
SEQEND
  8
0
  0
POLYLINE
  8
AB0CS2S
 62
     3
  6
CONTINUOUS
 66
     1
 40
0.003000
 41
0.003000
  0
VERTEX
  8
AB0CS2S
 62
     3
  6
CONTINUOUS
 10
-1.589614
 20
3.151717
  0
VERTEX
  8
AB0CS2S
 62
     3
  6
CONTINUOUS
 10
-1.633256
 20
3.076130
  0
SEQEND
  8
0
  0
POLYLINE
  8
AB0CS2S
 62
     3
  6
CONTINUOUS
 66
     1
 40
0.003000
 41
0.003000
  0
VERTEX
  8
AB0CS2S
 62
     3
  6
CONTINUOUS
 10
-1.589614
 20
3.509878
  0
VERTEX
  8
AB0CS2S
 62
     3
  6
CONTINUOUS
 10
-1.633256
 20
3.434291
  0
SEQEND
  8
0
  0
POLYLINE
  8
AB0CS2S
 62
     3
  6
CONTINUOUS
 66
     1
 40
0.003000
 41
0.003000
  0
VERTEX
  8
AB0CS2S
 62
     3
  6
CONTINUOUS
 10
-1.589614
 20
3.868039
  0
VERTEX
  8
AB0CS2S
 62
     3
  6
CONTINUOUS
 10
-1.633256
 20
3.792453
  0
SEQEND
  8
0
  0
POLYLINE
  8
AB0CS2S
 62
     3
  6
CONTINUOUS
 66
     1
 40
0.003000
 41
0.003000
  0
VERTEX
  8
AB0CS2S
 62
     3
  6
CONTINUOUS
 10
-1.589614
 20
4.226201
  0
VERTEX
  8
AB0CS2S
 62
     3
  6
CONTINUOUS
 10
-1.633256
 20
4.150614
  0
SEQEND
  8
0
  0
POLYLINE
  8
AB0CS2S
 62
     3
  6
CONTINUOUS
 66
     1
 40
0.003000
 41
0.003000
  0
VERTEX
  8
AB0CS2S
 62
     3
  6
CONTINUOUS
 10
-1.628390
 20
3.174102
  0
VERTEX
  8
AB0CS2S
 62
     3
  6
CONTINUOUS
 10
-1.672028
 20
3.098516
  0
SEQEND
  8
0
  0
POLYLINE
  8
AB0CS2S
 62
     3
  6
CONTINUOUS
 66
     1
 40
0.003000
 41
0.003000
  0
VERTEX
  8
AB0CS2S
 62
     3
  6
CONTINUOUS
 10
-1.628390
 20
3.532264
  0
VERTEX
  8
AB0CS2S
 62
     3
  6
CONTINUOUS
 10
-1.672028
 20
3.456677
  0
SEQEND
  8
0
  0
POLYLINE
  8
AB0CS2S
 62
     3
  6
CONTINUOUS
 66
     1
 40
0.003000
 41
0.003000
  0
VERTEX
  8
AB0CS2S
 62
     3
  6
CONTINUOUS
 10
-1.628390
 20
3.890425
  0
VERTEX
  8
AB0CS2S
 62
     3
  6
CONTINUOUS
 10
-1.672028
 20
3.814839
  0
SEQEND
  8
0
  0
POLYLINE
  8
AB0CS2S
 62
     3
  6
CONTINUOUS
 66
     1
 40
0.003000
 41
0.003000
  0
VERTEX
  8
AB0CS2S
 62
     3
  6
CONTINUOUS
 10
-1.628390
 20
4.248587
  0
VERTEX
  8
AB0CS2S
 62
     3
  6
CONTINUOUS
 10
-1.672028
 20
4.173000
  0
SEQEND
  8
0
  0
POLYLINE
  8
AB0CS2S
 62
     3
  6
CONTINUOUS
 66
     1
 40
0.003000
 41
0.003000
  0
VERTEX
  8
AB0CS2S
 62
     3
  6
CONTINUOUS
 10
-0.471665
 20
3.032488
  0
VERTEX
  8
AB0CS2S
 62
     3
  6
CONTINUOUS
 10
-0.396083
 20
3.076130
  0
SEQEND
  8
0
  0
POLYLINE
  8
AB0CS2S
 62
     3
  6
CONTINUOUS
 66
     1
 40
0.003000
 41
0.003000
  0
VERTEX
  8
AB0CS2S
 62
     3
  6
CONTINUOUS
 10
-0.471665
 20
3.390650
  0
VERTEX
  8
AB0CS2S
 62
     3
  6
CONTINUOUS
 10
-0.396083
 20
3.434291
  0
SEQEND
  8
0
  0
POLYLINE
  8
AB0CS2S
 62
     3
  6
CONTINUOUS
 66
     1
 40
0.003000
 41
0.003000
  0
VERTEX
  8
AB0CS2S
 62
     3
  6
CONTINUOUS
 10
-0.471665
 20
3.748811
  0
VERTEX
  8
AB0CS2S
 62
     3
  6
CONTINUOUS
 10
-0.396083
 20
3.792453
  0
SEQEND
  8
0
  0
POLYLINE
  8
AB0CS2S
 62
     3
  6
CONTINUOUS
 66
     1
 40
0.003000
 41
0.003000
  0
VERTEX
  8
AB0CS2S
 62
     3
  6
CONTINUOUS
 10
-0.471665
 20
4.106972
  0
VERTEX
  8
AB0CS2S
 62
     3
  6
CONTINUOUS
 10
-0.396083
 20
4.150614
  0
SEQEND
  8
0
  0
POLYLINE
  8
AB0CS2S
 62
     3
  6
CONTINUOUS
 66
     1
 40
0.003000
 41
0.003000
  0
VERTEX
  8
AB0CS2S
 62
     3
  6
CONTINUOUS
 10
-0.449280
 20
2.993720
  0
VERTEX
  8
AB0CS2S
 62
     3
  6
CONTINUOUS
 10
-0.373697
 20
3.037358
  0
SEQEND
  8
0
  0
POLYLINE
  8
AB0CS2S
 62
     3
  6
CONTINUOUS
 66
     1
 40
0.003000
 41
0.003000
  0
VERTEX
  8
AB0CS2S
 62
     3
  6
CONTINUOUS
 10
-0.449280
 20
3.351882
  0
VERTEX
  8
AB0CS2S
 62
     3
  6
CONTINUOUS
 10
-0.373697
 20
3.395520
  0
SEQEND
  8
0
  0
POLYLINE
  8
AB0CS2S
 62
     3
  6
CONTINUOUS
 66
     1
 40
0.003000
 41
0.003000
  0
VERTEX
  8
AB0CS2S
 62
     3
  6
CONTINUOUS
 10
-0.449280
 20
3.710043
  0
VERTEX
  8
AB0CS2S
 62
     3
  6
CONTINUOUS
 10
-0.373697
 20
3.753681
  0
SEQEND
  8
0
  0
POLYLINE
  8
AB0CS2S
 62
     3
  6
CONTINUOUS
 66
     1
 40
0.003000
 41
0.003000
  0
VERTEX
  8
AB0CS2S
 62
     3
  6
CONTINUOUS
 10
-0.449280
 20
4.068205
  0
VERTEX
  8
AB0CS2S
 62
     3
  6
CONTINUOUS
 10
-0.373697
 20
4.111843
  0
SEQEND
  8
0
  0
POLYLINE
  8
AB0CS2S
 62
     3
  6
CONTINUOUS
 66
     1
 40
0.003000
 41
0.003000
  0
VERTEX
  8
AB0CS2S
 62
     3
  6
CONTINUOUS
 10
-0.334921
 20
3.059744
  0
VERTEX
  8
AB0CS2S
 62
     3
  6
CONTINUOUS
 10
-0.291283
 20
2.984157
  0
SEQEND
  8
0
  0
POLYLINE
  8
AB0CS2S
 62
     3
  6
CONTINUOUS
 66
     1
 40
0.003000
 41
0.003000
  0
VERTEX
  8
AB0CS2S
 62
     3
  6
CONTINUOUS
 10
-0.334921
 20
3.417906
  0
VERTEX
  8
AB0CS2S
 62
     3
  6
CONTINUOUS
 10
-0.291283
 20
3.342319
  0
SEQEND
  8
0
  0
POLYLINE
  8
AB0CS2S
 62
     3
  6
CONTINUOUS
 66
     1
 40
0.003000
 41
0.003000
  0
VERTEX
  8
AB0CS2S
 62
     3
  6
CONTINUOUS
 10
-0.334921
 20
3.776067
  0
VERTEX
  8
AB0CS2S
 62
     3
  6
CONTINUOUS
 10
-0.291283
 20
3.700480
  0
SEQEND
  8
0
  0
POLYLINE
  8
AB0CS2S
 62
     3
  6
CONTINUOUS
 66
     1
 40
0.003000
 41
0.003000
  0
VERTEX
  8
AB0CS2S
 62
     3
  6
CONTINUOUS
 10
-0.334921
 20
4.134228
  0
VERTEX
  8
AB0CS2S
 62
     3
  6
CONTINUOUS
 10
-0.291283
 20
4.058642
  0
SEQEND
  8
0
  0
POLYLINE
  8
AB0CS2S
 62
     3
  6
CONTINUOUS
 66
     1
 40
0.003000
 41
0.003000
  0
VERTEX
  8
AB0CS2S
 62
     3
  6
CONTINUOUS
 10
-0.373697
 20
3.037358
  0
VERTEX
  8
AB0CS2S
 62
     3
  6
CONTINUOUS
 10
-0.330055
 20
2.961772
  0
SEQEND
  8
0
  0
POLYLINE
  8
AB0CS2S
 62
     3
  6
CONTINUOUS
 66
     1
 40
0.003000
 41
0.003000
  0
VERTEX
  8
AB0CS2S
 62
     3
  6
CONTINUOUS
 10
-0.373697
 20
3.395520
  0
VERTEX
  8
AB0CS2S
 62
     3
  6
CONTINUOUS
 10
-0.330055
 20
3.319933
  0
SEQEND
  8
0
  0
POLYLINE
  8
AB0CS2S
 62
     3
  6
CONTINUOUS
 66
     1
 40
0.003000
 41
0.003000
  0
VERTEX
  8
AB0CS2S
 62
     3
  6
CONTINUOUS
 10
-0.373697
 20
3.753681
  0
VERTEX
  8
AB0CS2S
 62
     3
  6
CONTINUOUS
 10
-0.330055
 20
3.678094
  0
SEQEND
  8
0
  0
POLYLINE
  8
AB0CS2S
 62
     3
  6
CONTINUOUS
 66
     1
 40
0.003000
 41
0.003000
  0
VERTEX
  8
AB0CS2S
 62
     3
  6
CONTINUOUS
 10
-0.373697
 20
4.111843
  0
VERTEX
  8
AB0CS2S
 62
     3
  6
CONTINUOUS
 10
-0.330055
 20
4.036256
  0
SEQEND
  8
0
  0
POLYLINE
  8
AB0CS2S
 62
     3
  6
CONTINUOUS
 66
     1
 40
0.003000
 41
0.003000
  0
VERTEX
  8
AB0CS2S
 62
     3
  6
CONTINUOUS
 10
-0.357307
 20
3.098516
  0
VERTEX
  8
AB0CS2S
 62
     3
  6
CONTINUOUS
 10
-0.281724
 20
3.142157
  0
SEQEND
  8
0
  0
POLYLINE
  8
AB0CS2S
 62
     3
  6
CONTINUOUS
 66
     1
 40
0.003000
 41
0.003000
  0
VERTEX
  8
AB0CS2S
 62
     3
  6
CONTINUOUS
 10
-0.357307
 20
3.456677
  0
VERTEX
  8
AB0CS2S
 62
     3
  6
CONTINUOUS
 10
-0.281724
 20
3.500319
  0
SEQEND
  8
0
  0
POLYLINE
  8
AB0CS2S
 62
     3
  6
CONTINUOUS
 66
     1
 40
0.003000
 41
0.003000
  0
VERTEX
  8
AB0CS2S
 62
     3
  6
CONTINUOUS
 10
-0.357307
 20
3.814839
  0
VERTEX
  8
AB0CS2S
 62
     3
  6
CONTINUOUS
 10
-0.281724
 20
3.858480
  0
SEQEND
  8
0
  0
POLYLINE
  8
AB0CS2S
 62
     3
  6
CONTINUOUS
 66
     1
 40
0.003000
 41
0.003000
  0
VERTEX
  8
AB0CS2S
 62
     3
  6
CONTINUOUS
 10
-0.357307
 20
4.173000
  0
VERTEX
  8
AB0CS2S
 62
     3
  6
CONTINUOUS
 10
-0.281724
 20
4.216642
  0
SEQEND
  8
0
  0
POLYLINE
  8
AB0CS2S
 62
     3
  6
CONTINUOUS
 66
     1
 40
0.003000
 41
0.003000
  0
VERTEX
  8
AB0CS2S
 62
     3
  6
CONTINUOUS
 10
-0.334921
 20
3.059744
  0
VERTEX
  8
AB0CS2S
 62
     3
  6
CONTINUOUS
 10
-0.259339
 20
3.103382
  0
SEQEND
  8
0
  0
POLYLINE
  8
AB0CS2S
 62
     3
  6
CONTINUOUS
 66
     1
 40
0.003000
 41
0.003000
  0
VERTEX
  8
AB0CS2S
 62
     3
  6
CONTINUOUS
 10
-0.334921
 20
3.417906
  0
VERTEX
  8
AB0CS2S
 62
     3
  6
CONTINUOUS
 10
-0.259339
 20
3.461543
  0
SEQEND
  8
0
  0
POLYLINE
  8
AB0CS2S
 62
     3
  6
CONTINUOUS
 66
     1
 40
0.003000
 41
0.003000
  0
VERTEX
  8
AB0CS2S
 62
     3
  6
CONTINUOUS
 10
-0.334921
 20
3.776067
  0
VERTEX
  8
AB0CS2S
 62
     3
  6
CONTINUOUS
 10
-0.259339
 20
3.819705
  0
SEQEND
  8
0
  0
POLYLINE
  8
AB0CS2S
 62
     3
  6
CONTINUOUS
 66
     1
 40
0.003000
 41
0.003000
  0
VERTEX
  8
AB0CS2S
 62
     3
  6
CONTINUOUS
 10
-0.334921
 20
4.134228
  0
VERTEX
  8
AB0CS2S
 62
     3
  6
CONTINUOUS
 10
-0.259339
 20
4.177866
  0
SEQEND
  8
0
  0
POLYLINE
  8
AB0CS2S
 62
     3
  6
CONTINUOUS
 66
     1
 40
0.003000
 41
0.003000
  0
VERTEX
  8
AB0CS2S
 62
     3
  6
CONTINUOUS
 10
-0.439720
 20
3.151717
  0
VERTEX
  8
AB0CS2S
 62
     3
  6
CONTINUOUS
 10
-0.396083
 20
3.076130
  0
SEQEND
  8
0
  0
POLYLINE
  8
AB0CS2S
 62
     3
  6
CONTINUOUS
 66
     1
 40
0.003000
 41
0.003000
  0
VERTEX
  8
AB0CS2S
 62
     3
  6
CONTINUOUS
 10
-0.439720
 20
3.509878
  0
VERTEX
  8
AB0CS2S
 62
     3
  6
CONTINUOUS
 10
-0.396083
 20
3.434291
  0
SEQEND
  8
0
  0
POLYLINE
  8
AB0CS2S
 62
     3
  6
CONTINUOUS
 66
     1
 40
0.003000
 41
0.003000
  0
VERTEX
  8
AB0CS2S
 62
     3
  6
CONTINUOUS
 10
-0.439720
 20
3.868039
  0
VERTEX
  8
AB0CS2S
 62
     3
  6
CONTINUOUS
 10
-0.396083
 20
3.792453
  0
SEQEND
  8
0
  0
POLYLINE
  8
AB0CS2S
 62
     3
  6
CONTINUOUS
 66
     1
 40
0.003000
 41
0.003000
  0
VERTEX
  8
AB0CS2S
 62
     3
  6
CONTINUOUS
 10
-0.439720
 20
4.226201
  0
VERTEX
  8
AB0CS2S
 62
     3
  6
CONTINUOUS
 10
-0.396083
 20
4.150614
  0
SEQEND
  8
0
  0
POLYLINE
  8
AB0CS2S
 62
     3
  6
CONTINUOUS
 66
     1
 40
0.003000
 41
0.003000
  0
VERTEX
  8
AB0CS2S
 62
     3
  6
CONTINUOUS
 10
-0.400949
 20
3.174102
  0
VERTEX
  8
AB0CS2S
 62
     3
  6
CONTINUOUS
 10
-0.357307
 20
3.098516
  0
SEQEND
  8
0
  0
POLYLINE
  8
AB0CS2S
 62
     3
  6
CONTINUOUS
 66
     1
 40
0.003000
 41
0.003000
  0
VERTEX
  8
AB0CS2S
 62
     3
  6
CONTINUOUS
 10
-0.400949
 20
3.532264
  0
VERTEX
  8
AB0CS2S
 62
     3
  6
CONTINUOUS
 10
-0.357307
 20
3.456677
  0
SEQEND
  8
0
  0
POLYLINE
  8
AB0CS2S
 62
     3
  6
CONTINUOUS
 66
     1
 40
0.003000
 41
0.003000
  0
VERTEX
  8
AB0CS2S
 62
     3
  6
CONTINUOUS
 10
-0.400949
 20
3.890425
  0
VERTEX
  8
AB0CS2S
 62
     3
  6
CONTINUOUS
 10
-0.357307
 20
3.814839
  0
SEQEND
  8
0
  0
POLYLINE
  8
AB0CS2S
 62
     3
  6
CONTINUOUS
 66
     1
 40
0.003000
 41
0.003000
  0
VERTEX
  8
AB0CS2S
 62
     3
  6
CONTINUOUS
 10
-0.400949
 20
4.248587
  0
VERTEX
  8
AB0CS2S
 62
     3
  6
CONTINUOUS
 10
-0.357307
 20
4.173000
  0
SEQEND
  8
0
  0
POLYLINE
  8
AB0CS2S
 62
     3
  6
CONTINUOUS
 66
     1
 40
0.003000
 41
0.003000
  0
VERTEX
  8
AB0CS2S
 62
     3
  6
CONTINUOUS
 10
-0.400949
 20
4.606748
  0
VERTEX
  8
AB0CS2S
 62
     3
  6
CONTINUOUS
 10
-0.357307
 20
4.531161
  0
SEQEND
  8
0
  0
POLYLINE
  8
AB0CS2S
 62
     3
  6
CONTINUOUS
 66
     1
 40
0.003000
 41
0.003000
  0
VERTEX
  8
AB0CS2S
 62
     3
  6
CONTINUOUS
 10
-0.439720
 20
4.584362
  0
VERTEX
  8
AB0CS2S
 62
     3
  6
CONTINUOUS
 10
-0.396083
 20
4.508776
  0
SEQEND
  8
0
  0
POLYLINE
  8
AB0CS2S
 62
     3
  6
CONTINUOUS
 66
     1
 40
0.003000
 41
0.003000
  0
VERTEX
  8
AB0CS2S
 62
     3
  6
CONTINUOUS
 10
-0.334921
 20
4.492390
  0
VERTEX
  8
AB0CS2S
 62
     3
  6
CONTINUOUS
 10
-0.259339
 20
4.536028
  0
SEQEND
  8
0
  0
POLYLINE
  8
AB0CS2S
 62
     3
  6
CONTINUOUS
 66
     1
 40
0.003000
 41
0.003000
  0
VERTEX
  8
AB0CS2S
 62
     3
  6
CONTINUOUS
 10
-0.357307
 20
4.531161
  0
VERTEX
  8
AB0CS2S
 62
     3
  6
CONTINUOUS
 10
-0.281724
 20
4.574803
  0
SEQEND
  8
0
  0
POLYLINE
  8
AB0CS2S
 62
     3
  6
CONTINUOUS
 66
     1
 40
0.003000
 41
0.003000
  0
VERTEX
  8
AB0CS2S
 62
     3
  6
CONTINUOUS
 10
-0.373697
 20
4.470004
  0
VERTEX
  8
AB0CS2S
 62
     3
  6
CONTINUOUS
 10
-0.330055
 20
4.394417
  0
SEQEND
  8
0
  0
POLYLINE
  8
AB0CS2S
 62
     3
  6
CONTINUOUS
 66
     1
 40
0.003000
 41
0.003000
  0
VERTEX
  8
AB0CS2S
 62
     3
  6
CONTINUOUS
 10
-0.334921
 20
4.492390
  0
VERTEX
  8
AB0CS2S
 62
     3
  6
CONTINUOUS
 10
-0.291283
 20
4.416803
  0
SEQEND
  8
0
  0
POLYLINE
  8
AB0CS2S
 62
     3
  6
CONTINUOUS
 66
     1
 40
0.003000
 41
0.003000
  0
VERTEX
  8
AB0CS2S
 62
     3
  6
CONTINUOUS
 10
-0.449280
 20
4.426366
  0
VERTEX
  8
AB0CS2S
 62
     3
  6
CONTINUOUS
 10
-0.373697
 20
4.470004
  0
SEQEND
  8
0
  0
POLYLINE
  8
AB0CS2S
 62
     3
  6
CONTINUOUS
 66
     1
 40
0.003000
 41
0.003000
  0
VERTEX
  8
AB0CS2S
 62
     3
  6
CONTINUOUS
 10
-0.471665
 20
4.465134
  0
VERTEX
  8
AB0CS2S
 62
     3
  6
CONTINUOUS
 10
-0.396083
 20
4.508776
  0
SEQEND
  8
0
  0
POLYLINE
  8
AB0CS2S
 62
     3
  6
CONTINUOUS
 66
     1
 40
0.003000
 41
0.003000
  0
VERTEX
  8
AB0CS2S
 62
     3
  6
CONTINUOUS
 10
-1.628390
 20
4.606748
  0
VERTEX
  8
AB0CS2S
 62
     3
  6
CONTINUOUS
 10
-1.672028
 20
4.531161
  0
SEQEND
  8
0
  0
POLYLINE
  8
AB0CS2S
 62
     3
  6
CONTINUOUS
 66
     1
 40
0.003000
 41
0.003000
  0
VERTEX
  8
AB0CS2S
 62
     3
  6
CONTINUOUS
 10
-1.589614
 20
4.584362
  0
VERTEX
  8
AB0CS2S
 62
     3
  6
CONTINUOUS
 10
-1.633256
 20
4.508776
  0
SEQEND
  8
0
  0
POLYLINE
  8
AB0CS2S
 62
     3
  6
CONTINUOUS
 66
     1
 40
0.003000
 41
0.003000
  0
VERTEX
  8
AB0CS2S
 62
     3
  6
CONTINUOUS
 10
-1.694413
 20
4.492390
  0
VERTEX
  8
AB0CS2S
 62
     3
  6
CONTINUOUS
 10
-1.769996
 20
4.536028
  0
SEQEND
  8
0
  0
POLYLINE
  8
AB0CS2S
 62
     3
  6
CONTINUOUS
 66
     1
 40
0.003000
 41
0.003000
  0
VERTEX
  8
AB0CS2S
 62
     3
  6
CONTINUOUS
 10
-1.672028
 20
4.531161
  0
VERTEX
  8
AB0CS2S
 62
     3
  6
CONTINUOUS
 10
-1.747614
 20
4.574803
  0
SEQEND
  8
0
  0
POLYLINE
  8
AB0CS2S
 62
     3
  6
CONTINUOUS
 66
     1
 40
0.003000
 41
0.003000
  0
VERTEX
  8
AB0CS2S
 62
     3
  6
CONTINUOUS
 10
-1.655642
 20
4.470004
  0
VERTEX
  8
AB0CS2S
 62
     3
  6
CONTINUOUS
 10
-1.699280
 20
4.394417
  0
SEQEND
  8
0
  0
POLYLINE
  8
AB0CS2S
 62
     3
  6
CONTINUOUS
 66
     1
 40
0.003000
 41
0.003000
  0
VERTEX
  8
AB0CS2S
 62
     3
  6
CONTINUOUS
 10
-1.694413
 20
4.492390
  0
VERTEX
  8
AB0CS2S
 62
     3
  6
CONTINUOUS
 10
-1.738051
 20
4.416803
  0
SEQEND
  8
0
  0
POLYLINE
  8
AB0CS2S
 62
     3
  6
CONTINUOUS
 66
     1
 40
0.003000
 41
0.003000
  0
VERTEX
  8
AB0CS2S
 62
     3
  6
CONTINUOUS
 10
-1.580055
 20
4.426366
  0
VERTEX
  8
AB0CS2S
 62
     3
  6
CONTINUOUS
 10
-1.655642
 20
4.470004
  0
SEQEND
  8
0
  0
POLYLINE
  8
AB0CS2S
 62
     3
  6
CONTINUOUS
 66
     1
 40
0.003000
 41
0.003000
  0
VERTEX
  8
AB0CS2S
 62
     3
  6
CONTINUOUS
 10
-1.557669
 20
4.465134
  0
VERTEX
  8
AB0CS2S
 62
     3
  6
CONTINUOUS
 10
-1.633256
 20
4.508776
  0
SEQEND
  8
0
  0
TEXT
  8
AB0CS2S
 10
0.041240
 20
3.992441
 40
0.144286
  1
-
 41
1.000000
  7
SN0
 71
     0
 72
     5
 11
0.100264
 21
3.992441
  0
TEXT
  8
AB0CS2S
 10
0.043028
 20
4.529681
 40
0.144286
  1
+
 41
1.000000
  7
SN0
 71
     0
 72
     5
 11
0.135614
 21
4.529681
  0
POLYLINE
  8
AB0CS2S
 62
     3
  6
CONTINUOUS
 66
     1
 40
0.003000
 41
0.003000
 70
     1
  0
VERTEX
  8
AB0CS2S
 62
     3
  6
CONTINUOUS
 10
0.641827
 20
3.450720
  0
VERTEX
  8
AB0CS2S
 62
     3
  6
CONTINUOUS
 10
0.614968
 20
3.439539
  0
VERTEX
  8
AB0CS2S
 62
     3
  6
CONTINUOUS
 10
0.606014
 20
3.414907
  0
VERTEX
  8
AB0CS2S
 62
     3
  6
CONTINUOUS
 10
0.614967
 20
3.390276
  0
VERTEX
  8
AB0CS2S
 62
     3
  6
CONTINUOUS
 10
0.641827
 20
3.379094
  0
VERTEX
  8
AB0CS2S
 62
     3
  6
CONTINUOUS
 10
0.668685
 20
3.390272
  0
VERTEX
  8
AB0CS2S
 62
     3
  6
CONTINUOUS
 10
0.677640
 20
3.414901
  0
VERTEX
  8
AB0CS2S
 62
     3
  6
CONTINUOUS
 10
0.668689
 20
3.439533
  0
VERTEX
  8
AB0CS2S
 62
     3
  6
CONTINUOUS
 10
0.641831
 20
3.450717
  0
VERTEX
  8
AB0CS2S
 62
     3
  6
CONTINUOUS
 10
0.641830
 20
3.450718
  0
VERTEX
  8
AB0CS2S
 62
     3
  6
CONTINUOUS
 10
0.641828
 20
3.450719
  0
SEQEND
  8
0
  0
POLYLINE
  8
AB0CS2S
 62
     3
  6
CONTINUOUS
 66
     1
 40
0.003000
 41
0.003000
 70
     1
  0
VERTEX
  8
AB0CS2S
 62
     3
  6
CONTINUOUS
 10
0.641827
 20
3.446240
  0
VERTEX
  8
AB0CS2S
 62
     3
  6
CONTINUOUS
 10
0.613976
 20
3.430001
  0
VERTEX
  8
AB0CS2S
 62
     3
  6
CONTINUOUS
 10
0.613975
 20
3.399814
  0
VERTEX
  8
AB0CS2S
 62
     3
  6
CONTINUOUS
 10
0.641827
 20
3.383575
  0
VERTEX
  8
AB0CS2S
 62
     3
  6
CONTINUOUS
 10
0.669676
 20
3.399809
  0
VERTEX
  8
AB0CS2S
 62
     3
  6
CONTINUOUS
 10
0.669679
 20
3.429994
  0
VERTEX
  8
AB0CS2S
 62
     3
  6
CONTINUOUS
 10
0.641831
 20
3.446236
  0
VERTEX
  8
AB0CS2S
 62
     3
  6
CONTINUOUS
 10
0.641830
 20
3.446237
  0
VERTEX
  8
AB0CS2S
 62
     3
  6
CONTINUOUS
 10
0.641828
 20
3.446239
  0
SEQEND
  8
0
  0
POLYLINE
  8
AB0CS2S
 62
     3
  6
CONTINUOUS
 66
     1
 40
0.003000
 41
0.003000
 70
     1
  0
VERTEX
  8
AB0CS2S
 62
     3
  6
CONTINUOUS
 10
0.641827
 20
3.441764
  0
VERTEX
  8
AB0CS2S
 62
     3
  6
CONTINUOUS
 10
0.617955
 20
3.427844
  0
VERTEX
  8
AB0CS2S
 62
     3
  6
CONTINUOUS
 10
0.617954
 20
3.401971
  0
VERTEX
  8
AB0CS2S
 62
     3
  6
CONTINUOUS
 10
0.641827
 20
3.388051
  0
VERTEX
  8
AB0CS2S
 62
     3
  6
CONTINUOUS
 10
0.665697
 20
3.401965
  0
VERTEX
  8
AB0CS2S
 62
     3
  6
CONTINUOUS
 10
0.665700
 20
3.427838
  0
VERTEX
  8
AB0CS2S
 62
     3
  6
CONTINUOUS
 10
0.641831
 20
3.441760
  0
VERTEX
  8
AB0CS2S
 62
     3
  6
CONTINUOUS
 10
0.641830
 20
3.441761
  0
VERTEX
  8
AB0CS2S
 62
     3
  6
CONTINUOUS
 10
0.641828
 20
3.441763
  0
SEQEND
  8
0
  0
POLYLINE
  8
AB0CS2S
 62
     3
  6
CONTINUOUS
 66
     1
 40
0.003000
 41
0.003000
 70
     1
  0
VERTEX
  8
AB0CS2S
 62
     3
  6
CONTINUOUS
 10
0.641827
 20
3.423854
  0
VERTEX
  8
AB0CS2S
 62
     3
  6
CONTINUOUS
 10
0.633874
 20
3.419216
  0
VERTEX
  8
AB0CS2S
 62
     3
  6
CONTINUOUS
 10
0.633874
 20
3.410596
  0
VERTEX
  8
AB0CS2S
 62
     3
  6
CONTINUOUS
 10
0.641827
 20
3.405961
  0
VERTEX
  8
AB0CS2S
 62
     3
  6
CONTINUOUS
 10
0.649780
 20
3.410595
  0
VERTEX
  8
AB0CS2S
 62
     3
  6
CONTINUOUS
 10
0.649780
 20
3.419213
  0
VERTEX
  8
AB0CS2S
 62
     3
  6
CONTINUOUS
 10
0.641827
 20
3.423850
  0
VERTEX
  8
AB0CS2S
 62
     3
  6
CONTINUOUS
 10
0.641827
 20
3.423851
  0
VERTEX
  8
AB0CS2S
 62
     3
  6
CONTINUOUS
 10
0.641827
 20
3.423853
  0
SEQEND
  8
0
  0
POLYLINE
  8
AB0CS2S
 62
     3
  6
CONTINUOUS
 66
     1
 40
0.003000
 41
0.003000
 70
     1
  0
VERTEX
  8
AB0CS2S
 62
     3
  6
CONTINUOUS
 10
0.641827
 20
3.428331
  0
VERTEX
  8
AB0CS2S
 62
     3
  6
CONTINUOUS
 10
0.629895
 20
3.421372
  0
VERTEX
  8
AB0CS2S
 62
     3
  6
CONTINUOUS
 10
0.629895
 20
3.408440
  0
VERTEX
  8
AB0CS2S
 62
     3
  6
CONTINUOUS
 10
0.641827
 20
3.401484
  0
VERTEX
  8
AB0CS2S
 62
     3
  6
CONTINUOUS
 10
0.653759
 20
3.408437
  0
VERTEX
  8
AB0CS2S
 62
     3
  6
CONTINUOUS
 10
0.653760
 20
3.421368
  0
VERTEX
  8
AB0CS2S
 62
     3
  6
CONTINUOUS
 10
0.641827
 20
3.428327
  0
VERTEX
  8
AB0CS2S
 62
     3
  6
CONTINUOUS
 10
0.641827
 20
3.428328
  0
VERTEX
  8
AB0CS2S
 62
     3
  6
CONTINUOUS
 10
0.641827
 20
3.428330
  0
SEQEND
  8
0
  0
POLYLINE
  8
AB0CS2S
 62
     3
  6
CONTINUOUS
 66
     1
 40
0.003000
 41
0.003000
 70
     1
  0
VERTEX
  8
AB0CS2S
 62
     3
  6
CONTINUOUS
 10
0.641827
 20
3.432811
  0
VERTEX
  8
AB0CS2S
 62
     3
  6
CONTINUOUS
 10
0.625913
 20
3.423530
  0
VERTEX
  8
AB0CS2S
 62
     3
  6
CONTINUOUS
 10
0.625912
 20
3.406282
  0
VERTEX
  8
AB0CS2S
 62
     3
  6
CONTINUOUS
 10
0.641827
 20
3.397004
  0
VERTEX
  8
AB0CS2S
 62
     3
  6
CONTINUOUS
 10
0.657741
 20
3.406279
  0
VERTEX
  8
AB0CS2S
 62
     3
  6
CONTINUOUS
 10
0.657742
 20
3.423527
  0
VERTEX
  8
AB0CS2S
 62
     3
  6
CONTINUOUS
 10
0.641827
 20
3.432807
  0
VERTEX
  8
AB0CS2S
 62
     3
  6
CONTINUOUS
 10
0.641827
 20
3.432808
  0
VERTEX
  8
AB0CS2S
 62
     3
  6
CONTINUOUS
 10
0.641827
 20
3.432810
  0
SEQEND
  8
0
  0
POLYLINE
  8
AB0CS2S
 62
     3
  6
CONTINUOUS
 66
     1
 40
0.003000
 41
0.003000
 70
     1
  0
VERTEX
  8
AB0CS2S
 62
     3
  6
CONTINUOUS
 10
0.641827
 20
3.437291
  0
VERTEX
  8
AB0CS2S
 62
     3
  6
CONTINUOUS
 10
0.621931
 20
3.425690
  0
VERTEX
  8
AB0CS2S
 62
     3
  6
CONTINUOUS
 10
0.621930
 20
3.404125
  0
VERTEX
  8
AB0CS2S
 62
     3
  6
CONTINUOUS
 10
0.641827
 20
3.392524
  0
VERTEX
  8
AB0CS2S
 62
     3
  6
CONTINUOUS
 10
0.661724
 20
3.404121
  0
VERTEX
  8
AB0CS2S
 62
     3
  6
CONTINUOUS
 10
0.661726
 20
3.425685
  0
VERTEX
  8
AB0CS2S
 62
     3
  6
CONTINUOUS
 10
0.641831
 20
3.437287
  0
VERTEX
  8
AB0CS2S
 62
     3
  6
CONTINUOUS
 10
0.641830
 20
3.437288
  0
VERTEX
  8
AB0CS2S
 62
     3
  6
CONTINUOUS
 10
0.641828
 20
3.437290
  0
SEQEND
  8
0
  0
TEXT
  8
AB0CS2S
 10
0.129748
 20
3.355630
 40
0.144286
  1
TC
 41
1.000000
  7
SN0
 71
     0
 72
     5
 11
0.380599
 21
3.355630
  0
TEXT
  8
AB0CS2S
 10
0.045268
 20
3.097035
 40
0.144286
  1
-
 41
1.000000
  7
SN0
 71
     0
 72
     5
 11
0.104292
 21
3.097035
  0
TEXT
  8
AB0CS2S
 10
0.045264
 20
3.656665
 40
0.144286
  1
+
 41
1.000000
  7
SN0
 71
     0
 72
     5
 11
0.137850
 21
3.656665
  0
TEXT
  8
AB0CS2S
 10
0.368953
 20
4.264421
 40
0.144286
  1
C1
 41
1.000000
  7
SN0
 71
     0
 72
     5
 11
0.590292
 21
4.264421
  0
TEXT
  8
AB0CS2S
 10
0.655169
 20
4.054181
 40
0.144286
  1
(NO)
 41
1.000000
  7
SN0
 71
     0
 72
     5
 11
1.064864
 21
4.054181
  0
TEXT
  8
AB0CS2S
 10
0.655169
 20
4.278031
 40
0.144286
  1
(SSR)
 41
1.000000
  7
SN0
 71
     0
 72
     5
 11
1.072966
 21
4.278031
  0
TEXT
  8
AB0CS2S
 10
0.655169
 20
4.501882
 40
0.144286
  1
(mA)
 41
1.000000
  7
SN0
 71
     0
 72
     5
 11
1.033906
 21
4.501882
  0
POLYLINE
  8
AB0CS2S
 62
     7
  6
CONTINUOUS
 66
     1
 40
0.003000
 41
0.003000
  0
VERTEX
  8
AB0CS2S
 62
     7
  6
CONTINUOUS
 10
1.761524
 20
4.132366
  0
VERTEX
  8
AB0CS2S
 62
     7
  6
CONTINUOUS
 10
1.772857
 20
4.092288
  0
VERTEX
  8
AB0CS2S
 62
     7
  6
CONTINUOUS
 10
1.797429
 20
4.059956
  0
VERTEX
  8
AB0CS2S
 62
     7
  6
CONTINUOUS
 10
1.831919
 20
4.038363
  0
VERTEX
  8
AB0CS2S
 62
     7
  6
CONTINUOUS
 10
1.873008
 20
4.030500
  0
SEQEND
  8
0
  0
POLYLINE
  8
AB0CS2S
 62
     7
  6
CONTINUOUS
 66
     1
 40
0.003000
 41
0.003000
  0
VERTEX
  8
AB0CS2S
 62
     7
  6
CONTINUOUS
 10
1.873008
 20
4.030500
  0
VERTEX
  8
AB0CS2S
 62
     7
  6
CONTINUOUS
 10
1.913132
 20
4.038095
  0
VERTEX
  8
AB0CS2S
 62
     7
  6
CONTINUOUS
 10
1.947720
 20
4.059194
  0
VERTEX
  8
AB0CS2S
 62
     7
  6
CONTINUOUS
 10
1.972689
 20
4.091272
  0
SEQEND
  8
0
  0
POLYLINE
  8
AB0CS2S
 62
     3
  6
CONTINUOUS
 66
     1
 40
0.003000
 41
0.003000
  0
VERTEX
  8
AB0CS2S
 62
     3
  6
CONTINUOUS
 10
1.761524
 20
4.132366
  0
VERTEX
  8
AB0CS2S
 62
     3
  6
CONTINUOUS
 10
1.772857
 20
4.092288
  0
VERTEX
  8
AB0CS2S
 62
     3
  6
CONTINUOUS
 10
1.797429
 20
4.059956
  0
VERTEX
  8
AB0CS2S
 62
     3
  6
CONTINUOUS
 10
1.831919
 20
4.038363
  0
VERTEX
  8
AB0CS2S
 62
     3
  6
CONTINUOUS
 10
1.873008
 20
4.030500
  0
SEQEND
  8
0
  0
POLYLINE
  8
AB0CS2S
 62
     3
  6
CONTINUOUS
 66
     1
 40
0.003000
 41
0.003000
  0
VERTEX
  8
AB0CS2S
 62
     3
  6
CONTINUOUS
 10
1.873008
 20
4.030500
  0
VERTEX
  8
AB0CS2S
 62
     3
  6
CONTINUOUS
 10
1.913132
 20
4.038095
  0
VERTEX
  8
AB0CS2S
 62
     3
  6
CONTINUOUS
 10
1.947720
 20
4.059194
  0
VERTEX
  8
AB0CS2S
 62
     3
  6
CONTINUOUS
 10
1.972689
 20
4.091272
  0
SEQEND
  8
0
  0
POLYLINE
  8
AB0CS2S
 62
     3
  6
CONTINUOUS
 66
     1
 40
0.003000
 41
0.003000
 70
     1
  0
VERTEX
  8
AB0CS2S
 62
     3
  6
CONTINUOUS
 10
1.873008
 20
3.179858
  0
VERTEX
  8
AB0CS2S
 62
     3
  6
CONTINUOUS
 10
1.846778
 20
3.177363
  0
VERTEX
  8
AB0CS2S
 62
     3
  6
CONTINUOUS
 10
1.824045
 20
3.170270
  0
VERTEX
  8
AB0CS2S
 62
     3
  6
CONTINUOUS
 10
1.804809
 20
3.159236
  0
VERTEX
  8
AB0CS2S
 62
     3
  6
CONTINUOUS
 10
1.789070
 20
3.144918
  0
VERTEX
  8
AB0CS2S
 62
     3
  6
CONTINUOUS
 10
1.776829
 20
3.127974
  0
VERTEX
  8
AB0CS2S
 62
     3
  6
CONTINUOUS
 10
1.768085
 20
3.109058
  0
VERTEX
  8
AB0CS2S
 62
     3
  6
CONTINUOUS
 10
1.762838
 20
3.088829
  0
VERTEX
  8
AB0CS2S
 62
     3
  6
CONTINUOUS
 10
1.761089
 20
3.067943
  0
VERTEX
  8
AB0CS2S
 62
     3
  6
CONTINUOUS
 10
1.762837
 20
3.047057
  0
VERTEX
  8
AB0CS2S
 62
     3
  6
CONTINUOUS
 10
1.768082
 20
3.026828
  0
VERTEX
  8
AB0CS2S
 62
     3
  6
CONTINUOUS
 10
1.776825
 20
3.007912
  0
VERTEX
  8
AB0CS2S
 62
     3
  6
CONTINUOUS
 10
1.789065
 20
2.990966
  0
VERTEX
  8
AB0CS2S
 62
     3
  6
CONTINUOUS
 10
1.804802
 20
2.976647
  0
VERTEX
  8
AB0CS2S
 62
     3
  6
CONTINUOUS
 10
1.824037
 20
2.965612
  0
VERTEX
  8
AB0CS2S
 62
     3
  6
CONTINUOUS
 10
1.846770
 20
2.958517
  0
VERTEX
  8
AB0CS2S
 62
     3
  6
CONTINUOUS
 10
1.873000
 20
2.956020
  0
VERTEX
  8
AB0CS2S
 62
     3
  6
CONTINUOUS
 10
1.899230
 20
2.958512
  0
VERTEX
  8
AB0CS2S
 62
     3
  6
CONTINUOUS
 10
1.921963
 20
2.965603
  0
VERTEX
  8
AB0CS2S
 62
     3
  6
CONTINUOUS
 10
1.941200
 20
2.976635
  0
VERTEX
  8
AB0CS2S
 62
     3
  6
CONTINUOUS
 10
1.956939
 20
2.990951
  0
VERTEX
  8
AB0CS2S
 62
     3
  6
CONTINUOUS
 10
1.969182
 20
3.007894
  0
VERTEX
  8
AB0CS2S
 62
     3
  6
CONTINUOUS
 10
1.977928
 20
3.026808
  0
VERTEX
  8
AB0CS2S
 62
     3
  6
CONTINUOUS
 10
1.983176
 20
3.047037
  0
VERTEX
  8
AB0CS2S
 62
     3
  6
CONTINUOUS
 10
1.984928
 20
3.067922
  0
VERTEX
  8
AB0CS2S
 62
     3
  6
CONTINUOUS
 10
1.983182
 20
3.088808
  0
VERTEX
  8
AB0CS2S
 62
     3
  6
CONTINUOUS
 10
1.977938
 20
3.109038
  0
VERTEX
  8
AB0CS2S
 62
     3
  6
CONTINUOUS
 10
1.969198
 20
3.127954
  0
VERTEX
  8
AB0CS2S
 62
     3
  6
CONTINUOUS
 10
1.956959
 20
3.144901
  0
VERTEX
  8
AB0CS2S
 62
     3
  6
CONTINUOUS
 10
1.941223
 20
3.159221
  0
VERTEX
  8
AB0CS2S
 62
     3
  6
CONTINUOUS
 10
1.921989
 20
3.170258
  0
VERTEX
  8
AB0CS2S
 62
     3
  6
CONTINUOUS
 10
1.899257
 20
3.177355
  0
VERTEX
  8
AB0CS2S
 62
     3
  6
CONTINUOUS
 10
1.873028
 20
3.179854
  0
VERTEX
  8
AB0CS2S
 62
     3
  6
CONTINUOUS
 10
1.873022
 20
3.179855
  0
VERTEX
  8
AB0CS2S
 62
     3
  6
CONTINUOUS
 10
1.873013
 20
3.179857
  0
SEQEND
  8
0
  0
POLYLINE
  8
AB0CS2S
 62
     3
  6
CONTINUOUS
 66
     1
 40
0.003000
 41
0.003000
 70
     1
  0
VERTEX
  8
AB0CS2S
 62
     3
  6
CONTINUOUS
 10
1.873008
 20
3.538020
  0
VERTEX
  8
AB0CS2S
 62
     3
  6
CONTINUOUS
 10
1.846778
 20
3.535524
  0
VERTEX
  8
AB0CS2S
 62
     3
  6
CONTINUOUS
 10
1.824045
 20
3.528431
  0
VERTEX
  8
AB0CS2S
 62
     3
  6
CONTINUOUS
 10
1.804809
 20
3.517397
  0
VERTEX
  8
AB0CS2S
 62
     3
  6
CONTINUOUS
 10
1.789070
 20
3.503080
  0
VERTEX
  8
AB0CS2S
 62
     3
  6
CONTINUOUS
 10
1.776829
 20
3.486135
  0
VERTEX
  8
AB0CS2S
 62
     3
  6
CONTINUOUS
 10
1.768085
 20
3.467220
  0
VERTEX
  8
AB0CS2S
 62
     3
  6
CONTINUOUS
 10
1.762838
 20
3.446991
  0
VERTEX
  8
AB0CS2S
 62
     3
  6
CONTINUOUS
 10
1.761089
 20
3.426105
  0
VERTEX
  8
AB0CS2S
 62
     3
  6
CONTINUOUS
 10
1.762837
 20
3.405219
  0
VERTEX
  8
AB0CS2S
 62
     3
  6
CONTINUOUS
 10
1.768082
 20
3.384989
  0
VERTEX
  8
AB0CS2S
 62
     3
  6
CONTINUOUS
 10
1.776825
 20
3.366073
  0
VERTEX
  8
AB0CS2S
 62
     3
  6
CONTINUOUS
 10
1.789065
 20
3.349128
  0
VERTEX
  8
AB0CS2S
 62
     3
  6
CONTINUOUS
 10
1.804802
 20
3.334809
  0
VERTEX
  8
AB0CS2S
 62
     3
  6
CONTINUOUS
 10
1.824037
 20
3.323773
  0
VERTEX
  8
AB0CS2S
 62
     3
  6
CONTINUOUS
 10
1.846770
 20
3.316679
  0
VERTEX
  8
AB0CS2S
 62
     3
  6
CONTINUOUS
 10
1.873000
 20
3.314181
  0
VERTEX
  8
AB0CS2S
 62
     3
  6
CONTINUOUS
 10
1.899230
 20
3.316674
  0
VERTEX
  8
AB0CS2S
 62
     3
  6
CONTINUOUS
 10
1.921963
 20
3.323764
  0
VERTEX
  8
AB0CS2S
 62
     3
  6
CONTINUOUS
 10
1.941200
 20
3.334796
  0
VERTEX
  8
AB0CS2S
 62
     3
  6
CONTINUOUS
 10
1.956939
 20
3.349112
  0
VERTEX
  8
AB0CS2S
 62
     3
  6
CONTINUOUS
 10
1.969182
 20
3.366056
  0
VERTEX
  8
AB0CS2S
 62
     3
  6
CONTINUOUS
 10
1.977928
 20
3.384970
  0
VERTEX
  8
AB0CS2S
 62
     3
  6
CONTINUOUS
 10
1.983176
 20
3.405198
  0
VERTEX
  8
AB0CS2S
 62
     3
  6
CONTINUOUS
 10
1.984928
 20
3.426084
  0
VERTEX
  8
AB0CS2S
 62
     3
  6
CONTINUOUS
 10
1.983182
 20
3.446970
  0
VERTEX
  8
AB0CS2S
 62
     3
  6
CONTINUOUS
 10
1.977938
 20
3.467199
  0
VERTEX
  8
AB0CS2S
 62
     3
  6
CONTINUOUS
 10
1.969198
 20
3.486116
  0
VERTEX
  8
AB0CS2S
 62
     3
  6
CONTINUOUS
 10
1.956959
 20
3.503063
  0
VERTEX
  8
AB0CS2S
 62
     3
  6
CONTINUOUS
 10
1.941223
 20
3.517383
  0
VERTEX
  8
AB0CS2S
 62
     3
  6
CONTINUOUS
 10
1.921989
 20
3.528419
  0
VERTEX
  8
AB0CS2S
 62
     3
  6
CONTINUOUS
 10
1.899257
 20
3.535516
  0
VERTEX
  8
AB0CS2S
 62
     3
  6
CONTINUOUS
 10
1.873028
 20
3.538016
  0
VERTEX
  8
AB0CS2S
 62
     3
  6
CONTINUOUS
 10
1.873022
 20
3.538017
  0
VERTEX
  8
AB0CS2S
 62
     3
  6
CONTINUOUS
 10
1.873013
 20
3.538019
  0
SEQEND
  8
0
  0
POLYLINE
  8
AB0CS2S
 62
     3
  6
CONTINUOUS
 66
     1
 40
0.003000
 41
0.003000
 70
     1
  0
VERTEX
  8
AB0CS2S
 62
     3
  6
CONTINUOUS
 10
1.873008
 20
3.896181
  0
VERTEX
  8
AB0CS2S
 62
     3
  6
CONTINUOUS
 10
1.846778
 20
3.893686
  0
VERTEX
  8
AB0CS2S
 62
     3
  6
CONTINUOUS
 10
1.824045
 20
3.886593
  0
VERTEX
  8
AB0CS2S
 62
     3
  6
CONTINUOUS
 10
1.804809
 20
3.875559
  0
VERTEX
  8
AB0CS2S
 62
     3
  6
CONTINUOUS
 10
1.789070
 20
3.861241
  0
VERTEX
  8
AB0CS2S
 62
     3
  6
CONTINUOUS
 10
1.776829
 20
3.844296
  0
VERTEX
  8
AB0CS2S
 62
     3
  6
CONTINUOUS
 10
1.768085
 20
3.825381
  0
VERTEX
  8
AB0CS2S
 62
     3
  6
CONTINUOUS
 10
1.762838
 20
3.805152
  0
VERTEX
  8
AB0CS2S
 62
     3
  6
CONTINUOUS
 10
1.761089
 20
3.784266
  0
VERTEX
  8
AB0CS2S
 62
     3
  6
CONTINUOUS
 10
1.762837
 20
3.763380
  0
VERTEX
  8
AB0CS2S
 62
     3
  6
CONTINUOUS
 10
1.768082
 20
3.743151
  0
VERTEX
  8
AB0CS2S
 62
     3
  6
CONTINUOUS
 10
1.776825
 20
3.724235
  0
VERTEX
  8
AB0CS2S
 62
     3
  6
CONTINUOUS
 10
1.789065
 20
3.707289
  0
VERTEX
  8
AB0CS2S
 62
     3
  6
CONTINUOUS
 10
1.804802
 20
3.692970
  0
VERTEX
  8
AB0CS2S
 62
     3
  6
CONTINUOUS
 10
1.824037
 20
3.681935
  0
VERTEX
  8
AB0CS2S
 62
     3
  6
CONTINUOUS
 10
1.846770
 20
3.674840
  0
VERTEX
  8
AB0CS2S
 62
     3
  6
CONTINUOUS
 10
1.873000
 20
3.672343
  0
VERTEX
  8
AB0CS2S
 62
     3
  6
CONTINUOUS
 10
1.899230
 20
3.674835
  0
VERTEX
  8
AB0CS2S
 62
     3
  6
CONTINUOUS
 10
1.921963
 20
3.681926
  0
VERTEX
  8
AB0CS2S
 62
     3
  6
CONTINUOUS
 10
1.941200
 20
3.692958
  0
VERTEX
  8
AB0CS2S
 62
     3
  6
CONTINUOUS
 10
1.956939
 20
3.707273
  0
VERTEX
  8
AB0CS2S
 62
     3
  6
CONTINUOUS
 10
1.969182
 20
3.724217
  0
VERTEX
  8
AB0CS2S
 62
     3
  6
CONTINUOUS
 10
1.977928
 20
3.743131
  0
VERTEX
  8
AB0CS2S
 62
     3
  6
CONTINUOUS
 10
1.983176
 20
3.763360
  0
VERTEX
  8
AB0CS2S
 62
     3
  6
CONTINUOUS
 10
1.984928
 20
3.784245
  0
VERTEX
  8
AB0CS2S
 62
     3
  6
CONTINUOUS
 10
1.983182
 20
3.805131
  0
VERTEX
  8
AB0CS2S
 62
     3
  6
CONTINUOUS
 10
1.977938
 20
3.825361
  0
VERTEX
  8
AB0CS2S
 62
     3
  6
CONTINUOUS
 10
1.969198
 20
3.844277
  0
VERTEX
  8
AB0CS2S
 62
     3
  6
CONTINUOUS
 10
1.956959
 20
3.861224
  0
VERTEX
  8
AB0CS2S
 62
     3
  6
CONTINUOUS
 10
1.941223
 20
3.875544
  0
VERTEX
  8
AB0CS2S
 62
     3
  6
CONTINUOUS
 10
1.921989
 20
3.886581
  0
VERTEX
  8
AB0CS2S
 62
     3
  6
CONTINUOUS
 10
1.899257
 20
3.893677
  0
VERTEX
  8
AB0CS2S
 62
     3
  6
CONTINUOUS
 10
1.873028
 20
3.896177
  0
VERTEX
  8
AB0CS2S
 62
     3
  6
CONTINUOUS
 10
1.873022
 20
3.896178
  0
VERTEX
  8
AB0CS2S
 62
     3
  6
CONTINUOUS
 10
1.873013
 20
3.896180
  0
SEQEND
  8
0
  0
TEXT
  8
AB0CS2S
 10
2.059925
 20
3.701433
 40
0.144286
  1
8
 41
1.000000
  7
SN0
 71
     0
 72
     5
 11
2.152512
 21
3.701433
  0
TEXT
  8
AB0CS2S
 10
2.059925
 20
3.343272
 40
0.144286
  1
9
 41
1.000000
  7
SN0
 71
     0
 72
     5
 11
2.152512
 21
3.343272
  0
TEXT
  8
AB0CS2S
 10
2.037539
 20
2.985110
 40
0.144286
  1
10
 41
1.000000
  7
SN0
 71
     0
 72
     5
 11
2.222712
 21
2.985110
  0
POLYLINE
  8
AB0CS2S
 62
     3
  6
CONTINUOUS
 66
     1
 40
0.003000
 41
0.003000
 70
     1
  0
VERTEX
  8
AB0CS2S
 62
     3
  6
CONTINUOUS
 10
2.522177
 20
3.403709
  0
VERTEX
  8
AB0CS2S
 62
     3
  6
CONTINUOUS
 10
2.502284
 20
3.392110
  0
VERTEX
  8
AB0CS2S
 62
     3
  6
CONTINUOUS
 10
2.502283
 20
3.370548
  0
VERTEX
  8
AB0CS2S
 62
     3
  6
CONTINUOUS
 10
2.522177
 20
3.358949
  0
VERTEX
  8
AB0CS2S
 62
     3
  6
CONTINUOUS
 10
2.542071
 20
3.370544
  0
VERTEX
  8
AB0CS2S
 62
     3
  6
CONTINUOUS
 10
2.542072
 20
3.392104
  0
VERTEX
  8
AB0CS2S
 62
     3
  6
CONTINUOUS
 10
2.522181
 20
3.403705
  0
VERTEX
  8
AB0CS2S
 62
     3
  6
CONTINUOUS
 10
2.522180
 20
3.403706
  0
VERTEX
  8
AB0CS2S
 62
     3
  6
CONTINUOUS
 10
2.522178
 20
3.403708
  0
SEQEND
  8
0
  0
TEXT
  8
AB0CS2S
 10
2.597165
 20
3.097035
 40
0.144286
  1
Pt100
 41
1.000000
  7
SN0
 71
     0
 72
     5
 11
3.033190
 21
3.097035
  0
TEXT
  8
AB0CS2S
 10
-3.189465
 20
3.326528
 40
0.144286
  1
A2/HB
 41
1.000000
  7
SN0
 71
     0
 72
     5
 11
-2.660275
 21
3.326528
  0
TEXT
  8
AB0CS2S
 10
-2.534610
 20
3.332035
 40
0.144286
  1
A1
 41
1.000000
  7
SN0
 71
     0
 72
     5
 11
-2.326869
 21
3.332035
  0
POLYLINE
  8
AB0CS2S
 62
     3
  6
CONTINUOUS
 66
     1
 40
0.003000
 41
0.003000
 70
     1
  0
VERTEX
  8
AB0CS2S
 62
     3
  6
CONTINUOUS
 10
-1.037055
 20
4.220768
  0
VERTEX
  8
AB0CS2S
 62
     3
  6
CONTINUOUS
 10
-1.065704
 20
4.211470
  0
VERTEX
  8
AB0CS2S
 62
     3
  6
CONTINUOUS
 10
-1.080030
 20
4.189261
  0
VERTEX
  8
AB0CS2S
 62
     3
  6
CONTINUOUS
 10
-1.080031
 20
4.162746
  0
VERTEX
  8
AB0CS2S
 62
     3
  6
CONTINUOUS
 10
-1.065707
 20
4.140535
  0
VERTEX
  8
AB0CS2S
 62
     3
  6
CONTINUOUS
 10
-1.037059
 20
4.131236
  0
VERTEX
  8
AB0CS2S
 62
     3
  6
CONTINUOUS
 10
-1.008409
 20
4.140530
  0
VERTEX
  8
AB0CS2S
 62
     3
  6
CONTINUOUS
 10
-0.994082
 20
4.162737
  0
VERTEX
  8
AB0CS2S
 62
     3
  6
CONTINUOUS
 10
-0.994078
 20
4.189251
  0
VERTEX
  8
AB0CS2S
 62
     3
  6
CONTINUOUS
 10
-1.008400
 20
4.211463
  0
VERTEX
  8
AB0CS2S
 62
     3
  6
CONTINUOUS
 10
-1.037047
 20
4.220764
  0
VERTEX
  8
AB0CS2S
 62
     3
  6
CONTINUOUS
 10
-1.037049
 20
4.220765
  0
VERTEX
  8
AB0CS2S
 62
     3
  6
CONTINUOUS
 10
-1.037053
 20
4.220767
  0
SEQEND
  8
0
  0
POLYLINE
  8
AB0CS2S
 62
     3
  6
CONTINUOUS
 66
     1
 40
0.003000
 41
0.003000
 70
     1
  0
VERTEX
  8
AB0CS2S
 62
     3
  6
CONTINUOUS
 10
-1.037055
 20
4.408799
  0
VERTEX
  8
AB0CS2S
 62
     3
  6
CONTINUOUS
 10
-1.065704
 20
4.399502
  0
VERTEX
  8
AB0CS2S
 62
     3
  6
CONTINUOUS
 10
-1.080030
 20
4.377292
  0
VERTEX
  8
AB0CS2S
 62
     3
  6
CONTINUOUS
 10
-1.080031
 20
4.350778
  0
VERTEX
  8
AB0CS2S
 62
     3
  6
CONTINUOUS
 10
-1.065707
 20
4.328567
  0
VERTEX
  8
AB0CS2S
 62
     3
  6
CONTINUOUS
 10
-1.037059
 20
4.319268
  0
VERTEX
  8
AB0CS2S
 62
     3
  6
CONTINUOUS
 10
-1.008409
 20
4.328561
  0
VERTEX
  8
AB0CS2S
 62
     3
  6
CONTINUOUS
 10
-0.994082
 20
4.350769
  0
VERTEX
  8
AB0CS2S
 62
     3
  6
CONTINUOUS
 10
-0.994078
 20
4.377283
  0
VERTEX
  8
AB0CS2S
 62
     3
  6
CONTINUOUS
 10
-1.008400
 20
4.399494
  0
VERTEX
  8
AB0CS2S
 62
     3
  6
CONTINUOUS
 10
-1.037047
 20
4.408795
  0
VERTEX
  8
AB0CS2S
 62
     3
  6
CONTINUOUS
 10
-1.037049
 20
4.408796
  0
VERTEX
  8
AB0CS2S
 62
     3
  6
CONTINUOUS
 10
-1.037053
 20
4.408798
  0
SEQEND
  8
0
  0
TEXT
  8
AB0CS2S
 10
-1.056299
 20
3.943193
 40
0.096279
  1
CT
 41
1.000000
  7
SN0
 71
     0
 72
     5
 11
-0.889354
 21
3.943193
  0
TEXT
  8
AB0CS2S
 10
-2.551402
 20
4.364031
 40
0.144286
  1
Power
 41
1.000000
  7
SN0
 71
     0
 72
     5
 11
-2.103515
 21
4.364031
  0
TEXT
  8
AB0CS2S
 10
-2.551402
 20
4.149138
 40
0.144286
  1
supply
 41
1.000000
  7
SN0
 71
     0
 72
     5
 11
-2.082972
 21
4.149138
  0
POLYLINE
  8
AB0CS2S
 62
     3
  6
CONTINUOUS
 66
     1
 40
0.003000
 41
0.003000
  0
VERTEX
  8
AB0CS2S
 62
     3
  6
CONTINUOUS
 10
0.619094
 20
3.421705
  0
VERTEX
  8
AB0CS2S
 62
     3
  6
CONTINUOUS
 10
0.345528
 20
3.045551
  0
SEQEND
  8
0
  0
POLYLINE
  8
AB0CS2S
 62
     3
  6
CONTINUOUS
 66
     1
 40
0.003000
 41
0.003000
  0
VERTEX
  8
AB0CS2S
 62
     3
  6
CONTINUOUS
 10
0.623642
 20
3.420343
  0
VERTEX
  8
AB0CS2S
 62
     3
  6
CONTINUOUS
 10
0.351067
 20
3.045551
  0
SEQEND
  8
0
  0
POLYLINE
  8
AB0CS2S
 62
     3
  6
CONTINUOUS
 66
     1
 40
0.003000
 41
0.003000
  0
VERTEX
  8
AB0CS2S
 62
     3
  6
CONTINUOUS
 10
0.628189
 20
3.418984
  0
VERTEX
  8
AB0CS2S
 62
     3
  6
CONTINUOUS
 10
0.356602
 20
3.045551
  0
SEQEND
  8
0
  0
POLYLINE
  8
AB0CS2S
 62
     3
  6
CONTINUOUS
 66
     1
 40
0.003000
 41
0.003000
  0
VERTEX
  8
AB0CS2S
 62
     3
  6
CONTINUOUS
 10
0.632736
 20
3.417626
  0
VERTEX
  8
AB0CS2S
 62
     3
  6
CONTINUOUS
 10
0.362138
 20
3.045551
  0
SEQEND
  8
0
  0
POLYLINE
  8
AB0CS2S
 62
     3
  6
CONTINUOUS
 66
     1
 40
0.003000
 41
0.003000
  0
VERTEX
  8
AB0CS2S
 62
     3
  6
CONTINUOUS
 10
0.637280
 20
3.416268
  0
VERTEX
  8
AB0CS2S
 62
     3
  6
CONTINUOUS
 10
0.367673
 20
3.045551
  0
SEQEND
  8
0
  0
POLYLINE
  8
AB0CS2S
 62
     3
  6
CONTINUOUS
 66
     1
 40
0.003000
 41
0.003000
  0
VERTEX
  8
AB0CS2S
 62
     3
  6
CONTINUOUS
 10
0.641827
 20
3.414906
  0
VERTEX
  8
AB0CS2S
 62
     3
  6
CONTINUOUS
 10
0.373209
 20
3.045551
  0
SEQEND
  8
0
  0
POLYLINE
  8
AB0CS2S
 62
     3
  6
CONTINUOUS
 66
     1
 40
0.003000
 41
0.003000
  0
VERTEX
  8
AB0CS2S
 62
     3
  6
CONTINUOUS
 10
0.373209
 20
3.784260
  0
VERTEX
  8
AB0CS2S
 62
     3
  6
CONTINUOUS
 10
0.641827
 20
3.414906
  0
SEQEND
  8
0
  0
POLYLINE
  8
AB0CS2S
 62
     3
  6
CONTINUOUS
 66
     1
 40
0.003000
 41
0.003000
  0
VERTEX
  8
AB0CS2S
 62
     3
  6
CONTINUOUS
 10
0.373209
 20
3.045551
  0
VERTEX
  8
AB0CS2S
 62
     3
  6
CONTINUOUS
 10
-0.029724
 20
3.045551
  0
SEQEND
  8
0
  0
POLYLINE
  8
AB0CS2S
 62
     3
  6
CONTINUOUS
 66
     1
 40
0.003000
 41
0.003000
  0
VERTEX
  8
AB0CS2S
 62
     3
  6
CONTINUOUS
 10
0.373209
 20
3.784260
  0
VERTEX
  8
AB0CS2S
 62
     3
  6
CONTINUOUS
 10
-0.029724
 20
3.784260
  0
SEQEND
  8
0
  0
POLYLINE
  8
AB0CS2S
 62
     3
  6
CONTINUOUS
 66
     1
 40
0.003000
 41
0.003000
  0
VERTEX
  8
AB0CS2S
 62
     3
  6
CONTINUOUS
 10
0.283665
 20
4.411043
  0
VERTEX
  8
AB0CS2S
 62
     3
  6
CONTINUOUS
 10
0.283665
 20
4.500583
  0
SEQEND
  8
0
  0
POLYLINE
  8
AB0CS2S
 62
     3
  6
CONTINUOUS
 66
     1
 40
0.003000
 41
0.003000
  0
VERTEX
  8
AB0CS2S
 62
     3
  6
CONTINUOUS
 10
0.283665
 20
4.120035
  0
VERTEX
  8
AB0CS2S
 62
     3
  6
CONTINUOUS
 10
0.283665
 20
4.209575
  0
SEQEND
  8
0
  0
POLYLINE
  8
AB0CS2S
 62
     3
  6
CONTINUOUS
 66
     1
 40
0.003000
 41
0.003000
  0
VERTEX
  8
AB0CS2S
 62
     3
  6
CONTINUOUS
 10
0.283665
 20
4.120035
  0
VERTEX
  8
AB0CS2S
 62
     3
  6
CONTINUOUS
 10
-0.029724
 20
4.120035
  0
SEQEND
  8
0
  0
POLYLINE
  8
AB0CS2S
 62
     3
  6
CONTINUOUS
 66
     1
 40
0.003000
 41
0.003000
  0
VERTEX
  8
AB0CS2S
 62
     3
  6
CONTINUOUS
 10
0.283665
 20
4.500583
  0
VERTEX
  8
AB0CS2S
 62
     3
  6
CONTINUOUS
 10
-0.029724
 20
4.500583
  0
SEQEND
  8
0
  0
POLYLINE
  8
AB0CS2S
 62
     3
  6
CONTINUOUS
 66
     1
 40
0.003000
 41
0.003000
  0
VERTEX
  8
AB0CS2S
 62
     3
  6
CONTINUOUS
 10
2.208783
 20
4.119594
  0
VERTEX
  8
AB0CS2S
 62
     3
  6
CONTINUOUS
 10
2.208783
 20
2.776929
  0
SEQEND
  8
0
  0
POLYLINE
  8
AB0CS2S
 62
     3
  6
CONTINUOUS
 66
     1
 40
0.003000
 41
0.003000
  0
VERTEX
  8
AB0CS2S
 62
     3
  6
CONTINUOUS
 10
1.671543
 20
4.117409
  0
VERTEX
  8
AB0CS2S
 62
     3
  6
CONTINUOUS
 10
1.671543
 20
2.911240
  0
SEQEND
  8
0
  0
POLYLINE
  8
AB0CS2S
 62
     3
  6
CONTINUOUS
 66
     1
 40
0.003000
 41
0.003000
  0
VERTEX
  8
AB0CS2S
 62
     3
  6
CONTINUOUS
 10
1.493878
 20
3.269402
  0
VERTEX
  8
AB0CS2S
 62
     3
  6
CONTINUOUS
 10
2.208783
 20
3.269402
  0
SEQEND
  8
0
  0
POLYLINE
  8
AB0CS2S
 62
     3
  6
CONTINUOUS
 66
     1
 40
0.003000
 41
0.003000
  0
VERTEX
  8
AB0CS2S
 62
     3
  6
CONTINUOUS
 10
1.502453
 20
3.224634
  0
VERTEX
  8
AB0CS2S
 62
     3
  6
CONTINUOUS
 10
2.208783
 20
3.224634
  0
SEQEND
  8
0
  0
POLYLINE
  8
AB0CS2S
 62
     3
  6
CONTINUOUS
 66
     1
 40
0.003000
 41
0.003000
  0
VERTEX
  8
AB0CS2S
 62
     3
  6
CONTINUOUS
 10
1.458224
 20
2.911240
  0
VERTEX
  8
AB0CS2S
 62
     3
  6
CONTINUOUS
 10
2.208783
 20
2.911240
  0
SEQEND
  8
0
  0
POLYLINE
  8
AB0CS2S
 62
     3
  6
CONTINUOUS
 66
     1
 40
0.003000
 41
0.003000
  0
VERTEX
  8
AB0CS2S
 62
     3
  6
CONTINUOUS
 10
1.413457
 20
2.776929
  0
VERTEX
  8
AB0CS2S
 62
     3
  6
CONTINUOUS
 10
2.208783
 20
2.776929
  0
SEQEND
  8
0
  0
POLYLINE
  8
AB0CS2S
 62
     3
  6
CONTINUOUS
 66
     1
 40
0.003000
 41
0.003000
  0
VERTEX
  8
AB0CS2S
 62
     3
  6
CONTINUOUS
 10
1.766843
 20
3.032488
  0
VERTEX
  8
AB0CS2S
 62
     3
  6
CONTINUOUS
 10
1.842429
 20
3.076130
  0
SEQEND
  8
0
  0
POLYLINE
  8
AB0CS2S
 62
     3
  6
CONTINUOUS
 66
     1
 40
0.003000
 41
0.003000
  0
VERTEX
  8
AB0CS2S
 62
     3
  6
CONTINUOUS
 10
1.766843
 20
3.390650
  0
VERTEX
  8
AB0CS2S
 62
     3
  6
CONTINUOUS
 10
1.842429
 20
3.434291
  0
SEQEND
  8
0
  0
POLYLINE
  8
AB0CS2S
 62
     3
  6
CONTINUOUS
 66
     1
 40
0.003000
 41
0.003000
  0
VERTEX
  8
AB0CS2S
 62
     3
  6
CONTINUOUS
 10
1.766843
 20
3.748811
  0
VERTEX
  8
AB0CS2S
 62
     3
  6
CONTINUOUS
 10
1.842429
 20
3.792453
  0
SEQEND
  8
0
  0
POLYLINE
  8
AB0CS2S
 62
     3
  6
CONTINUOUS
 66
     1
 40
0.003000
 41
0.003000
  0
VERTEX
  8
AB0CS2S
 62
     3
  6
CONTINUOUS
 10
1.766843
 20
4.106972
  0
VERTEX
  8
AB0CS2S
 62
     3
  6
CONTINUOUS
 10
1.798283
 20
4.125130
  0
SEQEND
  8
0
  0
POLYLINE
  8
AB0CS2S
 62
     3
  6
CONTINUOUS
 66
     1
 40
0.003000
 41
0.003000
  0
VERTEX
  8
AB0CS2S
 62
     3
  6
CONTINUOUS
 10
1.789228
 20
2.993720
  0
VERTEX
  8
AB0CS2S
 62
     3
  6
CONTINUOUS
 10
1.864815
 20
3.037358
  0
SEQEND
  8
0
  0
POLYLINE
  8
AB0CS2S
 62
     3
  6
CONTINUOUS
 66
     1
 40
0.003000
 41
0.003000
  0
VERTEX
  8
AB0CS2S
 62
     3
  6
CONTINUOUS
 10
1.789228
 20
3.351882
  0
VERTEX
  8
AB0CS2S
 62
     3
  6
CONTINUOUS
 10
1.864815
 20
3.395520
  0
SEQEND
  8
0
  0
POLYLINE
  8
AB0CS2S
 62
     3
  6
CONTINUOUS
 66
     1
 40
0.003000
 41
0.003000
  0
VERTEX
  8
AB0CS2S
 62
     3
  6
CONTINUOUS
 10
1.789228
 20
3.710043
  0
VERTEX
  8
AB0CS2S
 62
     3
  6
CONTINUOUS
 10
1.864815
 20
3.753681
  0
SEQEND
  8
0
  0
POLYLINE
  8
AB0CS2S
 62
     3
  6
CONTINUOUS
 66
     1
 40
0.003000
 41
0.003000
  0
VERTEX
  8
AB0CS2S
 62
     3
  6
CONTINUOUS
 10
1.789228
 20
4.068205
  0
VERTEX
  8
AB0CS2S
 62
     3
  6
CONTINUOUS
 10
1.864815
 20
4.111843
  0
SEQEND
  8
0
  0
POLYLINE
  8
AB0CS2S
 62
     3
  6
CONTINUOUS
 66
     1
 40
0.003000
 41
0.003000
  0
VERTEX
  8
AB0CS2S
 62
     3
  6
CONTINUOUS
 10
1.903587
 20
3.059744
  0
VERTEX
  8
AB0CS2S
 62
     3
  6
CONTINUOUS
 10
1.947228
 20
2.984157
  0
SEQEND
  8
0
  0
POLYLINE
  8
AB0CS2S
 62
     3
  6
CONTINUOUS
 66
     1
 40
0.003000
 41
0.003000
  0
VERTEX
  8
AB0CS2S
 62
     3
  6
CONTINUOUS
 10
1.903587
 20
3.417906
  0
VERTEX
  8
AB0CS2S
 62
     3
  6
CONTINUOUS
 10
1.947228
 20
3.342319
  0
SEQEND
  8
0
  0
POLYLINE
  8
AB0CS2S
 62
     3
  6
CONTINUOUS
 66
     1
 40
0.003000
 41
0.003000
  0
VERTEX
  8
AB0CS2S
 62
     3
  6
CONTINUOUS
 10
1.903587
 20
3.776067
  0
VERTEX
  8
AB0CS2S
 62
     3
  6
CONTINUOUS
 10
1.947228
 20
3.700480
  0
SEQEND
  8
0
  0
POLYLINE
  8
AB0CS2S
 62
     3
  6
CONTINUOUS
 66
     1
 40
0.003000
 41
0.003000
  0
VERTEX
  8
AB0CS2S
 62
     3
  6
CONTINUOUS
 10
1.922823
 20
4.100913
  0
VERTEX
  8
AB0CS2S
 62
     3
  6
CONTINUOUS
 10
1.947228
 20
4.058642
  0
SEQEND
  8
0
  0
POLYLINE
  8
AB0CS2S
 62
     3
  6
CONTINUOUS
 66
     1
 40
0.003000
 41
0.003000
  0
VERTEX
  8
AB0CS2S
 62
     3
  6
CONTINUOUS
 10
1.864815
 20
3.037358
  0
VERTEX
  8
AB0CS2S
 62
     3
  6
CONTINUOUS
 10
1.908453
 20
2.961772
  0
SEQEND
  8
0
  0
POLYLINE
  8
AB0CS2S
 62
     3
  6
CONTINUOUS
 66
     1
 40
0.003000
 41
0.003000
  0
VERTEX
  8
AB0CS2S
 62
     3
  6
CONTINUOUS
 10
1.864815
 20
3.395520
  0
VERTEX
  8
AB0CS2S
 62
     3
  6
CONTINUOUS
 10
1.908453
 20
3.319933
  0
SEQEND
  8
0
  0
POLYLINE
  8
AB0CS2S
 62
     3
  6
CONTINUOUS
 66
     1
 40
0.003000
 41
0.003000
  0
VERTEX
  8
AB0CS2S
 62
     3
  6
CONTINUOUS
 10
1.864815
 20
3.753681
  0
VERTEX
  8
AB0CS2S
 62
     3
  6
CONTINUOUS
 10
1.908453
 20
3.678094
  0
SEQEND
  8
0
  0
POLYLINE
  8
AB0CS2S
 62
     3
  6
CONTINUOUS
 66
     1
 40
0.003000
 41
0.003000
  0
VERTEX
  8
AB0CS2S
 62
     3
  6
CONTINUOUS
 10
1.864815
 20
4.111843
  0
VERTEX
  8
AB0CS2S
 62
     3
  6
CONTINUOUS
 10
1.908453
 20
4.036256
  0
SEQEND
  8
0
  0
POLYLINE
  8
AB0CS2S
 62
     3
  6
CONTINUOUS
 66
     1
 40
0.003000
 41
0.003000
  0
VERTEX
  8
AB0CS2S
 62
     3
  6
CONTINUOUS
 10
1.881205
 20
3.098516
  0
VERTEX
  8
AB0CS2S
 62
     3
  6
CONTINUOUS
 10
1.956787
 20
3.142157
  0
SEQEND
  8
0
  0
POLYLINE
  8
AB0CS2S
 62
     3
  6
CONTINUOUS
 66
     1
 40
0.003000
 41
0.003000
  0
VERTEX
  8
AB0CS2S
 62
     3
  6
CONTINUOUS
 10
1.881205
 20
3.456677
  0
VERTEX
  8
AB0CS2S
 62
     3
  6
CONTINUOUS
 10
1.956787
 20
3.500319
  0
SEQEND
  8
0
  0
POLYLINE
  8
AB0CS2S
 62
     3
  6
CONTINUOUS
 66
     1
 40
0.003000
 41
0.003000
  0
VERTEX
  8
AB0CS2S
 62
     3
  6
CONTINUOUS
 10
1.881205
 20
3.814839
  0
VERTEX
  8
AB0CS2S
 62
     3
  6
CONTINUOUS
 10
1.956787
 20
3.858480
  0
SEQEND
  8
0
  0
POLYLINE
  8
AB0CS2S
 62
     3
  6
CONTINUOUS
 66
     1
 40
0.003000
 41
0.003000
  0
VERTEX
  8
AB0CS2S
 62
     3
  6
CONTINUOUS
 10
1.903587
 20
3.059744
  0
VERTEX
  8
AB0CS2S
 62
     3
  6
CONTINUOUS
 10
1.979169
 20
3.103382
  0
SEQEND
  8
0
  0
POLYLINE
  8
AB0CS2S
 62
     3
  6
CONTINUOUS
 66
     1
 40
0.003000
 41
0.003000
  0
VERTEX
  8
AB0CS2S
 62
     3
  6
CONTINUOUS
 10
1.903587
 20
3.417906
  0
VERTEX
  8
AB0CS2S
 62
     3
  6
CONTINUOUS
 10
1.979169
 20
3.461543
  0
SEQEND
  8
0
  0
POLYLINE
  8
AB0CS2S
 62
     3
  6
CONTINUOUS
 66
     1
 40
0.003000
 41
0.003000
  0
VERTEX
  8
AB0CS2S
 62
     3
  6
CONTINUOUS
 10
1.903587
 20
3.776067
  0
VERTEX
  8
AB0CS2S
 62
     3
  6
CONTINUOUS
 10
1.979169
 20
3.819705
  0
SEQEND
  8
0
  0
POLYLINE
  8
AB0CS2S
 62
     3
  6
CONTINUOUS
 66
     1
 40
0.003000
 41
0.003000
  0
VERTEX
  8
AB0CS2S
 62
     3
  6
CONTINUOUS
 10
1.798787
 20
3.151717
  0
VERTEX
  8
AB0CS2S
 62
     3
  6
CONTINUOUS
 10
1.842429
 20
3.076130
  0
SEQEND
  8
0
  0
POLYLINE
  8
AB0CS2S
 62
     3
  6
CONTINUOUS
 66
     1
 40
0.003000
 41
0.003000
  0
VERTEX
  8
AB0CS2S
 62
     3
  6
CONTINUOUS
 10
1.798787
 20
3.509878
  0
VERTEX
  8
AB0CS2S
 62
     3
  6
CONTINUOUS
 10
1.842429
 20
3.434291
  0
SEQEND
  8
0
  0
POLYLINE
  8
AB0CS2S
 62
     3
  6
CONTINUOUS
 66
     1
 40
0.003000
 41
0.003000
  0
VERTEX
  8
AB0CS2S
 62
     3
  6
CONTINUOUS
 10
1.798787
 20
3.868039
  0
VERTEX
  8
AB0CS2S
 62
     3
  6
CONTINUOUS
 10
1.842429
 20
3.792453
  0
SEQEND
  8
0
  0
POLYLINE
  8
AB0CS2S
 62
     3
  6
CONTINUOUS
 66
     1
 40
0.003000
 41
0.003000
  0
VERTEX
  8
AB0CS2S
 62
     3
  6
CONTINUOUS
 10
1.837563
 20
3.174102
  0
VERTEX
  8
AB0CS2S
 62
     3
  6
CONTINUOUS
 10
1.881205
 20
3.098516
  0
SEQEND
  8
0
  0
POLYLINE
  8
AB0CS2S
 62
     3
  6
CONTINUOUS
 66
     1
 40
0.003000
 41
0.003000
  0
VERTEX
  8
AB0CS2S
 62
     3
  6
CONTINUOUS
 10
1.837563
 20
3.532264
  0
VERTEX
  8
AB0CS2S
 62
     3
  6
CONTINUOUS
 10
1.881205
 20
3.456677
  0
SEQEND
  8
0
  0
POLYLINE
  8
AB0CS2S
 62
     3
  6
CONTINUOUS
 66
     1
 40
0.003000
 41
0.003000
  0
VERTEX
  8
AB0CS2S
 62
     3
  6
CONTINUOUS
 10
1.837563
 20
3.890425
  0
VERTEX
  8
AB0CS2S
 62
     3
  6
CONTINUOUS
 10
1.881205
 20
3.814839
  0
SEQEND
  8
0
  0
POLYLINE
  8
AB0CS2S
 62
     3
  6
CONTINUOUS
 66
     1
 40
0.003000
 41
0.003000
  0
VERTEX
  8
AB0CS2S
 62
     3
  6
CONTINUOUS
 10
1.671543
 20
3.985724
  0
VERTEX
  8
AB0CS2S
 62
     3
  6
CONTINUOUS
 10
2.208783
 20
3.985724
  0
SEQEND
  8
0
  0
POLYLINE
  8
AB0CS2S
 62
     3
  6
CONTINUOUS
 66
     1
 40
0.003000
 41
0.003000
  0
VERTEX
  8
AB0CS2S
 62
     3
  6
CONTINUOUS
 10
1.671543
 20
3.940957
  0
VERTEX
  8
AB0CS2S
 62
     3
  6
CONTINUOUS
 10
2.208783
 20
3.940957
  0
SEQEND
  8
0
  0
POLYLINE
  8
AB0CS2S
 62
     3
  6
CONTINUOUS
 66
     1
 40
0.003000
 41
0.003000
  0
VERTEX
  8
AB0CS2S
 62
     3
  6
CONTINUOUS
 10
1.671543
 20
3.627563
  0
VERTEX
  8
AB0CS2S
 62
     3
  6
CONTINUOUS
 10
2.208783
 20
3.627563
  0
SEQEND
  8
0
  0
POLYLINE
  8
AB0CS2S
 62
     3
  6
CONTINUOUS
 66
     1
 40
0.003000
 41
0.003000
  0
VERTEX
  8
AB0CS2S
 62
     3
  6
CONTINUOUS
 10
1.671543
 20
3.582795
  0
VERTEX
  8
AB0CS2S
 62
     3
  6
CONTINUOUS
 10
2.208783
 20
3.582795
  0
SEQEND
  8
0
  0
POLYLINE
  8
AB0CS2S
 62
     3
  6
CONTINUOUS
 66
     1
 40
0.003000
 41
0.003000
  0
VERTEX
  8
AB0CS2S
 62
     3
  6
CONTINUOUS
 10
-2.626390
 20
3.023165
  0
VERTEX
  8
AB0CS2S
 62
     3
  6
CONTINUOUS
 10
-1.999610
 20
3.023165
  0
SEQEND
  8
0
  0
POLYLINE
  8
AB0CS2S
 62
     3
  6
CONTINUOUS
 66
     1
 40
0.003000
 41
0.003000
  0
VERTEX
  8
AB0CS2S
 62
     3
  6
CONTINUOUS
 10
-2.626390
 20
3.023165
  0
VERTEX
  8
AB0CS2S
 62
     3
  6
CONTINUOUS
 10
-2.626390
 20
3.493252
  0
SEQEND
  8
0
  0
POLYLINE
  8
AB0CS2S
 62
     3
  6
CONTINUOUS
 66
     1
 40
0.003000
 41
0.003000
  0
VERTEX
  8
AB0CS2S
 62
     3
  6
CONTINUOUS
 10
-2.626390
 20
3.493252
  0
VERTEX
  8
AB0CS2S
 62
     3
  6
CONTINUOUS
 10
-2.715933
 20
3.694720
  0
SEQEND
  8
0
  0
POLYLINE
  8
AB0CS2S
 62
     3
  6
CONTINUOUS
 66
     1
 40
0.003000
 41
0.003000
  0
VERTEX
  8
AB0CS2S
 62
     3
  6
CONTINUOUS
 10
-2.626390
 20
3.694720
  0
VERTEX
  8
AB0CS2S
 62
     3
  6
CONTINUOUS
 10
-2.626390
 20
3.784260
  0
SEQEND
  8
0
  0
POLYLINE
  8
AB0CS2S
 62
     3
  6
CONTINUOUS
 66
     1
 40
0.003000
 41
0.003000
  0
VERTEX
  8
AB0CS2S
 62
     3
  6
CONTINUOUS
 10
-2.626390
 20
3.784260
  0
VERTEX
  8
AB0CS2S
 62
     3
  6
CONTINUOUS
 10
-1.999610
 20
3.784260
  0
SEQEND
  8
0
  0
POLYLINE
  8
AB0CS2S
 62
     3
  6
CONTINUOUS
 66
     1
 40
0.003000
 41
0.003000
  0
VERTEX
  8
AB0CS2S
 62
     3
  6
CONTINUOUS
 10
-2.313000
 20
3.403713
  0
VERTEX
  8
AB0CS2S
 62
     3
  6
CONTINUOUS
 10
-1.999610
 20
3.403713
  0
SEQEND
  8
0
  0
POLYLINE
  8
AB0CS2S
 62
     3
  6
CONTINUOUS
 66
     1
 40
0.003000
 41
0.003000
  0
VERTEX
  8
AB0CS2S
 62
     3
  6
CONTINUOUS
 10
-2.313000
 20
3.694720
  0
VERTEX
  8
AB0CS2S
 62
     3
  6
CONTINUOUS
 10
-2.313000
 20
3.784260
  0
SEQEND
  8
0
  0
POLYLINE
  8
AB0CS2S
 62
     3
  6
CONTINUOUS
 66
     1
 40
0.003000
 41
0.003000
  0
VERTEX
  8
AB0CS2S
 62
     3
  6
CONTINUOUS
 10
-2.313000
 20
3.493252
  0
VERTEX
  8
AB0CS2S
 62
     3
  6
CONTINUOUS
 10
-2.402539
 20
3.694720
  0
SEQEND
  8
0
  0
POLYLINE
  8
AB0CS2S
 62
     3
  6
CONTINUOUS
 66
     1
 40
0.003000
 41
0.003000
  0
VERTEX
  8
AB0CS2S
 62
     3
  6
CONTINUOUS
 10
-2.313000
 20
3.403713
  0
VERTEX
  8
AB0CS2S
 62
     3
  6
CONTINUOUS
 10
-2.313000
 20
3.493252
  0
SEQEND
  8
0
  0
POLYLINE
  8
AB0CS2S
 62
     3
  6
CONTINUOUS
 66
     1
 40
0.003000
 41
0.003000
  0
VERTEX
  8
AB0CS2S
 62
     3
  6
CONTINUOUS
 10
2.522177
 20
3.000780
  0
VERTEX
  8
AB0CS2S
 62
     3
  6
CONTINUOUS
 10
2.522177
 20
3.448484
  0
SEQEND
  8
0
  0
POLYLINE
  8
AB0CS2S
 62
     3
  6
CONTINUOUS
 66
     1
 40
0.003000
 41
0.003000
  0
VERTEX
  8
AB0CS2S
 62
     3
  6
CONTINUOUS
 10
2.455020
 20
3.448484
  0
VERTEX
  8
AB0CS2S
 62
     3
  6
CONTINUOUS
 10
2.455020
 20
3.717102
  0
SEQEND
  8
0
  0
POLYLINE
  8
AB0CS2S
 62
     3
  6
CONTINUOUS
 66
     1
 40
0.003000
 41
0.003000
  0
VERTEX
  8
AB0CS2S
 62
     3
  6
CONTINUOUS
 10
2.589331
 20
3.448484
  0
VERTEX
  8
AB0CS2S
 62
     3
  6
CONTINUOUS
 10
2.589331
 20
3.717102
  0
SEQEND
  8
0
  0
POLYLINE
  8
AB0CS2S
 62
     3
  6
CONTINUOUS
 66
     1
 40
0.003000
 41
0.003000
  0
VERTEX
  8
AB0CS2S
 62
     3
  6
CONTINUOUS
 10
2.455020
 20
3.448484
  0
VERTEX
  8
AB0CS2S
 62
     3
  6
CONTINUOUS
 10
2.589331
 20
3.448484
  0
SEQEND
  8
0
  0
POLYLINE
  8
AB0CS2S
 62
     3
  6
CONTINUOUS
 66
     1
 40
0.003000
 41
0.003000
  0
VERTEX
  8
AB0CS2S
 62
     3
  6
CONTINUOUS
 10
2.455020
 20
3.717102
  0
VERTEX
  8
AB0CS2S
 62
     3
  6
CONTINUOUS
 10
2.589331
 20
3.717102
  0
SEQEND
  8
0
  0
POLYLINE
  8
AB0CS2S
 62
     3
  6
CONTINUOUS
 66
     1
 40
0.003000
 41
0.003000
  0
VERTEX
  8
AB0CS2S
 62
     3
  6
CONTINUOUS
 10
2.522177
 20
3.761874
  0
VERTEX
  8
AB0CS2S
 62
     3
  6
CONTINUOUS
 10
2.208783
 20
3.761874
  0
SEQEND
  8
0
  0
POLYLINE
  8
AB0CS2S
 62
     3
  6
CONTINUOUS
 66
     1
 40
0.003000
 41
0.003000
  0
VERTEX
  8
AB0CS2S
 62
     3
  6
CONTINUOUS
 10
2.522177
 20
3.000780
  0
VERTEX
  8
AB0CS2S
 62
     3
  6
CONTINUOUS
 10
2.208783
 20
3.000780
  0
SEQEND
  8
0
  0
POLYLINE
  8
AB0CS2S
 62
     3
  6
CONTINUOUS
 66
     1
 40
0.003000
 41
0.003000
  0
VERTEX
  8
AB0CS2S
 62
     3
  6
CONTINUOUS
 10
2.522177
 20
3.381327
  0
VERTEX
  8
AB0CS2S
 62
     3
  6
CONTINUOUS
 10
2.208783
 20
3.381327
  0
SEQEND
  8
0
  0
POLYLINE
  8
AB0CS2S
 62
     3
  6
CONTINUOUS
 66
     1
 40
0.003000
 41
0.003000
  0
VERTEX
  8
AB0CS2S
 62
     3
  6
CONTINUOUS
 10
2.522177
 20
3.717102
  0
VERTEX
  8
AB0CS2S
 62
     3
  6
CONTINUOUS
 10
2.522177
 20
3.761874
  0
SEQEND
  8
0
  0
POLYLINE
  8
AB0CS2S
 62
     3
  6
CONTINUOUS
 66
     1
 40
0.003000
 41
0.003000
  0
VERTEX
  8
AB0CS2S
 62
     3
  6
CONTINUOUS
 10
-1.999610
 20
2.776929
  0
VERTEX
  8
AB0CS2S
 62
     3
  6
CONTINUOUS
 10
-0.029724
 20
2.776929
  0
SEQEND
  8
0
  0
POLYLINE
  8
AB0CS2S
 62
     3
  6
CONTINUOUS
 66
     1
 40
0.003000
 41
0.003000
  0
VERTEX
  8
AB0CS2S
 62
     3
  6
CONTINUOUS
 10
-1.148980
 20
4.061835
  0
VERTEX
  8
AB0CS2S
 62
     3
  6
CONTINUOUS
 10
-0.925130
 20
4.061835
  0
SEQEND
  8
0
  0
POLYLINE
  8
AB0CS2S
 62
     3
  6
CONTINUOUS
 66
     1
 40
0.003000
 41
0.003000
  0
VERTEX
  8
AB0CS2S
 62
     3
  6
CONTINUOUS
 10
-1.148980
 20
4.478197
  0
VERTEX
  8
AB0CS2S
 62
     3
  6
CONTINUOUS
 10
-0.925130
 20
4.478197
  0
SEQEND
  8
0
  0
POLYLINE
  8
AB0CS2S
 62
     3
  6
CONTINUOUS
 66
     1
 40
0.003000
 41
0.003000
  0
VERTEX
  8
AB0CS2S
 62
     3
  6
CONTINUOUS
 10
-1.148980
 20
4.478197
  0
VERTEX
  8
AB0CS2S
 62
     3
  6
CONTINUOUS
 10
-1.148980
 20
4.061835
  0
SEQEND
  8
0
  0
POLYLINE
  8
AB0CS2S
 62
     3
  6
CONTINUOUS
 66
     1
 40
0.003000
 41
0.003000
  0
VERTEX
  8
AB0CS2S
 62
     3
  6
CONTINUOUS
 10
-0.925130
 20
4.478197
  0
VERTEX
  8
AB0CS2S
 62
     3
  6
CONTINUOUS
 10
-0.925130
 20
4.061835
  0
SEQEND
  8
0
  0
POLYLINE
  8
AB0CS2S
 62
     3
  6
CONTINUOUS
 66
     1
 40
0.003000
 41
0.003000
  0
VERTEX
  8
AB0CS2S
 62
     3
  6
CONTINUOUS
 10
-0.566969
 20
3.582795
  0
VERTEX
  8
AB0CS2S
 62
     3
  6
CONTINUOUS
 10
-0.029724
 20
3.582795
  0
SEQEND
  8
0
  0
POLYLINE
  8
AB0CS2S
 62
     3
  6
CONTINUOUS
 66
     1
 40
0.003000
 41
0.003000
  0
VERTEX
  8
AB0CS2S
 62
     3
  6
CONTINUOUS
 10
-0.566969
 20
3.627563
  0
VERTEX
  8
AB0CS2S
 62
     3
  6
CONTINUOUS
 10
-0.029724
 20
3.627563
  0
SEQEND
  8
0
  0
POLYLINE
  8
AB0CS2S
 62
     3
  6
CONTINUOUS
 66
     1
 40
0.003000
 41
0.003000
  0
VERTEX
  8
AB0CS2S
 62
     3
  6
CONTINUOUS
 10
-0.566969
 20
3.940957
  0
VERTEX
  8
AB0CS2S
 62
     3
  6
CONTINUOUS
 10
-0.029724
 20
3.940957
  0
SEQEND
  8
0
  0
POLYLINE
  8
AB0CS2S
 62
     3
  6
CONTINUOUS
 66
     1
 40
0.003000
 41
0.003000
  0
VERTEX
  8
AB0CS2S
 62
     3
  6
CONTINUOUS
 10
-0.566969
 20
3.985724
  0
VERTEX
  8
AB0CS2S
 62
     3
  6
CONTINUOUS
 10
-0.029724
 20
3.985724
  0
SEQEND
  8
0
  0
POLYLINE
  8
AB0CS2S
 62
     3
  6
CONTINUOUS
 66
     1
 40
0.003000
 41
0.003000
  0
VERTEX
  8
AB0CS2S
 62
     3
  6
CONTINUOUS
 10
-0.566969
 20
4.299118
  0
VERTEX
  8
AB0CS2S
 62
     3
  6
CONTINUOUS
 10
-0.029724
 20
4.299118
  0
SEQEND
  8
0
  0
POLYLINE
  8
AB0CS2S
 62
     3
  6
CONTINUOUS
 66
     1
 40
0.003000
 41
0.003000
  0
VERTEX
  8
AB0CS2S
 62
     3
  6
CONTINUOUS
 10
-0.566969
 20
4.343886
  0
VERTEX
  8
AB0CS2S
 62
     3
  6
CONTINUOUS
 10
-0.029724
 20
4.343886
  0
SEQEND
  8
0
  0
POLYLINE
  8
AB0CS2S
 62
     3
  6
CONTINUOUS
 66
     1
 40
0.003000
 41
0.003000
  0
VERTEX
  8
AB0CS2S
 62
     3
  6
CONTINUOUS
 10
-0.566969
 20
4.657280
  0
VERTEX
  8
AB0CS2S
 62
     3
  6
CONTINUOUS
 10
-0.566969
 20
2.911240
  0
SEQEND
  8
0
  0
POLYLINE
  8
AB0CS2S
 62
     3
  6
CONTINUOUS
 66
     1
 40
0.003000
 41
0.003000
  0
VERTEX
  8
AB0CS2S
 62
     3
  6
CONTINUOUS
 10
-1.462366
 20
4.657280
  0
VERTEX
  8
AB0CS2S
 62
     3
  6
CONTINUOUS
 10
-1.462366
 20
2.911240
  0
SEQEND
  8
0
  0
POLYLINE
  8
AB0CS2S
 62
     3
  6
CONTINUOUS
 66
     1
 40
0.003000
 41
0.003000
  0
VERTEX
  8
AB0CS2S
 62
     3
  6
CONTINUOUS
 10
-1.999610
 20
4.657280
  0
VERTEX
  8
AB0CS2S
 62
     3
  6
CONTINUOUS
 10
-0.029724
 20
4.657280
  0
SEQEND
  8
0
  0
POLYLINE
  8
AB0CS2S
 62
     3
  6
CONTINUOUS
 66
     1
 40
0.003000
 41
0.003000
  0
VERTEX
  8
AB0CS2S
 62
     3
  6
CONTINUOUS
 10
-1.999610
 20
4.343886
  0
VERTEX
  8
AB0CS2S
 62
     3
  6
CONTINUOUS
 10
-1.462366
 20
4.343886
  0
SEQEND
  8
0
  0
POLYLINE
  8
AB0CS2S
 62
     3
  6
CONTINUOUS
 66
     1
 40
0.003000
 41
0.003000
  0
VERTEX
  8
AB0CS2S
 62
     3
  6
CONTINUOUS
 10
-1.999610
 20
4.299118
  0
VERTEX
  8
AB0CS2S
 62
     3
  6
CONTINUOUS
 10
-1.462366
 20
4.299118
  0
SEQEND
  8
0
  0
POLYLINE
  8
AB0CS2S
 62
     3
  6
CONTINUOUS
 66
     1
 40
0.003000
 41
0.003000
  0
VERTEX
  8
AB0CS2S
 62
     3
  6
CONTINUOUS
 10
-1.999610
 20
3.985724
  0
VERTEX
  8
AB0CS2S
 62
     3
  6
CONTINUOUS
 10
-1.462366
 20
3.985724
  0
SEQEND
  8
0
  0
POLYLINE
  8
AB0CS2S
 62
     3
  6
CONTINUOUS
 66
     1
 40
0.003000
 41
0.003000
  0
VERTEX
  8
AB0CS2S
 62
     3
  6
CONTINUOUS
 10
-1.999610
 20
3.940957
  0
VERTEX
  8
AB0CS2S
 62
     3
  6
CONTINUOUS
 10
-1.462366
 20
3.940957
  0
SEQEND
  8
0
  0
POLYLINE
  8
AB0CS2S
 62
     3
  6
CONTINUOUS
 66
     1
 40
0.003000
 41
0.003000
  0
VERTEX
  8
AB0CS2S
 62
     3
  6
CONTINUOUS
 10
-1.999610
 20
3.627563
  0
VERTEX
  8
AB0CS2S
 62
     3
  6
CONTINUOUS
 10
-1.462366
 20
3.627563
  0
SEQEND
  8
0
  0
POLYLINE
  8
AB0CS2S
 62
     3
  6
CONTINUOUS
 66
     1
 40
0.003000
 41
0.003000
  0
VERTEX
  8
AB0CS2S
 62
     3
  6
CONTINUOUS
 10
-1.999610
 20
3.582795
  0
VERTEX
  8
AB0CS2S
 62
     3
  6
CONTINUOUS
 10
-1.462366
 20
3.582795
  0
SEQEND
  8
0
  0
POLYLINE
  8
AB0CS2S
 62
     3
  6
CONTINUOUS
 66
     1
 40
0.003000
 41
0.003000
  0
VERTEX
  8
AB0CS2S
 62
     3
  6
CONTINUOUS
 10
-1.999610
 20
3.269402
  0
VERTEX
  8
AB0CS2S
 62
     3
  6
CONTINUOUS
 10
-0.029724
 20
3.269402
  0
SEQEND
  8
0
  0
POLYLINE
  8
AB0CS2S
 62
     3
  6
CONTINUOUS
 66
     1
 40
0.003000
 41
0.003000
  0
VERTEX
  8
AB0CS2S
 62
     3
  6
CONTINUOUS
 10
-1.999610
 20
3.224634
  0
VERTEX
  8
AB0CS2S
 62
     3
  6
CONTINUOUS
 10
-0.029724
 20
3.224634
  0
SEQEND
  8
0
  0
POLYLINE
  8
AB0CS2S
 62
     3
  6
CONTINUOUS
 66
     1
 40
0.003000
 41
0.003000
  0
VERTEX
  8
AB0CS2S
 62
     3
  6
CONTINUOUS
 10
-1.999610
 20
2.911240
  0
VERTEX
  8
AB0CS2S
 62
     3
  6
CONTINUOUS
 10
-0.029724
 20
2.911240
  0
SEQEND
  8
0
  0
POLYLINE
  8
AB0CS2S
 62
     3
  6
CONTINUOUS
 66
     1
 40
0.003000
 41
0.003000
  0
VERTEX
  8
AB0CS2S
 62
     3
  6
CONTINUOUS
 10
-0.029724
 20
4.791591
  0
VERTEX
  8
AB0CS2S
 62
     3
  6
CONTINUOUS
 10
-0.029724
 20
2.776929
  0
SEQEND
  8
0
  0
POLYLINE
  8
AB0CS2S
 62
     3
  6
CONTINUOUS
 66
     1
 40
0.003000
 41
0.003000
  0
VERTEX
  8
AB0CS2S
 62
     3
  6
CONTINUOUS
 10
-1.999610
 20
4.791591
  0
VERTEX
  8
AB0CS2S
 62
     3
  6
CONTINUOUS
 10
-0.029724
 20
4.791591
  0
SEQEND
  8
0
  0
POLYLINE
  8
AB0CS2S
 62
     3
  6
CONTINUOUS
 66
     1
 40
0.003000
 41
0.003000
  0
VERTEX
  8
AB0CS2S
 62
     3
  6
CONTINUOUS
 10
-1.999610
 20
2.776929
  0
VERTEX
  8
AB0CS2S
 62
     3
  6
CONTINUOUS
 10
-1.999610
 20
4.791591
  0
SEQEND
  8
0
  0
ENDSEC
  0
EOF
