  0
SECTION
  2
HEADER
  9
$ACADVER
  1
AC1006
  9
$EXTMIN
 10
-4.119280
 20
-0.631343
  9
$EXTMAX
 10
0.781961
 20
4.331736
  9
$LTSCALE
 40
0.000394
  9
$PDMODE
 70
    35
  9
$PDSIZE
 40
0.000315
  0
ENDSEC
  0
SECTION
  2
TABLES
  0
TABLE
  2
LTYPE
 70
     9
  0
LTYPE
  2
CONTINUOUS
 70
    64
  3
Solid line
 72
    65
 73
     0
 40
0.000000
  0
LTYPE
  2
DASHED
 70
    64
  3
__ __ __ __ __ __ __ __ __ __ __ __ __ __ __
 72
    65
 73
     2
 40
0.000003
 49
0.000002
 49
-0.000001
  0
LTYPE
  2
HIDDEN
 70
    64
  3
 _ _ _ _ _ _ _ _ _ _ _ _ _ _ _ _ _ _ _ _ _ _
 72
    65
 73
     2
 40
0.000001
 49
0.000001
 49
-0.000000
  0
LTYPE
  2
CENTER
 70
    64
  3
____ _ ____ _ ____ _ ____ _ ____ _ ____ _ ____
 72
    65
 73
     4
 40
0.000008
 49
0.000005
 49
-0.000001
 49
0.000001
 49
-0.000001
  0
LTYPE
  2
PHANTOM
 70
    64
  3
_____ _ _ _____ _ _ _____ _ _ _____ _ _ ____
 72
    65
 73
     6
 40
0.000010
 49
0.000005
 49
-0.000001
 49
0.000001
 49
-0.000001
 49
0.000001
 49
-0.000001
  0
LTYPE
  2
DOT
 70
    64
  3
...............................................
 72
    65
 73
     2
 40
0.000001
 49
0.000000
 49
-0.000001
  0
LTYPE
  2
DASHDOT
 70
    64
  3
__ . __ . __ . __ . __ . __ . __ . __ . __ . __
 72
    65
 73
     4
 40
0.000004
 49
0.000002
 49
-0.000001
 49
0.000000
 49
-0.000001
  0
LTYPE
  2
BORDER
 70
    64
  3
__ __ . __ __ . __ __ . __ __ . __ __ . __ __
 72
    65
 73
     6
 40
0.000007
 49
0.000002
 49
-0.000001
 49
0.000002
 49
-0.000001
 49
0.000000
 49
-0.000001
  0
LTYPE
  2
DIVIDE
 70
    64
  3
__ . . __ . . __ . . __ . . __ . . __ . . __
 72
    65
 73
     6
 40
0.000005
 49
0.000002
 49
-0.000001
 49
0.000000
 49
-0.000001
 49
0.000000
 49
-0.000001
  0
LTYPE
  2
DOTDOT
 70
    64
  3
 . .  . .  . .  . .  . .  . . 
 72
    65
 73
     5
 40
0.000002
 49
-0.000001
 49
0.000000
 49
-0.000001
 49
0.000000
 49
-0.000001
  0
ENDTAB
  0
TABLE
  2
STYLE
 70
     2
  0
STYLE
 70
     0
  2
SN0
 40
0.000000
 41
0.000004
 50
0.000000
 71
     0
 42
0.000000
  3
GERMANI
  0
STYLE
 70
    68
  2
SV0
 40
0.000000
 41
0.000004
 50
0.000000
 71
     0
 42
0.000000
  3
GERMANI
  0
ENDTAB
  0
TABLE
  2
LAYER
 70
     5
  0
LAYER
  2
FOREGROUND
 70
    64
 62
     7
  6
CONTINUOUS
  0
LAYER
  2
BACKGROUND
 70
    65
 62
    -7
  6
CONTINUOUS
  0
LAYER
  2
GEO0BEMA
 70
    64
 62
     7
  6
CONTINUOUS
  0
LAYER
  2
0O0RAH
 70
    64
 62
     7
  6
CONTINUOUS
  0
LAYER
  2
0O0ZEIT
 70
    64
 62
     7
  6
CONTINUOUS
  0
ENDTAB
  0
ENDSEC
  0
SECTION
  2
ENTITIES
  0
POLYLINE
  8
GEO0BEMA
  6
CONTINUOUS
 66
     1
 40
0.003000
 41
0.003000
  0
VERTEX
  8
GEO0BEMA
  6
CONTINUOUS
 10
0.168756
 20
2.018854
  0
VERTEX
  8
GEO0BEMA
  6
CONTINUOUS
 10
0.178619
 20
2.025349
  0
VERTEX
  8
GEO0BEMA
  6
CONTINUOUS
 10
0.186276
 20
2.034407
  0
VERTEX
  8
GEO0BEMA
  6
CONTINUOUS
 10
0.191016
 20
2.045280
  0
SEQEND
  8
0
  0
POLYLINE
  8
GEO0BEMA
 62
    93
  6
CONTINUOUS
 66
     1
 40
0.003000
 41
0.003000
  0
VERTEX
  8
GEO0BEMA
 62
    93
  6
CONTINUOUS
 10
0.168756
 20
2.018854
  0
VERTEX
  8
GEO0BEMA
 62
    93
  6
CONTINUOUS
 10
0.178619
 20
2.025349
  0
VERTEX
  8
GEO0BEMA
 62
    93
  6
CONTINUOUS
 10
0.186276
 20
2.034407
  0
VERTEX
  8
GEO0BEMA
 62
    93
  6
CONTINUOUS
 10
0.191016
 20
2.045280
  0
SEQEND
  8
0
  0
POLYLINE
  8
GEO0BEMA
  6
CONTINUOUS
 66
     1
 40
0.003000
 41
0.003000
  0
VERTEX
  8
GEO0BEMA
  6
CONTINUOUS
 10
0.168579
 20
2.018705
  0
VERTEX
  8
GEO0BEMA
  6
CONTINUOUS
 10
0.127348
 20
1.988876
  0
VERTEX
  8
GEO0BEMA
  6
CONTINUOUS
 10
0.100109
 20
1.946234
  0
VERTEX
  8
GEO0BEMA
  6
CONTINUOUS
 10
0.090272
 20
1.895949
  0
SEQEND
  8
0
  0
POLYLINE
  8
GEO0BEMA
  6
CONTINUOUS
 66
     1
 40
0.003000
 41
0.003000
  0
VERTEX
  8
GEO0BEMA
  6
CONTINUOUS
 10
0.090272
 20
1.895949
  0
VERTEX
  8
GEO0BEMA
  6
CONTINUOUS
 10
0.093877
 20
1.865143
  0
VERTEX
  8
GEO0BEMA
  6
CONTINUOUS
 10
0.104303
 20
1.836101
  0
VERTEX
  8
GEO0BEMA
  6
CONTINUOUS
 10
0.120961
 20
1.810232
  0
SEQEND
  8
0
  0
POLYLINE
  8
GEO0BEMA
 62
    93
  6
CONTINUOUS
 66
     1
 40
0.003000
 41
0.003000
  0
VERTEX
  8
GEO0BEMA
 62
    93
  6
CONTINUOUS
 10
0.168579
 20
2.018705
  0
VERTEX
  8
GEO0BEMA
 62
    93
  6
CONTINUOUS
 10
0.127348
 20
1.988876
  0
VERTEX
  8
GEO0BEMA
 62
    93
  6
CONTINUOUS
 10
0.100109
 20
1.946234
  0
VERTEX
  8
GEO0BEMA
 62
    93
  6
CONTINUOUS
 10
0.090272
 20
1.895949
  0
SEQEND
  8
0
  0
POLYLINE
  8
GEO0BEMA
 62
    93
  6
CONTINUOUS
 66
     1
 40
0.003000
 41
0.003000
  0
VERTEX
  8
GEO0BEMA
 62
    93
  6
CONTINUOUS
 10
0.090272
 20
1.895949
  0
VERTEX
  8
GEO0BEMA
 62
    93
  6
CONTINUOUS
 10
0.093877
 20
1.865143
  0
VERTEX
  8
GEO0BEMA
 62
    93
  6
CONTINUOUS
 10
0.104303
 20
1.836101
  0
VERTEX
  8
GEO0BEMA
 62
    93
  6
CONTINUOUS
 10
0.120961
 20
1.810232
  0
SEQEND
  8
0
  0
POLYLINE
  8
GEO0BEMA
  6
CONTINUOUS
 66
     1
 40
0.003000
 41
0.003000
  0
VERTEX
  8
GEO0BEMA
  6
CONTINUOUS
 10
0.120803
 20
1.810299
  0
VERTEX
  8
GEO0BEMA
  6
CONTINUOUS
 10
0.124376
 20
1.807089
  0
VERTEX
  8
GEO0BEMA
  6
CONTINUOUS
 10
0.128717
 20
1.805015
  0
VERTEX
  8
GEO0BEMA
  6
CONTINUOUS
 10
0.133484
 20
1.804280
  0
SEQEND
  8
0
  0
POLYLINE
  8
GEO0BEMA
  6
CONTINUOUS
 66
     1
 40
0.003000
 41
0.003000
  0
VERTEX
  8
GEO0BEMA
  6
CONTINUOUS
 10
0.133484
 20
1.804280
  0
VERTEX
  8
GEO0BEMA
  6
CONTINUOUS
 10
0.141747
 20
1.806524
  0
VERTEX
  8
GEO0BEMA
  6
CONTINUOUS
 10
0.147634
 20
1.812411
  0
VERTEX
  8
GEO0BEMA
  6
CONTINUOUS
 10
0.149878
 20
1.820673
  0
SEQEND
  8
0
  0
POLYLINE
  8
GEO0BEMA
 62
    93
  6
CONTINUOUS
 66
     1
 40
0.003000
 41
0.003000
  0
VERTEX
  8
GEO0BEMA
 62
    93
  6
CONTINUOUS
 10
0.120803
 20
1.810299
  0
VERTEX
  8
GEO0BEMA
 62
    93
  6
CONTINUOUS
 10
0.124376
 20
1.807089
  0
VERTEX
  8
GEO0BEMA
 62
    93
  6
CONTINUOUS
 10
0.128717
 20
1.805015
  0
VERTEX
  8
GEO0BEMA
 62
    93
  6
CONTINUOUS
 10
0.133484
 20
1.804280
  0
SEQEND
  8
0
  0
POLYLINE
  8
GEO0BEMA
 62
    93
  6
CONTINUOUS
 66
     1
 40
0.003000
 41
0.003000
  0
VERTEX
  8
GEO0BEMA
 62
    93
  6
CONTINUOUS
 10
0.133484
 20
1.804280
  0
VERTEX
  8
GEO0BEMA
 62
    93
  6
CONTINUOUS
 10
0.141747
 20
1.806524
  0
VERTEX
  8
GEO0BEMA
 62
    93
  6
CONTINUOUS
 10
0.147634
 20
1.812411
  0
VERTEX
  8
GEO0BEMA
 62
    93
  6
CONTINUOUS
 10
0.149878
 20
1.820673
  0
SEQEND
  8
0
  0
POLYLINE
  8
GEO0BEMA
  6
CONTINUOUS
 66
     1
 40
0.003000
 41
0.003000
  0
VERTEX
  8
GEO0BEMA
  6
CONTINUOUS
 10
0.297469
 20
1.815913
  0
VERTEX
  8
GEO0BEMA
  6
CONTINUOUS
 10
0.299713
 20
1.807648
  0
VERTEX
  8
GEO0BEMA
  6
CONTINUOUS
 10
0.305601
 20
1.801760
  0
VERTEX
  8
GEO0BEMA
  6
CONTINUOUS
 10
0.313866
 20
1.799516
  0
SEQEND
  8
0
  0
POLYLINE
  8
GEO0BEMA
  6
CONTINUOUS
 66
     1
 40
0.003000
 41
0.003000
  0
VERTEX
  8
GEO0BEMA
  6
CONTINUOUS
 10
0.313866
 20
1.799516
  0
VERTEX
  8
GEO0BEMA
  6
CONTINUOUS
 10
0.318387
 20
1.800156
  0
VERTEX
  8
GEO0BEMA
  6
CONTINUOUS
 10
0.322538
 20
1.801992
  0
VERTEX
  8
GEO0BEMA
  6
CONTINUOUS
 10
0.326035
 20
1.804898
  0
SEQEND
  8
0
  0
POLYLINE
  8
GEO0BEMA
 62
    93
  6
CONTINUOUS
 66
     1
 40
0.003000
 41
0.003000
  0
VERTEX
  8
GEO0BEMA
 62
    93
  6
CONTINUOUS
 10
0.297469
 20
1.815913
  0
VERTEX
  8
GEO0BEMA
 62
    93
  6
CONTINUOUS
 10
0.299713
 20
1.807648
  0
VERTEX
  8
GEO0BEMA
 62
    93
  6
CONTINUOUS
 10
0.305601
 20
1.801760
  0
VERTEX
  8
GEO0BEMA
 62
    93
  6
CONTINUOUS
 10
0.313866
 20
1.799516
  0
SEQEND
  8
0
  0
POLYLINE
  8
GEO0BEMA
 62
    93
  6
CONTINUOUS
 66
     1
 40
0.003000
 41
0.003000
  0
VERTEX
  8
GEO0BEMA
 62
    93
  6
CONTINUOUS
 10
0.313866
 20
1.799516
  0
VERTEX
  8
GEO0BEMA
 62
    93
  6
CONTINUOUS
 10
0.318387
 20
1.800156
  0
VERTEX
  8
GEO0BEMA
 62
    93
  6
CONTINUOUS
 10
0.322538
 20
1.801992
  0
VERTEX
  8
GEO0BEMA
 62
    93
  6
CONTINUOUS
 10
0.326035
 20
1.804898
  0
SEQEND
  8
0
  0
POLYLINE
  8
GEO0BEMA
  6
CONTINUOUS
 66
     1
 40
0.003000
 41
0.003000
  0
VERTEX
  8
GEO0BEMA
  6
CONTINUOUS
 10
0.326256
 20
1.804941
  0
VERTEX
  8
GEO0BEMA
  6
CONTINUOUS
 10
0.345187
 20
1.831945
  0
VERTEX
  8
GEO0BEMA
  6
CONTINUOUS
 10
0.357062
 20
1.862947
  0
VERTEX
  8
GEO0BEMA
  6
CONTINUOUS
 10
0.361177
 20
1.895949
  0
SEQEND
  8
0
  0
POLYLINE
  8
GEO0BEMA
  6
CONTINUOUS
 66
     1
 40
0.003000
 41
0.003000
  0
VERTEX
  8
GEO0BEMA
  6
CONTINUOUS
 10
0.361177
 20
1.895949
  0
VERTEX
  8
GEO0BEMA
  6
CONTINUOUS
 10
0.356259
 20
1.931517
  0
VERTEX
  8
GEO0BEMA
  6
CONTINUOUS
 10
0.342287
 20
1.964616
  0
VERTEX
  8
GEO0BEMA
  6
CONTINUOUS
 10
0.320437
 20
1.992776
  0
SEQEND
  8
0
  0
POLYLINE
  8
GEO0BEMA
 62
    93
  6
CONTINUOUS
 66
     1
 40
0.003000
 41
0.003000
  0
VERTEX
  8
GEO0BEMA
 62
    93
  6
CONTINUOUS
 10
0.326256
 20
1.804941
  0
VERTEX
  8
GEO0BEMA
 62
    93
  6
CONTINUOUS
 10
0.345187
 20
1.831945
  0
VERTEX
  8
GEO0BEMA
 62
    93
  6
CONTINUOUS
 10
0.357062
 20
1.862947
  0
VERTEX
  8
GEO0BEMA
 62
    93
  6
CONTINUOUS
 10
0.361177
 20
1.895949
  0
SEQEND
  8
0
  0
POLYLINE
  8
GEO0BEMA
 62
    93
  6
CONTINUOUS
 66
     1
 40
0.003000
 41
0.003000
  0
VERTEX
  8
GEO0BEMA
 62
    93
  6
CONTINUOUS
 10
0.361177
 20
1.895949
  0
VERTEX
  8
GEO0BEMA
 62
    93
  6
CONTINUOUS
 10
0.356259
 20
1.931517
  0
VERTEX
  8
GEO0BEMA
 62
    93
  6
CONTINUOUS
 10
0.342287
 20
1.964616
  0
VERTEX
  8
GEO0BEMA
 62
    93
  6
CONTINUOUS
 10
0.320437
 20
1.992776
  0
SEQEND
  8
0
  0
POLYLINE
  8
GEO0BEMA
  6
CONTINUOUS
 66
     1
 40
0.003000
 41
0.003000
  0
VERTEX
  8
GEO0BEMA
  6
CONTINUOUS
 10
0.309898
 20
2.032480
  0
VERTEX
  8
GEO0BEMA
  6
CONTINUOUS
 10
0.309169
 20
2.028988
  0
VERTEX
  8
GEO0BEMA
  6
CONTINUOUS
 10
0.308653
 20
2.025352
  0
VERTEX
  8
GEO0BEMA
  6
CONTINUOUS
 10
0.308457
 20
2.021752
  0
SEQEND
  8
0
  0
POLYLINE
  8
GEO0BEMA
  6
CONTINUOUS
 66
     1
 40
0.003000
 41
0.003000
  0
VERTEX
  8
GEO0BEMA
  6
CONTINUOUS
 10
0.308457
 20
2.021752
  0
VERTEX
  8
GEO0BEMA
  6
CONTINUOUS
 10
0.309945
 20
2.010988
  0
VERTEX
  8
GEO0BEMA
  6
CONTINUOUS
 10
0.314173
 20
2.000972
  0
VERTEX
  8
GEO0BEMA
  6
CONTINUOUS
 10
0.320787
 20
1.992449
  0
SEQEND
  8
0
  0
POLYLINE
  8
GEO0BEMA
 62
    93
  6
CONTINUOUS
 66
     1
 40
0.003000
 41
0.003000
  0
VERTEX
  8
GEO0BEMA
 62
    93
  6
CONTINUOUS
 10
0.309898
 20
2.032480
  0
VERTEX
  8
GEO0BEMA
 62
    93
  6
CONTINUOUS
 10
0.309169
 20
2.028988
  0
VERTEX
  8
GEO0BEMA
 62
    93
  6
CONTINUOUS
 10
0.308653
 20
2.025352
  0
VERTEX
  8
GEO0BEMA
 62
    93
  6
CONTINUOUS
 10
0.308457
 20
2.021752
  0
SEQEND
  8
0
  0
POLYLINE
  8
GEO0BEMA
 62
    93
  6
CONTINUOUS
 66
     1
 40
0.003000
 41
0.003000
  0
VERTEX
  8
GEO0BEMA
 62
    93
  6
CONTINUOUS
 10
0.308457
 20
2.021752
  0
VERTEX
  8
GEO0BEMA
 62
    93
  6
CONTINUOUS
 10
0.309945
 20
2.010988
  0
VERTEX
  8
GEO0BEMA
 62
    93
  6
CONTINUOUS
 10
0.314173
 20
2.000972
  0
VERTEX
  8
GEO0BEMA
 62
    93
  6
CONTINUOUS
 10
0.320787
 20
1.992449
  0
SEQEND
  8
0
  0
POLYLINE
  8
GEO0BEMA
 62
    93
  6
CONTINUOUS
 66
     1
 40
0.003000
 41
0.003000
  0
VERTEX
  8
GEO0BEMA
 62
    93
  6
CONTINUOUS
 10
0.223752
 20
2.166146
  0
VERTEX
  8
GEO0BEMA
 62
    93
  6
CONTINUOUS
 10
0.348941
 20
2.176736
  0
SEQEND
  8
0
  0
POLYLINE
  8
GEO0BEMA
 62
    11
  6
CONTINUOUS
 66
     1
 40
0.003000
 41
0.003000
  0
VERTEX
  8
GEO0BEMA
 62
    11
  6
CONTINUOUS
 10
0.309780
 20
1.800031
  0
VERTEX
  8
GEO0BEMA
 62
    11
  6
CONTINUOUS
 10
0.348528
 20
1.838783
  0
SEQEND
  8
0
  0
POLYLINE
  8
GEO0BEMA
 62
    11
  6
CONTINUOUS
 66
     1
 40
0.003000
 41
0.003000
  0
VERTEX
  8
GEO0BEMA
 62
    11
  6
CONTINUOUS
 10
0.355591
 20
1.857441
  0
VERTEX
  8
GEO0BEMA
 62
    11
  6
CONTINUOUS
 10
0.302370
 20
1.804220
  0
SEQEND
  8
0
  0
POLYLINE
  8
GEO0BEMA
 62
    11
  6
CONTINUOUS
 66
     1
 40
0.003000
 41
0.003000
  0
VERTEX
  8
GEO0BEMA
 62
    11
  6
CONTINUOUS
 10
0.298067
 20
1.811516
  0
VERTEX
  8
GEO0BEMA
 62
    11
  6
CONTINUOUS
 10
0.359154
 20
1.872598
  0
SEQEND
  8
0
  0
POLYLINE
  8
GEO0BEMA
 62
    11
  6
CONTINUOUS
 66
     1
 40
0.003000
 41
0.003000
  0
VERTEX
  8
GEO0BEMA
 62
    11
  6
CONTINUOUS
 10
0.360803
 20
1.885843
  0
VERTEX
  8
GEO0BEMA
 62
    11
  6
CONTINUOUS
 10
0.297469
 20
1.822508
  0
SEQEND
  8
0
  0
POLYLINE
  8
GEO0BEMA
 62
    11
  6
CONTINUOUS
 66
     1
 40
0.003000
 41
0.003000
  0
VERTEX
  8
GEO0BEMA
 62
    11
  6
CONTINUOUS
 10
0.297469
 20
1.834102
  0
VERTEX
  8
GEO0BEMA
 62
    11
  6
CONTINUOUS
 10
0.361165
 20
1.897803
  0
SEQEND
  8
0
  0
POLYLINE
  8
GEO0BEMA
 62
    11
  6
CONTINUOUS
 66
     1
 40
0.003000
 41
0.003000
  0
VERTEX
  8
GEO0BEMA
 62
    11
  6
CONTINUOUS
 10
0.360571
 20
1.908799
  0
VERTEX
  8
GEO0BEMA
 62
    11
  6
CONTINUOUS
 10
0.297469
 20
1.845697
  0
SEQEND
  8
0
  0
POLYLINE
  8
GEO0BEMA
 62
    11
  6
CONTINUOUS
 66
     1
 40
0.003000
 41
0.003000
  0
VERTEX
  8
GEO0BEMA
 62
    11
  6
CONTINUOUS
 10
0.297469
 20
1.857295
  0
VERTEX
  8
GEO0BEMA
 62
    11
  6
CONTINUOUS
 10
0.359201
 20
1.919028
  0
SEQEND
  8
0
  0
POLYLINE
  8
GEO0BEMA
 62
    11
  6
CONTINUOUS
 66
     1
 40
0.003000
 41
0.003000
  0
VERTEX
  8
GEO0BEMA
 62
    11
  6
CONTINUOUS
 10
0.357185
 20
1.928602
  0
VERTEX
  8
GEO0BEMA
 62
    11
  6
CONTINUOUS
 10
0.297469
 20
1.868890
  0
SEQEND
  8
0
  0
POLYLINE
  8
GEO0BEMA
 62
    11
  6
CONTINUOUS
 66
     1
 40
0.003000
 41
0.003000
  0
VERTEX
  8
GEO0BEMA
 62
    11
  6
CONTINUOUS
 10
0.297469
 20
1.880484
  0
VERTEX
  8
GEO0BEMA
 62
    11
  6
CONTINUOUS
 10
0.354610
 20
1.937626
  0
SEQEND
  8
0
  0
POLYLINE
  8
GEO0BEMA
 62
    11
  6
CONTINUOUS
 66
     1
 40
0.003000
 41
0.003000
  0
VERTEX
  8
GEO0BEMA
 62
    11
  6
CONTINUOUS
 10
0.351535
 20
1.946146
  0
VERTEX
  8
GEO0BEMA
 62
    11
  6
CONTINUOUS
 10
0.297469
 20
1.892079
  0
SEQEND
  8
0
  0
POLYLINE
  8
GEO0BEMA
 62
    11
  6
CONTINUOUS
 66
     1
 40
0.003000
 41
0.003000
  0
VERTEX
  8
GEO0BEMA
 62
    11
  6
CONTINUOUS
 10
0.293476
 20
1.899681
  0
VERTEX
  8
GEO0BEMA
 62
    11
  6
CONTINUOUS
 10
0.348008
 20
1.954213
  0
SEQEND
  8
0
  0
POLYLINE
  8
GEO0BEMA
 62
    11
  6
CONTINUOUS
 66
     1
 40
0.003000
 41
0.003000
  0
VERTEX
  8
GEO0BEMA
 62
    11
  6
CONTINUOUS
 10
0.344059
 20
1.961862
  0
VERTEX
  8
GEO0BEMA
 62
    11
  6
CONTINUOUS
 10
0.286126
 20
1.903925
  0
SEQEND
  8
0
  0
POLYLINE
  8
GEO0BEMA
 62
    11
  6
CONTINUOUS
 66
     1
 40
0.003000
 41
0.003000
  0
VERTEX
  8
GEO0BEMA
 62
    11
  6
CONTINUOUS
 10
0.278772
 20
1.908169
  0
VERTEX
  8
GEO0BEMA
 62
    11
  6
CONTINUOUS
 10
0.339717
 20
1.969114
  0
SEQEND
  8
0
  0
POLYLINE
  8
GEO0BEMA
 62
    11
  6
CONTINUOUS
 66
     1
 40
0.003000
 41
0.003000
  0
VERTEX
  8
GEO0BEMA
 62
    11
  6
CONTINUOUS
 10
0.335000
 20
1.975988
  0
VERTEX
  8
GEO0BEMA
 62
    11
  6
CONTINUOUS
 10
0.271421
 20
1.912413
  0
SEQEND
  8
0
  0
POLYLINE
  8
GEO0BEMA
 62
    11
  6
CONTINUOUS
 66
     1
 40
0.003000
 41
0.003000
  0
VERTEX
  8
GEO0BEMA
 62
    11
  6
CONTINUOUS
 10
0.264071
 20
1.916657
  0
VERTEX
  8
GEO0BEMA
 62
    11
  6
CONTINUOUS
 10
0.329917
 20
1.982504
  0
SEQEND
  8
0
  0
POLYLINE
  8
GEO0BEMA
 62
    11
  6
CONTINUOUS
 66
     1
 40
0.003000
 41
0.003000
  0
VERTEX
  8
GEO0BEMA
 62
    11
  6
CONTINUOUS
 10
0.324476
 20
1.988661
  0
VERTEX
  8
GEO0BEMA
 62
    11
  6
CONTINUOUS
 10
0.256720
 20
1.920902
  0
SEQEND
  8
0
  0
POLYLINE
  8
GEO0BEMA
 62
    11
  6
CONTINUOUS
 66
     1
 40
0.003000
 41
0.003000
  0
VERTEX
  8
GEO0BEMA
 62
    11
  6
CONTINUOUS
 10
0.146437
 20
1.810618
  0
VERTEX
  8
GEO0BEMA
 62
    11
  6
CONTINUOUS
 10
0.143539
 20
1.807720
  0
SEQEND
  8
0
  0
POLYLINE
  8
GEO0BEMA
 62
    11
  6
CONTINUOUS
 66
     1
 40
0.003000
 41
0.003000
  0
VERTEX
  8
GEO0BEMA
 62
    11
  6
CONTINUOUS
 10
0.129098
 20
1.804874
  0
VERTEX
  8
GEO0BEMA
 62
    11
  6
CONTINUOUS
 10
0.149886
 20
1.825661
  0
SEQEND
  8
0
  0
POLYLINE
  8
GEO0BEMA
 62
    11
  6
CONTINUOUS
 66
     1
 40
0.003000
 41
0.003000
  0
VERTEX
  8
GEO0BEMA
 62
    11
  6
CONTINUOUS
 10
0.249366
 20
1.925146
  0
VERTEX
  8
GEO0BEMA
 62
    11
  6
CONTINUOUS
 10
0.318780
 20
1.994555
  0
SEQEND
  8
0
  0
POLYLINE
  8
GEO0BEMA
 62
    11
  6
CONTINUOUS
 66
     1
 40
0.003000
 41
0.003000
  0
VERTEX
  8
GEO0BEMA
 62
    11
  6
CONTINUOUS
 10
0.313925
 20
2.001295
  0
VERTEX
  8
GEO0BEMA
 62
    11
  6
CONTINUOUS
 10
0.242020
 20
1.929390
  0
SEQEND
  8
0
  0
POLYLINE
  8
GEO0BEMA
 62
    11
  6
CONTINUOUS
 66
     1
 40
0.003000
 41
0.003000
  0
VERTEX
  8
GEO0BEMA
 62
    11
  6
CONTINUOUS
 10
0.149886
 20
1.837256
  0
VERTEX
  8
GEO0BEMA
 62
    11
  6
CONTINUOUS
 10
0.121799
 20
1.809169
  0
SEQEND
  8
0
  0
POLYLINE
  8
GEO0BEMA
 62
    11
  6
CONTINUOUS
 66
     1
 40
0.003000
 41
0.003000
  0
VERTEX
  8
GEO0BEMA
 62
    11
  6
CONTINUOUS
 10
0.116657
 20
1.815626
  0
VERTEX
  8
GEO0BEMA
 62
    11
  6
CONTINUOUS
 10
0.149886
 20
1.848850
  0
SEQEND
  8
0
  0
POLYLINE
  8
GEO0BEMA
 62
    11
  6
CONTINUOUS
 66
     1
 40
0.003000
 41
0.003000
  0
VERTEX
  8
GEO0BEMA
 62
    11
  6
CONTINUOUS
 10
0.234669
 20
1.933634
  0
VERTEX
  8
GEO0BEMA
 62
    11
  6
CONTINUOUS
 10
0.310378
 20
2.009343
  0
SEQEND
  8
0
  0
POLYLINE
  8
GEO0BEMA
 62
    11
  6
CONTINUOUS
 66
     1
 40
0.003000
 41
0.003000
  0
VERTEX
  8
GEO0BEMA
 62
    11
  6
CONTINUOUS
 10
0.308539
 20
2.019102
  0
VERTEX
  8
GEO0BEMA
 62
    11
  6
CONTINUOUS
 10
0.227315
 20
1.937878
  0
SEQEND
  8
0
  0
POLYLINE
  8
GEO0BEMA
 62
    11
  6
CONTINUOUS
 66
     1
 40
0.003000
 41
0.003000
  0
VERTEX
  8
GEO0BEMA
 62
    11
  6
CONTINUOUS
 10
0.149886
 20
1.860445
  0
VERTEX
  8
GEO0BEMA
 62
    11
  6
CONTINUOUS
 10
0.111925
 20
1.822484
  0
SEQEND
  8
0
  0
POLYLINE
  8
GEO0BEMA
 62
    11
  6
CONTINUOUS
 66
     1
 40
0.003000
 41
0.003000
  0
VERTEX
  8
GEO0BEMA
 62
    11
  6
CONTINUOUS
 10
0.107567
 20
1.829720
  0
VERTEX
  8
GEO0BEMA
 62
    11
  6
CONTINUOUS
 10
0.149886
 20
1.872039
  0
SEQEND
  8
0
  0
POLYLINE
  8
GEO0BEMA
 62
    11
  6
CONTINUOUS
 66
     1
 40
0.003000
 41
0.003000
  0
VERTEX
  8
GEO0BEMA
 62
    11
  6
CONTINUOUS
 10
0.209823
 20
1.931980
  0
VERTEX
  8
GEO0BEMA
 62
    11
  6
CONTINUOUS
 10
0.309724
 20
2.031882
  0
SEQEND
  8
0
  0
POLYLINE
  8
GEO0BEMA
 62
    11
  6
CONTINUOUS
 66
     1
 40
0.003000
 41
0.003000
  0
VERTEX
  8
GEO0BEMA
 62
    11
  6
CONTINUOUS
 10
0.314024
 20
2.047776
  0
VERTEX
  8
GEO0BEMA
 62
    11
  6
CONTINUOUS
 10
0.182394
 20
1.916146
  0
SEQEND
  8
0
  0
POLYLINE
  8
GEO0BEMA
 62
    11
  6
CONTINUOUS
 66
     1
 40
0.003000
 41
0.003000
  0
VERTEX
  8
GEO0BEMA
 62
    11
  6
CONTINUOUS
 10
0.149886
 20
1.883634
  0
VERTEX
  8
GEO0BEMA
 62
    11
  6
CONTINUOUS
 10
0.103602
 20
1.837354
  0
SEQEND
  8
0
  0
POLYLINE
  8
GEO0BEMA
 62
    11
  6
CONTINUOUS
 66
     1
 40
0.003000
 41
0.003000
  0
VERTEX
  8
GEO0BEMA
 62
    11
  6
CONTINUOUS
 10
0.100055
 20
1.845402
  0
VERTEX
  8
GEO0BEMA
 62
    11
  6
CONTINUOUS
 10
0.149882
 20
1.895232
  0
SEQEND
  8
0
  0
POLYLINE
  8
GEO0BEMA
 62
    11
  6
CONTINUOUS
 66
     1
 40
0.003000
 41
0.003000
  0
VERTEX
  8
GEO0BEMA
 62
    11
  6
CONTINUOUS
 10
0.154961
 20
1.900307
  0
VERTEX
  8
GEO0BEMA
 62
    11
  6
CONTINUOUS
 10
0.318327
 20
2.063677
  0
SEQEND
  8
0
  0
POLYLINE
  8
GEO0BEMA
 62
    11
  6
CONTINUOUS
 66
     1
 40
0.003000
 41
0.003000
  0
VERTEX
  8
GEO0BEMA
 62
    11
  6
CONTINUOUS
 10
0.322634
 20
2.079579
  0
VERTEX
  8
GEO0BEMA
 62
    11
  6
CONTINUOUS
 10
0.096961
 20
1.853906
  0
SEQEND
  8
0
  0
POLYLINE
  8
GEO0BEMA
 62
    11
  6
CONTINUOUS
 66
     1
 40
0.003000
 41
0.003000
  0
VERTEX
  8
GEO0BEMA
 62
    11
  6
CONTINUOUS
 10
0.094366
 20
1.862902
  0
VERTEX
  8
GEO0BEMA
 62
    11
  6
CONTINUOUS
 10
0.326941
 20
2.095476
  0
SEQEND
  8
0
  0
POLYLINE
  8
GEO0BEMA
 62
    11
  6
CONTINUOUS
 66
     1
 40
0.003000
 41
0.003000
  0
VERTEX
  8
GEO0BEMA
 62
    11
  6
CONTINUOUS
 10
0.331248
 20
2.111378
  0
VERTEX
  8
GEO0BEMA
 62
    11
  6
CONTINUOUS
 10
0.092327
 20
1.872457
  0
SEQEND
  8
0
  0
POLYLINE
  8
GEO0BEMA
 62
    11
  6
CONTINUOUS
 66
     1
 40
0.003000
 41
0.003000
  0
VERTEX
  8
GEO0BEMA
 62
    11
  6
CONTINUOUS
 10
0.090925
 20
1.882654
  0
VERTEX
  8
GEO0BEMA
 62
    11
  6
CONTINUOUS
 10
0.335551
 20
2.127280
  0
SEQEND
  8
0
  0
POLYLINE
  8
GEO0BEMA
 62
    11
  6
CONTINUOUS
 66
     1
 40
0.003000
 41
0.003000
  0
VERTEX
  8
GEO0BEMA
 62
    11
  6
CONTINUOUS
 10
0.339854
 20
2.143181
  0
VERTEX
  8
GEO0BEMA
 62
    11
  6
CONTINUOUS
 10
0.090291
 20
1.893614
  0
SEQEND
  8
0
  0
POLYLINE
  8
GEO0BEMA
 62
    11
  6
CONTINUOUS
 66
     1
 40
0.003000
 41
0.003000
  0
VERTEX
  8
GEO0BEMA
 62
    11
  6
CONTINUOUS
 10
0.090610
 20
1.905528
  0
VERTEX
  8
GEO0BEMA
 62
    11
  6
CONTINUOUS
 10
0.344161
 20
2.159079
  0
SEQEND
  8
0
  0
POLYLINE
  8
GEO0BEMA
 62
    11
  6
CONTINUOUS
 66
     1
 40
0.003000
 41
0.003000
  0
VERTEX
  8
GEO0BEMA
 62
    11
  6
CONTINUOUS
 10
0.348465
 20
2.174980
  0
VERTEX
  8
GEO0BEMA
 62
    11
  6
CONTINUOUS
 10
0.092197
 20
1.918709
  0
SEQEND
  8
0
  0
POLYLINE
  8
GEO0BEMA
 62
    11
  6
CONTINUOUS
 66
     1
 40
0.003000
 41
0.003000
  0
VERTEX
  8
GEO0BEMA
 62
    11
  6
CONTINUOUS
 10
0.095657
 20
1.933768
  0
VERTEX
  8
GEO0BEMA
 62
    11
  6
CONTINUOUS
 10
0.337673
 20
2.175780
  0
SEQEND
  8
0
  0
POLYLINE
  8
GEO0BEMA
 62
    11
  6
CONTINUOUS
 66
     1
 40
0.003000
 41
0.003000
  0
VERTEX
  8
GEO0BEMA
 62
    11
  6
CONTINUOUS
 10
0.325004
 20
2.174709
  0
VERTEX
  8
GEO0BEMA
 62
    11
  6
CONTINUOUS
 10
0.188283
 20
2.037984
  0
SEQEND
  8
0
  0
POLYLINE
  8
GEO0BEMA
 62
    11
  6
CONTINUOUS
 66
     1
 40
0.003000
 41
0.003000
  0
VERTEX
  8
GEO0BEMA
 62
    11
  6
CONTINUOUS
 10
0.169480
 20
2.019185
  0
VERTEX
  8
GEO0BEMA
 62
    11
  6
CONTINUOUS
 10
0.102512
 20
1.952213
  0
SEQEND
  8
0
  0
POLYLINE
  8
GEO0BEMA
 62
    11
  6
CONTINUOUS
 66
     1
 40
0.003000
 41
0.003000
  0
VERTEX
  8
GEO0BEMA
 62
    11
  6
CONTINUOUS
 10
0.123386
 20
1.984681
  0
VERTEX
  8
GEO0BEMA
 62
    11
  6
CONTINUOUS
 10
0.136992
 20
1.998287
  0
SEQEND
  8
0
  0
POLYLINE
  8
GEO0BEMA
 62
    11
  6
CONTINUOUS
 66
     1
 40
0.003000
 41
0.003000
  0
VERTEX
  8
GEO0BEMA
 62
    11
  6
CONTINUOUS
 10
0.193646
 20
2.054945
  0
VERTEX
  8
GEO0BEMA
 62
    11
  6
CONTINUOUS
 10
0.312339
 20
2.173638
  0
SEQEND
  8
0
  0
POLYLINE
  8
GEO0BEMA
 62
    11
  6
CONTINUOUS
 66
     1
 40
0.003000
 41
0.003000
  0
VERTEX
  8
GEO0BEMA
 62
    11
  6
CONTINUOUS
 10
0.299673
 20
2.172567
  0
VERTEX
  8
GEO0BEMA
 62
    11
  6
CONTINUOUS
 10
0.197953
 20
2.070843
  0
SEQEND
  8
0
  0
POLYLINE
  8
GEO0BEMA
 62
    11
  6
CONTINUOUS
 66
     1
 40
0.003000
 41
0.003000
  0
VERTEX
  8
GEO0BEMA
 62
    11
  6
CONTINUOUS
 10
0.202256
 20
2.086744
  0
VERTEX
  8
GEO0BEMA
 62
    11
  6
CONTINUOUS
 10
0.287008
 20
2.171496
  0
SEQEND
  8
0
  0
POLYLINE
  8
GEO0BEMA
 62
    11
  6
CONTINUOUS
 66
     1
 40
0.003000
 41
0.003000
  0
VERTEX
  8
GEO0BEMA
 62
    11
  6
CONTINUOUS
 10
0.274339
 20
2.170421
  0
VERTEX
  8
GEO0BEMA
 62
    11
  6
CONTINUOUS
 10
0.206559
 20
2.102642
  0
SEQEND
  8
0
  0
POLYLINE
  8
GEO0BEMA
 62
    11
  6
CONTINUOUS
 66
     1
 40
0.003000
 41
0.003000
  0
VERTEX
  8
GEO0BEMA
 62
    11
  6
CONTINUOUS
 10
0.210866
 20
2.118543
  0
VERTEX
  8
GEO0BEMA
 62
    11
  6
CONTINUOUS
 10
0.261673
 20
2.169350
  0
SEQEND
  8
0
  0
POLYLINE
  8
GEO0BEMA
 62
    11
  6
CONTINUOUS
 66
     1
 40
0.003000
 41
0.003000
  0
VERTEX
  8
GEO0BEMA
 62
    11
  6
CONTINUOUS
 10
0.249008
 20
2.168280
  0
VERTEX
  8
GEO0BEMA
 62
    11
  6
CONTINUOUS
 10
0.215169
 20
2.134441
  0
SEQEND
  8
0
  0
POLYLINE
  8
GEO0BEMA
 62
    11
  6
CONTINUOUS
 66
     1
 40
0.003000
 41
0.003000
  0
VERTEX
  8
GEO0BEMA
 62
    11
  6
CONTINUOUS
 10
0.219476
 20
2.150343
  0
VERTEX
  8
GEO0BEMA
 62
    11
  6
CONTINUOUS
 10
0.236343
 20
2.167209
  0
SEQEND
  8
0
  0
SOLID
  8
GEO0BEMA
 62
    11
 10
-0.003846
 20
1.736894
 11
-0.003846
 21
1.777386
 12
-0.003846
 22
1.736894
 13
0.149882
 23
1.757142
  0
POLYLINE
  8
GEO0BEMA
 62
    11
  6
CONTINUOUS
 66
     1
 40
0.003000
 41
0.003000
  0
VERTEX
  8
GEO0BEMA
 62
    11
  6
CONTINUOUS
 10
-0.003846
 20
1.736894
  0
VERTEX
  8
GEO0BEMA
 62
    11
  6
CONTINUOUS
 10
-0.003846
 20
1.777386
  0
VERTEX
  8
GEO0BEMA
 62
    11
  6
CONTINUOUS
 10
0.149882
 20
1.757142
  0
VERTEX
  8
GEO0BEMA
 62
    11
  6
CONTINUOUS
 10
-0.003846
 20
1.736894
  0
SEQEND
  8
0
  0
SOLID
  8
GEO0BEMA
 62
    11
 10
0.451201
 20
1.736894
 11
0.451201
 21
1.777386
 12
0.451201
 22
1.736894
 13
0.297469
 23
1.757142
  0
POLYLINE
  8
GEO0BEMA
 62
    11
  6
CONTINUOUS
 66
     1
 40
0.003000
 41
0.003000
  0
VERTEX
  8
GEO0BEMA
 62
    11
  6
CONTINUOUS
 10
0.451201
 20
1.736894
  0
VERTEX
  8
GEO0BEMA
 62
    11
  6
CONTINUOUS
 10
0.451201
 20
1.777386
  0
VERTEX
  8
GEO0BEMA
 62
    11
  6
CONTINUOUS
 10
0.297469
 20
1.757142
  0
VERTEX
  8
GEO0BEMA
 62
    11
  6
CONTINUOUS
 10
0.451201
 20
1.736894
  0
SEQEND
  8
0
  0
TEXT
  8
GEO0BEMA
 62
     7
 10
0.543433
 20
1.869878
 40
0.237719
  1
27
 41
1.000000
  7
SN0
 71
     0
 72
     5
 11
0.755357
 21
1.869878
  0
POLYLINE
  8
GEO0BEMA
 62
    11
  6
CONTINUOUS
 66
     1
 40
0.003000
 41
0.003000
  0
VERTEX
  8
GEO0BEMA
 62
    11
  6
CONTINUOUS
 10
-0.260067
 20
1.757142
  0
VERTEX
  8
GEO0BEMA
 62
    11
  6
CONTINUOUS
 10
0.149882
 20
1.757142
  0
SEQEND
  8
0
  0
POLYLINE
  8
GEO0BEMA
 62
    11
  6
CONTINUOUS
 66
     1
 40
0.003000
 41
0.003000
  0
VERTEX
  8
GEO0BEMA
 62
    11
  6
CONTINUOUS
 10
0.297469
 20
1.757142
  0
VERTEX
  8
GEO0BEMA
 62
    11
  6
CONTINUOUS
 10
0.755583
 20
1.757142
  0
SEQEND
  8
0
  0
POLYLINE
  8
GEO0BEMA
 62
    93
  6
CONTINUOUS
 66
     1
 40
0.003000
 41
0.003000
  0
VERTEX
  8
GEO0BEMA
 62
    93
  6
CONTINUOUS
 10
0.309878
 20
2.032469
  0
VERTEX
  8
GEO0BEMA
 62
    93
  6
CONTINUOUS
 10
0.348941
 20
2.176736
  0
SEQEND
  8
0
  0
POLYLINE
  8
GEO0BEMA
 62
    93
  6
CONTINUOUS
 66
     1
 40
0.003000
 41
0.003000
  0
VERTEX
  8
GEO0BEMA
 62
    93
  6
CONTINUOUS
 10
0.223677
 20
1.939980
  0
VERTEX
  8
GEO0BEMA
 62
    93
  6
CONTINUOUS
 10
0.297469
 20
1.897378
  0
SEQEND
  8
0
  0
POLYLINE
  8
GEO0BEMA
 62
    93
  6
CONTINUOUS
 66
     1
 40
0.003000
 41
0.003000
  0
VERTEX
  8
GEO0BEMA
 62
    93
  6
CONTINUOUS
 10
0.297469
 20
1.897378
  0
VERTEX
  8
GEO0BEMA
 62
    93
  6
CONTINUOUS
 10
0.297469
 20
1.815913
  0
SEQEND
  8
0
  0
POLYLINE
  8
GEO0BEMA
 62
    93
  6
CONTINUOUS
 66
     1
 40
0.003000
 41
0.003000
  0
VERTEX
  8
GEO0BEMA
 62
    93
  6
CONTINUOUS
 10
0.149882
 20
1.820673
  0
VERTEX
  8
GEO0BEMA
 62
    93
  6
CONTINUOUS
 10
0.149882
 20
1.897378
  0
SEQEND
  8
0
  0
POLYLINE
  8
GEO0BEMA
 62
    93
  6
CONTINUOUS
 66
     1
 40
0.003000
 41
0.003000
  0
VERTEX
  8
GEO0BEMA
 62
    93
  6
CONTINUOUS
 10
0.149882
 20
1.897378
  0
VERTEX
  8
GEO0BEMA
 62
    93
  6
CONTINUOUS
 10
0.223677
 20
1.939980
  0
SEQEND
  8
0
  0
POLYLINE
  8
GEO0BEMA
 62
    93
  6
CONTINUOUS
 66
     1
 40
0.003000
 41
0.003000
  0
VERTEX
  8
GEO0BEMA
 62
    93
  6
CONTINUOUS
 10
0.191031
 20
2.045295
  0
VERTEX
  8
GEO0BEMA
 62
    93
  6
CONTINUOUS
 10
0.223752
 20
2.166146
  0
SEQEND
  8
0
  0
POLYLINE
  8
GEO0BEMA
  6
CONTINUOUS
 66
     1
 40
0.003000
 41
0.003000
  0
VERTEX
  8
GEO0BEMA
  6
CONTINUOUS
 10
-1.466402
 20
0.930083
  0
VERTEX
  8
GEO0BEMA
  6
CONTINUOUS
 10
-1.467804
 20
0.935249
  0
VERTEX
  8
GEO0BEMA
  6
CONTINUOUS
 10
-1.471484
 20
0.938928
  0
VERTEX
  8
GEO0BEMA
  6
CONTINUOUS
 10
-1.476650
 20
0.940331
  0
SEQEND
  8
0
  0
POLYLINE
  8
GEO0BEMA
 62
    93
  6
CONTINUOUS
 66
     1
 40
0.003000
 41
0.003000
  0
VERTEX
  8
GEO0BEMA
 62
    93
  6
CONTINUOUS
 10
-1.466402
 20
0.930083
  0
VERTEX
  8
GEO0BEMA
 62
    93
  6
CONTINUOUS
 10
-1.467804
 20
0.935249
  0
VERTEX
  8
GEO0BEMA
 62
    93
  6
CONTINUOUS
 10
-1.471484
 20
0.938928
  0
VERTEX
  8
GEO0BEMA
 62
    93
  6
CONTINUOUS
 10
-1.476650
 20
0.940331
  0
SEQEND
  8
0
  0
POLYLINE
  8
GEO0BEMA
  6
CONTINUOUS
 66
     1
 40
0.003000
 41
0.003000
  0
VERTEX
  8
GEO0BEMA
  6
CONTINUOUS
 10
-1.066697
 20
0.940331
  0
VERTEX
  8
GEO0BEMA
  6
CONTINUOUS
 10
-1.071863
 20
0.938928
  0
VERTEX
  8
GEO0BEMA
  6
CONTINUOUS
 10
-1.075543
 20
0.935249
  0
VERTEX
  8
GEO0BEMA
  6
CONTINUOUS
 10
-1.076945
 20
0.930083
  0
SEQEND
  8
0
  0
POLYLINE
  8
GEO0BEMA
 62
    93
  6
CONTINUOUS
 66
     1
 40
0.003000
 41
0.003000
  0
VERTEX
  8
GEO0BEMA
 62
    93
  6
CONTINUOUS
 10
-1.066697
 20
0.940331
  0
VERTEX
  8
GEO0BEMA
 62
    93
  6
CONTINUOUS
 10
-1.071863
 20
0.938928
  0
VERTEX
  8
GEO0BEMA
 62
    93
  6
CONTINUOUS
 10
-1.075543
 20
0.935249
  0
VERTEX
  8
GEO0BEMA
 62
    93
  6
CONTINUOUS
 10
-1.076945
 20
0.930083
  0
SEQEND
  8
0
  0
POLYLINE
  8
GEO0BEMA
  6
CONTINUOUS
 66
     1
 40
0.003000
 41
0.003000
  0
VERTEX
  8
GEO0BEMA
  6
CONTINUOUS
 10
-1.502276
 20
1.265327
  0
VERTEX
  8
GEO0BEMA
  6
CONTINUOUS
 10
-1.499557
 20
1.267621
  0
VERTEX
  8
GEO0BEMA
  6
CONTINUOUS
 10
-1.497784
 20
1.270690
  0
VERTEX
  8
GEO0BEMA
  6
CONTINUOUS
 10
-1.497150
 20
1.274213
  0
SEQEND
  8
0
  0
POLYLINE
  8
GEO0BEMA
 62
    93
  6
CONTINUOUS
 66
     1
 40
0.003000
 41
0.003000
  0
VERTEX
  8
GEO0BEMA
 62
    93
  6
CONTINUOUS
 10
-1.502276
 20
1.265327
  0
VERTEX
  8
GEO0BEMA
 62
    93
  6
CONTINUOUS
 10
-1.499557
 20
1.267621
  0
VERTEX
  8
GEO0BEMA
 62
    93
  6
CONTINUOUS
 10
-1.497784
 20
1.270690
  0
VERTEX
  8
GEO0BEMA
 62
    93
  6
CONTINUOUS
 10
-1.497150
 20
1.274213
  0
SEQEND
  8
0
  0
POLYLINE
  8
GEO0BEMA
  6
CONTINUOUS
 66
     1
 40
0.003000
 41
0.003000
  0
VERTEX
  8
GEO0BEMA
  6
CONTINUOUS
 10
-1.046197
 20
1.274213
  0
VERTEX
  8
GEO0BEMA
  6
CONTINUOUS
 10
-1.045563
 20
1.270690
  0
VERTEX
  8
GEO0BEMA
  6
CONTINUOUS
 10
-1.043790
 20
1.267621
  0
VERTEX
  8
GEO0BEMA
  6
CONTINUOUS
 10
-1.041075
 20
1.265327
  0
SEQEND
  8
0
  0
POLYLINE
  8
GEO0BEMA
 62
    93
  6
CONTINUOUS
 66
     1
 40
0.003000
 41
0.003000
  0
VERTEX
  8
GEO0BEMA
 62
    93
  6
CONTINUOUS
 10
-1.046197
 20
1.274213
  0
VERTEX
  8
GEO0BEMA
 62
    93
  6
CONTINUOUS
 10
-1.045563
 20
1.270690
  0
VERTEX
  8
GEO0BEMA
 62
    93
  6
CONTINUOUS
 10
-1.043790
 20
1.267621
  0
VERTEX
  8
GEO0BEMA
 62
    93
  6
CONTINUOUS
 10
-1.041075
 20
1.265327
  0
SEQEND
  8
0
  0
POLYLINE
  8
GEO0BEMA
 62
    11
  6
DASHDOT
 66
     1
 40
0.003000
 41
0.003000
  0
VERTEX
  8
GEO0BEMA
 62
    11
  6
DASHDOT
 10
-1.046205
 20
1.268295
  0
VERTEX
  8
GEO0BEMA
 62
    11
  6
DASHDOT
 10
-1.497154
 20
1.268295
  0
SEQEND
  8
0
  0
POLYLINE
  8
GEO0BEMA
 62
    11
  6
CONTINUOUS
 66
     1
 40
0.003000
 41
0.003000
  0
VERTEX
  8
GEO0BEMA
 62
    11
  6
CONTINUOUS
 10
-1.506272
 20
1.263031
  0
VERTEX
  8
GEO0BEMA
 62
    11
  6
CONTINUOUS
 10
-1.506272
 20
0.944433
  0
SEQEND
  8
0
  0
POLYLINE
  8
GEO0BEMA
 62
    11
  6
CONTINUOUS
 66
     1
 40
0.003000
 41
0.003000
  0
VERTEX
  8
GEO0BEMA
 62
    11
  6
CONTINUOUS
 10
-1.037079
 20
1.263031
  0
VERTEX
  8
GEO0BEMA
 62
    11
  6
CONTINUOUS
 10
-1.037079
 20
0.944433
  0
SEQEND
  8
0
  0
POLYLINE
  8
GEO0BEMA
  6
CONTINUOUS
 66
     1
 40
0.003000
 41
0.003000
  0
VERTEX
  8
GEO0BEMA
  6
CONTINUOUS
 10
-1.158937
 20
0.858339
  0
VERTEX
  8
GEO0BEMA
  6
CONTINUOUS
 10
-1.164103
 20
0.856936
  0
VERTEX
  8
GEO0BEMA
  6
CONTINUOUS
 10
-1.167783
 20
0.853257
  0
VERTEX
  8
GEO0BEMA
  6
CONTINUOUS
 10
-1.169185
 20
0.848091
  0
SEQEND
  8
0
  0
POLYLINE
  8
GEO0BEMA
 62
    93
  6
CONTINUOUS
 66
     1
 40
0.003000
 41
0.003000
  0
VERTEX
  8
GEO0BEMA
 62
    93
  6
CONTINUOUS
 10
-1.158937
 20
0.858339
  0
VERTEX
  8
GEO0BEMA
 62
    93
  6
CONTINUOUS
 10
-1.164103
 20
0.856936
  0
VERTEX
  8
GEO0BEMA
 62
    93
  6
CONTINUOUS
 10
-1.167783
 20
0.853257
  0
VERTEX
  8
GEO0BEMA
 62
    93
  6
CONTINUOUS
 10
-1.169185
 20
0.848091
  0
SEQEND
  8
0
  0
POLYLINE
  8
GEO0BEMA
  6
CONTINUOUS
 66
     1
 40
0.003000
 41
0.003000
  0
VERTEX
  8
GEO0BEMA
  6
CONTINUOUS
 10
-1.374161
 20
0.848091
  0
VERTEX
  8
GEO0BEMA
  6
CONTINUOUS
 10
-1.375564
 20
0.853257
  0
VERTEX
  8
GEO0BEMA
  6
CONTINUOUS
 10
-1.379243
 20
0.856936
  0
VERTEX
  8
GEO0BEMA
  6
CONTINUOUS
 10
-1.384409
 20
0.858339
  0
SEQEND
  8
0
  0
POLYLINE
  8
GEO0BEMA
 62
    93
  6
CONTINUOUS
 66
     1
 40
0.003000
 41
0.003000
  0
VERTEX
  8
GEO0BEMA
 62
    93
  6
CONTINUOUS
 10
-1.374161
 20
0.848091
  0
VERTEX
  8
GEO0BEMA
 62
    93
  6
CONTINUOUS
 10
-1.375564
 20
0.853257
  0
VERTEX
  8
GEO0BEMA
 62
    93
  6
CONTINUOUS
 10
-1.379243
 20
0.856936
  0
VERTEX
  8
GEO0BEMA
 62
    93
  6
CONTINUOUS
 10
-1.384409
 20
0.858339
  0
SEQEND
  8
0
  0
POLYLINE
  8
GEO0BEMA
 62
    93
  6
CONTINUOUS
 66
     1
 40
0.003000
 41
0.003000
  0
VERTEX
  8
GEO0BEMA
 62
    93
  6
CONTINUOUS
 10
-1.177390
 20
0.776350
  0
VERTEX
  8
GEO0BEMA
 62
    93
  6
CONTINUOUS
 10
-1.365965
 20
0.776350
  0
SEQEND
  8
0
  0
POLYLINE
  8
GEO0BEMA
 62
    93
  6
CONTINUOUS
 66
     1
 40
0.003000
 41
0.003000
  0
VERTEX
  8
GEO0BEMA
 62
    93
  6
CONTINUOUS
 10
-1.374165
 20
0.784551
  0
VERTEX
  8
GEO0BEMA
 62
    93
  6
CONTINUOUS
 10
-1.365965
 20
0.776350
  0
SEQEND
  8
0
  0
POLYLINE
  8
GEO0BEMA
 62
    93
  6
CONTINUOUS
 66
     1
 40
0.003000
 41
0.003000
  0
VERTEX
  8
GEO0BEMA
 62
    93
  6
CONTINUOUS
 10
-1.169189
 20
0.784551
  0
VERTEX
  8
GEO0BEMA
 62
    93
  6
CONTINUOUS
 10
-1.177390
 20
0.776350
  0
SEQEND
  8
0
  0
POLYLINE
  8
GEO0BEMA
 62
    93
  6
CONTINUOUS
 66
     1
 40
0.003000
 41
0.003000
  0
VERTEX
  8
GEO0BEMA
 62
    93
  6
CONTINUOUS
 10
-1.374165
 20
0.848091
  0
VERTEX
  8
GEO0BEMA
 62
    93
  6
CONTINUOUS
 10
-1.374165
 20
0.784551
  0
SEQEND
  8
0
  0
POLYLINE
  8
GEO0BEMA
 62
    93
  6
CONTINUOUS
 66
     1
 40
0.003000
 41
0.003000
  0
VERTEX
  8
GEO0BEMA
 62
    93
  6
CONTINUOUS
 10
-1.169189
 20
0.848091
  0
VERTEX
  8
GEO0BEMA
 62
    93
  6
CONTINUOUS
 10
-1.169189
 20
0.784551
  0
SEQEND
  8
0
  0
POLYLINE
  8
GEO0BEMA
 62
    93
  6
CONTINUOUS
 66
     1
 40
0.003000
 41
0.003000
  0
VERTEX
  8
GEO0BEMA
 62
    93
  6
CONTINUOUS
 10
-1.085150
 20
0.858343
  0
VERTEX
  8
GEO0BEMA
 62
    93
  6
CONTINUOUS
 10
-1.458205
 20
0.858343
  0
SEQEND
  8
0
  0
POLYLINE
  8
GEO0BEMA
 62
    93
  6
CONTINUOUS
 66
     1
 40
0.003000
 41
0.003000
  0
VERTEX
  8
GEO0BEMA
 62
    93
  6
CONTINUOUS
 10
-1.466406
 20
0.866539
  0
VERTEX
  8
GEO0BEMA
 62
    93
  6
CONTINUOUS
 10
-1.458205
 20
0.858343
  0
SEQEND
  8
0
  0
POLYLINE
  8
GEO0BEMA
 62
    93
  6
CONTINUOUS
 66
     1
 40
0.003000
 41
0.003000
  0
VERTEX
  8
GEO0BEMA
 62
    93
  6
CONTINUOUS
 10
-1.076949
 20
0.866539
  0
VERTEX
  8
GEO0BEMA
 62
    93
  6
CONTINUOUS
 10
-1.085150
 20
0.858343
  0
SEQEND
  8
0
  0
POLYLINE
  8
GEO0BEMA
 62
    93
  6
CONTINUOUS
 66
     1
 40
0.003000
 41
0.003000
  0
VERTEX
  8
GEO0BEMA
 62
    93
  6
CONTINUOUS
 10
-1.466406
 20
0.930083
  0
VERTEX
  8
GEO0BEMA
 62
    93
  6
CONTINUOUS
 10
-1.466406
 20
0.866539
  0
SEQEND
  8
0
  0
POLYLINE
  8
GEO0BEMA
 62
    93
  6
CONTINUOUS
 66
     1
 40
0.003000
 41
0.003000
  0
VERTEX
  8
GEO0BEMA
 62
    93
  6
CONTINUOUS
 10
-1.076949
 20
0.930083
  0
VERTEX
  8
GEO0BEMA
 62
    93
  6
CONTINUOUS
 10
-1.076949
 20
0.866539
  0
SEQEND
  8
0
  0
POLYLINE
  8
GEO0BEMA
 62
    93
  6
CONTINUOUS
 66
     1
 40
0.003000
 41
0.003000
  0
VERTEX
  8
GEO0BEMA
 62
    93
  6
CONTINUOUS
 10
-1.041181
 20
0.940331
  0
VERTEX
  8
GEO0BEMA
 62
    93
  6
CONTINUOUS
 10
-1.502173
 20
0.940331
  0
SEQEND
  8
0
  0
POLYLINE
  8
GEO0BEMA
 62
    93
  6
CONTINUOUS
 66
     1
 40
0.003000
 41
0.003000
  0
VERTEX
  8
GEO0BEMA
 62
    93
  6
CONTINUOUS
 10
-1.541366
 20
0.979524
  0
VERTEX
  8
GEO0BEMA
 62
    93
  6
CONTINUOUS
 10
-1.502173
 20
0.940331
  0
SEQEND
  8
0
  0
POLYLINE
  8
GEO0BEMA
 62
    93
  6
CONTINUOUS
 66
     1
 40
0.003000
 41
0.003000
  0
VERTEX
  8
GEO0BEMA
 62
    93
  6
CONTINUOUS
 10
-1.001988
 20
0.979524
  0
VERTEX
  8
GEO0BEMA
 62
    93
  6
CONTINUOUS
 10
-1.041181
 20
0.940331
  0
SEQEND
  8
0
  0
POLYLINE
  8
GEO0BEMA
 62
    93
  6
CONTINUOUS
 66
     1
 40
0.003000
 41
0.003000
  0
VERTEX
  8
GEO0BEMA
 62
    93
  6
CONTINUOUS
 10
-1.001988
 20
0.979524
  0
VERTEX
  8
GEO0BEMA
 62
    93
  6
CONTINUOUS
 10
-1.541366
 20
0.979524
  0
SEQEND
  8
0
  0
POLYLINE
  8
GEO0BEMA
 62
    93
  6
CONTINUOUS
 66
     1
 40
0.003000
 41
0.003000
  0
VERTEX
  8
GEO0BEMA
 62
    93
  6
CONTINUOUS
 10
-1.541366
 20
1.242768
  0
VERTEX
  8
GEO0BEMA
 62
    93
  6
CONTINUOUS
 10
-1.541366
 20
0.979524
  0
SEQEND
  8
0
  0
POLYLINE
  8
GEO0BEMA
 62
    93
  6
CONTINUOUS
 66
     1
 40
0.003000
 41
0.003000
  0
VERTEX
  8
GEO0BEMA
 62
    93
  6
CONTINUOUS
 10
-1.001988
 20
1.242768
  0
VERTEX
  8
GEO0BEMA
 62
    93
  6
CONTINUOUS
 10
-1.001988
 20
0.979524
  0
SEQEND
  8
0
  0
POLYLINE
  8
GEO0BEMA
 62
    93
  6
CONTINUOUS
 66
     1
 40
0.003000
 41
0.003000
  0
VERTEX
  8
GEO0BEMA
 62
    93
  6
CONTINUOUS
 10
-1.001988
 20
1.242768
  0
VERTEX
  8
GEO0BEMA
 62
    93
  6
CONTINUOUS
 10
-1.541366
 20
1.242768
  0
SEQEND
  8
0
  0
POLYLINE
  8
GEO0BEMA
 62
    93
  6
CONTINUOUS
 66
     1
 40
0.003000
 41
0.003000
  0
VERTEX
  8
GEO0BEMA
 62
    93
  6
CONTINUOUS
 10
-1.502276
 20
1.265339
  0
VERTEX
  8
GEO0BEMA
 62
    93
  6
CONTINUOUS
 10
-1.541366
 20
1.242768
  0
SEQEND
  8
0
  0
POLYLINE
  8
GEO0BEMA
 62
    93
  6
CONTINUOUS
 66
     1
 40
0.003000
 41
0.003000
  0
VERTEX
  8
GEO0BEMA
 62
    93
  6
CONTINUOUS
 10
-1.041079
 20
1.265339
  0
VERTEX
  8
GEO0BEMA
 62
    93
  6
CONTINUOUS
 10
-1.001988
 20
1.242768
  0
SEQEND
  8
0
  0
POLYLINE
  8
GEO0BEMA
 62
    93
  6
CONTINUOUS
 66
     1
 40
0.003000
 41
0.003000
  0
VERTEX
  8
GEO0BEMA
 62
    93
  6
CONTINUOUS
 10
-1.497154
 20
1.391280
  0
VERTEX
  8
GEO0BEMA
 62
    93
  6
CONTINUOUS
 10
-1.497154
 20
1.274213
  0
SEQEND
  8
0
  0
POLYLINE
  8
GEO0BEMA
 62
    93
  6
CONTINUOUS
 66
     1
 40
0.003000
 41
0.003000
  0
VERTEX
  8
GEO0BEMA
 62
    93
  6
CONTINUOUS
 10
-1.046205
 20
1.391280
  0
VERTEX
  8
GEO0BEMA
 62
    93
  6
CONTINUOUS
 10
-1.046205
 20
1.274213
  0
SEQEND
  8
0
  0
POLYLINE
  8
GEO0BEMA
 62
    20
  6
DASHDOT
 66
     1
 40
0.003000
 41
0.003000
  0
VERTEX
  8
GEO0BEMA
 62
    20
  6
DASHDOT
 10
-1.271677
 20
0.694358
  0
VERTEX
  8
GEO0BEMA
 62
    20
  6
DASHDOT
 10
-1.271677
 20
1.473272
  0
SEQEND
  8
0
  0
POLYLINE
  8
GEO0BEMA
  6
CONTINUOUS
 66
     1
 40
0.003000
 41
0.003000
  0
VERTEX
  8
GEO0BEMA
  6
CONTINUOUS
 10
-1.876335
 20
1.420543
  0
VERTEX
  8
GEO0BEMA
  6
CONTINUOUS
 10
-1.837254
 20
1.404426
  0
VERTEX
  8
GEO0BEMA
  6
CONTINUOUS
 10
-1.795357
 20
1.394411
  0
VERTEX
  8
GEO0BEMA
  6
CONTINUOUS
 10
-1.752756
 20
1.390969
  0
SEQEND
  8
0
  0
POLYLINE
  8
GEO0BEMA
  6
CONTINUOUS
 66
     1
 40
0.003000
 41
0.003000
  0
VERTEX
  8
GEO0BEMA
  6
CONTINUOUS
 10
-1.752756
 20
1.390969
  0
VERTEX
  8
GEO0BEMA
  6
CONTINUOUS
 10
-1.710155
 20
1.394411
  0
VERTEX
  8
GEO0BEMA
  6
CONTINUOUS
 10
-1.668258
 20
1.404426
  0
VERTEX
  8
GEO0BEMA
  6
CONTINUOUS
 10
-1.629177
 20
1.420543
  0
SEQEND
  8
0
  0
POLYLINE
  8
GEO0BEMA
 62
    93
  6
CONTINUOUS
 66
     1
 40
0.003000
 41
0.003000
  0
VERTEX
  8
GEO0BEMA
 62
    93
  6
CONTINUOUS
 10
-1.876335
 20
1.420543
  0
VERTEX
  8
GEO0BEMA
 62
    93
  6
CONTINUOUS
 10
-1.837254
 20
1.404426
  0
VERTEX
  8
GEO0BEMA
 62
    93
  6
CONTINUOUS
 10
-1.795357
 20
1.394411
  0
VERTEX
  8
GEO0BEMA
 62
    93
  6
CONTINUOUS
 10
-1.752756
 20
1.390969
  0
SEQEND
  8
0
  0
POLYLINE
  8
GEO0BEMA
 62
    93
  6
CONTINUOUS
 66
     1
 40
0.003000
 41
0.003000
  0
VERTEX
  8
GEO0BEMA
 62
    93
  6
CONTINUOUS
 10
-1.752756
 20
1.390969
  0
VERTEX
  8
GEO0BEMA
 62
    93
  6
CONTINUOUS
 10
-1.710155
 20
1.394411
  0
VERTEX
  8
GEO0BEMA
 62
    93
  6
CONTINUOUS
 10
-1.668258
 20
1.404426
  0
VERTEX
  8
GEO0BEMA
 62
    93
  6
CONTINUOUS
 10
-1.629177
 20
1.420543
  0
SEQEND
  8
0
  0
POLYLINE
  8
GEO0BEMA
  6
CONTINUOUS
 66
     1
 40
0.003000
 41
0.003000
  0
VERTEX
  8
GEO0BEMA
  6
CONTINUOUS
 10
-1.513268
 20
1.420835
  0
VERTEX
  8
GEO0BEMA
  6
CONTINUOUS
 10
-1.475182
 20
1.413023
  0
VERTEX
  8
GEO0BEMA
  6
CONTINUOUS
 10
-1.435162
 20
1.406122
  0
VERTEX
  8
GEO0BEMA
  6
CONTINUOUS
 10
-1.394006
 20
1.400359
  0
VERTEX
  8
GEO0BEMA
  6
CONTINUOUS
 10
-1.352508
 20
1.395961
  0
VERTEX
  8
GEO0BEMA
  6
CONTINUOUS
 10
-1.311465
 20
1.393155
  0
VERTEX
  8
GEO0BEMA
  6
CONTINUOUS
 10
-1.271673
 20
1.392169
  0
SEQEND
  8
0
  0
POLYLINE
  8
GEO0BEMA
  6
CONTINUOUS
 66
     1
 40
0.003000
 41
0.003000
  0
VERTEX
  8
GEO0BEMA
  6
CONTINUOUS
 10
-1.271673
 20
1.392169
  0
VERTEX
  8
GEO0BEMA
  6
CONTINUOUS
 10
-1.230440
 20
1.393155
  0
VERTEX
  8
GEO0BEMA
  6
CONTINUOUS
 10
-1.188867
 20
1.395961
  0
VERTEX
  8
GEO0BEMA
  6
CONTINUOUS
 10
-1.147293
 20
1.400359
  0
VERTEX
  8
GEO0BEMA
  6
CONTINUOUS
 10
-1.106061
 20
1.406122
  0
VERTEX
  8
GEO0BEMA
  6
CONTINUOUS
 10
-1.065511
 20
1.413023
  0
VERTEX
  8
GEO0BEMA
  6
CONTINUOUS
 10
-1.025984
 20
1.420835
  0
SEQEND
  8
0
  0
POLYLINE
  8
GEO0BEMA
 62
    93
  6
CONTINUOUS
 66
     1
 40
0.003000
 41
0.003000
  0
VERTEX
  8
GEO0BEMA
 62
    93
  6
CONTINUOUS
 10
-1.513268
 20
1.420835
  0
VERTEX
  8
GEO0BEMA
 62
    93
  6
CONTINUOUS
 10
-1.475182
 20
1.413023
  0
VERTEX
  8
GEO0BEMA
 62
    93
  6
CONTINUOUS
 10
-1.435162
 20
1.406122
  0
VERTEX
  8
GEO0BEMA
 62
    93
  6
CONTINUOUS
 10
-1.394006
 20
1.400359
  0
VERTEX
  8
GEO0BEMA
 62
    93
  6
CONTINUOUS
 10
-1.352508
 20
1.395961
  0
VERTEX
  8
GEO0BEMA
 62
    93
  6
CONTINUOUS
 10
-1.311465
 20
1.393155
  0
VERTEX
  8
GEO0BEMA
 62
    93
  6
CONTINUOUS
 10
-1.271673
 20
1.392169
  0
SEQEND
  8
0
  0
POLYLINE
  8
GEO0BEMA
 62
    93
  6
CONTINUOUS
 66
     1
 40
0.003000
 41
0.003000
  0
VERTEX
  8
GEO0BEMA
 62
    93
  6
CONTINUOUS
 10
-1.271673
 20
1.392169
  0
VERTEX
  8
GEO0BEMA
 62
    93
  6
CONTINUOUS
 10
-1.230440
 20
1.393155
  0
VERTEX
  8
GEO0BEMA
 62
    93
  6
CONTINUOUS
 10
-1.188867
 20
1.395961
  0
VERTEX
  8
GEO0BEMA
 62
    93
  6
CONTINUOUS
 10
-1.147293
 20
1.400359
  0
VERTEX
  8
GEO0BEMA
 62
    93
  6
CONTINUOUS
 10
-1.106061
 20
1.406122
  0
VERTEX
  8
GEO0BEMA
 62
    93
  6
CONTINUOUS
 10
-1.065511
 20
1.413023
  0
VERTEX
  8
GEO0BEMA
 62
    93
  6
CONTINUOUS
 10
-1.025984
 20
1.420835
  0
SEQEND
  8
0
  0
POLYLINE
  8
GEO0BEMA
  6
CONTINUOUS
 66
     1
 40
0.003000
 41
0.003000
  0
VERTEX
  8
GEO0BEMA
  6
CONTINUOUS
 10
-0.914165
 20
1.420543
  0
VERTEX
  8
GEO0BEMA
  6
CONTINUOUS
 10
-0.875084
 20
1.404426
  0
VERTEX
  8
GEO0BEMA
  6
CONTINUOUS
 10
-0.833187
 20
1.394411
  0
VERTEX
  8
GEO0BEMA
  6
CONTINUOUS
 10
-0.790587
 20
1.390969
  0
SEQEND
  8
0
  0
POLYLINE
  8
GEO0BEMA
  6
CONTINUOUS
 66
     1
 40
0.003000
 41
0.003000
  0
VERTEX
  8
GEO0BEMA
  6
CONTINUOUS
 10
-0.790587
 20
1.390969
  0
VERTEX
  8
GEO0BEMA
  6
CONTINUOUS
 10
-0.747986
 20
1.394411
  0
VERTEX
  8
GEO0BEMA
  6
CONTINUOUS
 10
-0.706089
 20
1.404426
  0
VERTEX
  8
GEO0BEMA
  6
CONTINUOUS
 10
-0.667008
 20
1.420543
  0
SEQEND
  8
0
  0
POLYLINE
  8
GEO0BEMA
 62
    93
  6
CONTINUOUS
 66
     1
 40
0.003000
 41
0.003000
  0
VERTEX
  8
GEO0BEMA
 62
    93
  6
CONTINUOUS
 10
-0.914165
 20
1.420543
  0
VERTEX
  8
GEO0BEMA
 62
    93
  6
CONTINUOUS
 10
-0.875084
 20
1.404426
  0
VERTEX
  8
GEO0BEMA
 62
    93
  6
CONTINUOUS
 10
-0.833187
 20
1.394411
  0
VERTEX
  8
GEO0BEMA
 62
    93
  6
CONTINUOUS
 10
-0.790587
 20
1.390969
  0
SEQEND
  8
0
  0
POLYLINE
  8
GEO0BEMA
 62
    93
  6
CONTINUOUS
 66
     1
 40
0.003000
 41
0.003000
  0
VERTEX
  8
GEO0BEMA
 62
    93
  6
CONTINUOUS
 10
-0.790587
 20
1.390969
  0
VERTEX
  8
GEO0BEMA
 62
    93
  6
CONTINUOUS
 10
-0.747986
 20
1.394411
  0
VERTEX
  8
GEO0BEMA
 62
    93
  6
CONTINUOUS
 10
-0.706089
 20
1.404426
  0
VERTEX
  8
GEO0BEMA
 62
    93
  6
CONTINUOUS
 10
-0.667008
 20
1.420543
  0
SEQEND
  8
0
  0
POLYLINE
  8
GEO0BEMA
  6
CONTINUOUS
 66
     1
 40
0.003000
 41
0.003000
  0
VERTEX
  8
GEO0BEMA
  6
CONTINUOUS
 10
-1.629173
 20
1.669488
  0
VERTEX
  8
GEO0BEMA
  6
CONTINUOUS
 10
-1.668254
 20
1.685605
  0
VERTEX
  8
GEO0BEMA
  6
CONTINUOUS
 10
-1.710151
 20
1.695620
  0
VERTEX
  8
GEO0BEMA
  6
CONTINUOUS
 10
-1.752752
 20
1.699063
  0
SEQEND
  8
0
  0
POLYLINE
  8
GEO0BEMA
  6
CONTINUOUS
 66
     1
 40
0.003000
 41
0.003000
  0
VERTEX
  8
GEO0BEMA
  6
CONTINUOUS
 10
-1.752752
 20
1.699063
  0
VERTEX
  8
GEO0BEMA
  6
CONTINUOUS
 10
-1.795353
 20
1.695620
  0
VERTEX
  8
GEO0BEMA
  6
CONTINUOUS
 10
-1.837250
 20
1.685605
  0
VERTEX
  8
GEO0BEMA
  6
CONTINUOUS
 10
-1.876331
 20
1.669488
  0
SEQEND
  8
0
  0
POLYLINE
  8
GEO0BEMA
 62
    93
  6
CONTINUOUS
 66
     1
 40
0.003000
 41
0.003000
  0
VERTEX
  8
GEO0BEMA
 62
    93
  6
CONTINUOUS
 10
-1.629173
 20
1.669488
  0
VERTEX
  8
GEO0BEMA
 62
    93
  6
CONTINUOUS
 10
-1.668254
 20
1.685605
  0
VERTEX
  8
GEO0BEMA
 62
    93
  6
CONTINUOUS
 10
-1.710151
 20
1.695620
  0
VERTEX
  8
GEO0BEMA
 62
    93
  6
CONTINUOUS
 10
-1.752752
 20
1.699063
  0
SEQEND
  8
0
  0
POLYLINE
  8
GEO0BEMA
 62
    93
  6
CONTINUOUS
 66
     1
 40
0.003000
 41
0.003000
  0
VERTEX
  8
GEO0BEMA
 62
    93
  6
CONTINUOUS
 10
-1.752752
 20
1.699063
  0
VERTEX
  8
GEO0BEMA
 62
    93
  6
CONTINUOUS
 10
-1.795353
 20
1.695620
  0
VERTEX
  8
GEO0BEMA
 62
    93
  6
CONTINUOUS
 10
-1.837250
 20
1.685605
  0
VERTEX
  8
GEO0BEMA
 62
    93
  6
CONTINUOUS
 10
-1.876331
 20
1.669488
  0
SEQEND
  8
0
  0
POLYLINE
  8
GEO0BEMA
  6
CONTINUOUS
 66
     1
 40
0.003000
 41
0.003000
  0
VERTEX
  8
GEO0BEMA
  6
CONTINUOUS
 10
-1.030079
 20
1.669193
  0
VERTEX
  8
GEO0BEMA
  6
CONTINUOUS
 10
-1.069302
 20
1.677004
  0
VERTEX
  8
GEO0BEMA
  6
CONTINUOUS
 10
-1.109094
 20
1.683906
  0
VERTEX
  8
GEO0BEMA
  6
CONTINUOUS
 10
-1.149341
 20
1.689669
  0
VERTEX
  8
GEO0BEMA
  6
CONTINUOUS
 10
-1.189928
 20
1.694067
  0
VERTEX
  8
GEO0BEMA
  6
CONTINUOUS
 10
-1.230744
 20
1.696873
  0
VERTEX
  8
GEO0BEMA
  6
CONTINUOUS
 10
-1.271673
 20
1.697858
  0
SEQEND
  8
0
  0
POLYLINE
  8
GEO0BEMA
  6
CONTINUOUS
 66
     1
 40
0.003000
 41
0.003000
  0
VERTEX
  8
GEO0BEMA
  6
CONTINUOUS
 10
-1.271673
 20
1.697858
  0
VERTEX
  8
GEO0BEMA
  6
CONTINUOUS
 10
-1.312906
 20
1.696873
  0
VERTEX
  8
GEO0BEMA
  6
CONTINUOUS
 10
-1.354480
 20
1.694067
  0
VERTEX
  8
GEO0BEMA
  6
CONTINUOUS
 10
-1.396053
 20
1.689669
  0
VERTEX
  8
GEO0BEMA
  6
CONTINUOUS
 10
-1.437285
 20
1.683906
  0
VERTEX
  8
GEO0BEMA
  6
CONTINUOUS
 10
-1.477835
 20
1.677004
  0
VERTEX
  8
GEO0BEMA
  6
CONTINUOUS
 10
-1.517362
 20
1.669193
  0
SEQEND
  8
0
  0
POLYLINE
  8
GEO0BEMA
 62
    93
  6
CONTINUOUS
 66
     1
 40
0.003000
 41
0.003000
  0
VERTEX
  8
GEO0BEMA
 62
    93
  6
CONTINUOUS
 10
-1.030079
 20
1.669193
  0
VERTEX
  8
GEO0BEMA
 62
    93
  6
CONTINUOUS
 10
-1.069302
 20
1.677004
  0
VERTEX
  8
GEO0BEMA
 62
    93
  6
CONTINUOUS
 10
-1.109094
 20
1.683906
  0
VERTEX
  8
GEO0BEMA
 62
    93
  6
CONTINUOUS
 10
-1.149341
 20
1.689669
  0
VERTEX
  8
GEO0BEMA
 62
    93
  6
CONTINUOUS
 10
-1.189928
 20
1.694067
  0
VERTEX
  8
GEO0BEMA
 62
    93
  6
CONTINUOUS
 10
-1.230744
 20
1.696873
  0
VERTEX
  8
GEO0BEMA
 62
    93
  6
CONTINUOUS
 10
-1.271673
 20
1.697858
  0
SEQEND
  8
0
  0
POLYLINE
  8
GEO0BEMA
 62
    93
  6
CONTINUOUS
 66
     1
 40
0.003000
 41
0.003000
  0
VERTEX
  8
GEO0BEMA
 62
    93
  6
CONTINUOUS
 10
-1.271673
 20
1.697858
  0
VERTEX
  8
GEO0BEMA
 62
    93
  6
CONTINUOUS
 10
-1.312906
 20
1.696873
  0
VERTEX
  8
GEO0BEMA
 62
    93
  6
CONTINUOUS
 10
-1.354480
 20
1.694067
  0
VERTEX
  8
GEO0BEMA
 62
    93
  6
CONTINUOUS
 10
-1.396053
 20
1.689669
  0
VERTEX
  8
GEO0BEMA
 62
    93
  6
CONTINUOUS
 10
-1.437285
 20
1.683906
  0
VERTEX
  8
GEO0BEMA
 62
    93
  6
CONTINUOUS
 10
-1.477835
 20
1.677004
  0
VERTEX
  8
GEO0BEMA
 62
    93
  6
CONTINUOUS
 10
-1.517362
 20
1.669193
  0
SEQEND
  8
0
  0
POLYLINE
  8
GEO0BEMA
  6
CONTINUOUS
 66
     1
 40
0.003000
 41
0.003000
  0
VERTEX
  8
GEO0BEMA
  6
CONTINUOUS
 10
-0.667008
 20
1.669488
  0
VERTEX
  8
GEO0BEMA
  6
CONTINUOUS
 10
-0.706089
 20
1.685605
  0
VERTEX
  8
GEO0BEMA
  6
CONTINUOUS
 10
-0.747986
 20
1.695620
  0
VERTEX
  8
GEO0BEMA
  6
CONTINUOUS
 10
-0.790587
 20
1.699063
  0
SEQEND
  8
0
  0
POLYLINE
  8
GEO0BEMA
  6
CONTINUOUS
 66
     1
 40
0.003000
 41
0.003000
  0
VERTEX
  8
GEO0BEMA
  6
CONTINUOUS
 10
-0.790587
 20
1.699063
  0
VERTEX
  8
GEO0BEMA
  6
CONTINUOUS
 10
-0.833187
 20
1.695620
  0
VERTEX
  8
GEO0BEMA
  6
CONTINUOUS
 10
-0.875084
 20
1.685605
  0
VERTEX
  8
GEO0BEMA
  6
CONTINUOUS
 10
-0.914165
 20
1.669488
  0
SEQEND
  8
0
  0
POLYLINE
  8
GEO0BEMA
 62
    93
  6
CONTINUOUS
 66
     1
 40
0.003000
 41
0.003000
  0
VERTEX
  8
GEO0BEMA
 62
    93
  6
CONTINUOUS
 10
-0.667008
 20
1.669488
  0
VERTEX
  8
GEO0BEMA
 62
    93
  6
CONTINUOUS
 10
-0.706089
 20
1.685605
  0
VERTEX
  8
GEO0BEMA
 62
    93
  6
CONTINUOUS
 10
-0.747986
 20
1.695620
  0
VERTEX
  8
GEO0BEMA
 62
    93
  6
CONTINUOUS
 10
-0.790587
 20
1.699063
  0
SEQEND
  8
0
  0
POLYLINE
  8
GEO0BEMA
 62
    93
  6
CONTINUOUS
 66
     1
 40
0.003000
 41
0.003000
  0
VERTEX
  8
GEO0BEMA
 62
    93
  6
CONTINUOUS
 10
-0.790587
 20
1.699063
  0
VERTEX
  8
GEO0BEMA
 62
    93
  6
CONTINUOUS
 10
-0.833187
 20
1.695620
  0
VERTEX
  8
GEO0BEMA
 62
    93
  6
CONTINUOUS
 10
-0.875084
 20
1.685605
  0
VERTEX
  8
GEO0BEMA
 62
    93
  6
CONTINUOUS
 10
-0.914165
 20
1.669488
  0
SEQEND
  8
0
  0
POLYLINE
  8
GEO0BEMA
 62
    93
  6
CONTINUOUS
 66
     1
 40
0.003000
 41
0.003000
  0
VERTEX
  8
GEO0BEMA
 62
    93
  6
CONTINUOUS
 10
-1.825110
 20
1.391280
  0
VERTEX
  8
GEO0BEMA
 62
    93
  6
CONTINUOUS
 10
-0.718240
 20
1.391280
  0
SEQEND
  8
0
  0
POLYLINE
  8
GEO0BEMA
 62
    93
  6
CONTINUOUS
 66
     1
 40
0.003000
 41
0.003000
  0
VERTEX
  8
GEO0BEMA
 62
    93
  6
CONTINUOUS
 10
-1.028067
 20
1.420866
  0
VERTEX
  8
GEO0BEMA
 62
    93
  6
CONTINUOUS
 10
-0.914193
 20
1.420866
  0
SEQEND
  8
0
  0
POLYLINE
  8
GEO0BEMA
 62
    93
  6
CONTINUOUS
 66
     1
 40
0.003000
 41
0.003000
  0
VERTEX
  8
GEO0BEMA
 62
    93
  6
CONTINUOUS
 10
-1.629161
 20
1.420866
  0
VERTEX
  8
GEO0BEMA
 62
    93
  6
CONTINUOUS
 10
-1.515283
 20
1.420866
  0
SEQEND
  8
0
  0
POLYLINE
  8
GEO0BEMA
 62
    93
  6
CONTINUOUS
 66
     1
 40
0.003000
 41
0.003000
  0
VERTEX
  8
GEO0BEMA
 62
    93
  6
CONTINUOUS
 10
-1.876358
 20
1.420866
  0
VERTEX
  8
GEO0BEMA
 62
    93
  6
CONTINUOUS
 10
-1.825110
 20
1.391280
  0
SEQEND
  8
0
  0
POLYLINE
  8
GEO0BEMA
 62
    93
  6
CONTINUOUS
 66
     1
 40
0.003000
 41
0.003000
  0
VERTEX
  8
GEO0BEMA
 62
    93
  6
CONTINUOUS
 10
-0.666996
 20
1.420866
  0
VERTEX
  8
GEO0BEMA
 62
    93
  6
CONTINUOUS
 10
-0.718240
 20
1.391280
  0
SEQEND
  8
0
  0
POLYLINE
  8
GEO0BEMA
 62
    93
  6
CONTINUOUS
 66
     1
 40
0.003000
 41
0.003000
  0
VERTEX
  8
GEO0BEMA
 62
    93
  6
CONTINUOUS
 10
-0.914193
 20
1.420866
  0
VERTEX
  8
GEO0BEMA
 62
    93
  6
CONTINUOUS
 10
-0.914193
 20
1.669161
  0
SEQEND
  8
0
  0
POLYLINE
  8
GEO0BEMA
 62
    93
  6
CONTINUOUS
 66
     1
 40
0.003000
 41
0.003000
  0
VERTEX
  8
GEO0BEMA
 62
    93
  6
CONTINUOUS
 10
-1.028067
 20
1.669161
  0
VERTEX
  8
GEO0BEMA
 62
    93
  6
CONTINUOUS
 10
-1.028067
 20
1.420866
  0
SEQEND
  8
0
  0
POLYLINE
  8
GEO0BEMA
 62
    93
  6
CONTINUOUS
 66
     1
 40
0.003000
 41
0.003000
  0
VERTEX
  8
GEO0BEMA
 62
    93
  6
CONTINUOUS
 10
-0.666992
 20
1.669161
  0
VERTEX
  8
GEO0BEMA
 62
    93
  6
CONTINUOUS
 10
-0.666992
 20
1.420866
  0
SEQEND
  8
0
  0
POLYLINE
  8
GEO0BEMA
 62
    93
  6
CONTINUOUS
 66
     1
 40
0.003000
 41
0.003000
  0
VERTEX
  8
GEO0BEMA
 62
    93
  6
CONTINUOUS
 10
-1.876358
 20
1.669161
  0
VERTEX
  8
GEO0BEMA
 62
    93
  6
CONTINUOUS
 10
-1.876358
 20
1.420866
  0
SEQEND
  8
0
  0
POLYLINE
  8
GEO0BEMA
 62
    93
  6
CONTINUOUS
 66
     1
 40
0.003000
 41
0.003000
  0
VERTEX
  8
GEO0BEMA
 62
    93
  6
CONTINUOUS
 10
-1.629161
 20
1.420866
  0
VERTEX
  8
GEO0BEMA
 62
    93
  6
CONTINUOUS
 10
-1.629161
 20
1.669161
  0
SEQEND
  8
0
  0
POLYLINE
  8
GEO0BEMA
 62
    93
  6
CONTINUOUS
 66
     1
 40
0.003000
 41
0.003000
  0
VERTEX
  8
GEO0BEMA
 62
    93
  6
CONTINUOUS
 10
-1.515283
 20
1.669161
  0
VERTEX
  8
GEO0BEMA
 62
    93
  6
CONTINUOUS
 10
-1.515283
 20
1.420866
  0
SEQEND
  8
0
  0
POLYLINE
  8
GEO0BEMA
 62
    93
  6
CONTINUOUS
 66
     1
 40
0.003000
 41
0.003000
  0
VERTEX
  8
GEO0BEMA
 62
    93
  6
CONTINUOUS
 10
-1.876358
 20
1.669161
  0
VERTEX
  8
GEO0BEMA
 62
    93
  6
CONTINUOUS
 10
-1.825110
 20
1.698748
  0
SEQEND
  8
0
  0
POLYLINE
  8
GEO0BEMA
 62
    93
  6
CONTINUOUS
 66
     1
 40
0.003000
 41
0.003000
  0
VERTEX
  8
GEO0BEMA
 62
    93
  6
CONTINUOUS
 10
-0.666996
 20
1.669161
  0
VERTEX
  8
GEO0BEMA
 62
    93
  6
CONTINUOUS
 10
-0.718240
 20
1.698748
  0
SEQEND
  8
0
  0
POLYLINE
  8
GEO0BEMA
 62
    93
  6
CONTINUOUS
 66
     1
 40
0.003000
 41
0.003000
  0
VERTEX
  8
GEO0BEMA
 62
    93
  6
CONTINUOUS
 10
-1.825110
 20
1.698748
  0
VERTEX
  8
GEO0BEMA
 62
    93
  6
CONTINUOUS
 10
-0.718240
 20
1.698748
  0
SEQEND
  8
0
  0
POLYLINE
  8
GEO0BEMA
 62
    93
  6
CONTINUOUS
 66
     1
 40
0.003000
 41
0.003000
  0
VERTEX
  8
GEO0BEMA
 62
    93
  6
CONTINUOUS
 10
-1.028067
 20
1.669161
  0
VERTEX
  8
GEO0BEMA
 62
    93
  6
CONTINUOUS
 10
-0.914193
 20
1.669161
  0
SEQEND
  8
0
  0
POLYLINE
  8
GEO0BEMA
 62
    93
  6
CONTINUOUS
 66
     1
 40
0.003000
 41
0.003000
  0
VERTEX
  8
GEO0BEMA
 62
    93
  6
CONTINUOUS
 10
-1.629161
 20
1.669161
  0
VERTEX
  8
GEO0BEMA
 62
    93
  6
CONTINUOUS
 10
-1.515283
 20
1.669161
  0
SEQEND
  8
0
  0
POLYLINE
  8
GEO0BEMA
 62
    20
  6
DASHDOT
 66
     1
 40
0.003000
 41
0.003000
  0
VERTEX
  8
GEO0BEMA
 62
    20
  6
DASHDOT
 10
-1.271677
 20
3.715307
  0
VERTEX
  8
GEO0BEMA
 62
    20
  6
DASHDOT
 10
-1.271677
 20
1.309291
  0
SEQEND
  8
0
  0
TEXT
  8
GEO0BEMA
 62
     7
 10
-3.938217
 20
2.156311
 40
0.237719
  1
max. 85
 50
90.000648
 41
1.000000
  7
SN0
 71
     0
 72
     5
 11
-3.938216
 21
2.828064
  0
SOLID
  8
GEO0BEMA
 62
    11
 10
-3.805232
 20
4.176504
 11
-3.845728
 21
4.176504
 12
-3.805232
 22
4.176504
 13
-3.825480
 23
4.330236
  0
POLYLINE
  8
GEO0BEMA
 62
    11
  6
CONTINUOUS
 66
     1
 40
0.003000
 41
0.003000
  0
VERTEX
  8
GEO0BEMA
 62
    11
  6
CONTINUOUS
 10
-3.805232
 20
4.176504
  0
VERTEX
  8
GEO0BEMA
 62
    11
  6
CONTINUOUS
 10
-3.845728
 20
4.176504
  0
VERTEX
  8
GEO0BEMA
 62
    11
  6
CONTINUOUS
 10
-3.825480
 20
4.330236
  0
VERTEX
  8
GEO0BEMA
 62
    11
  6
CONTINUOUS
 10
-3.805232
 20
4.176504
  0
SEQEND
  8
0
  0
SOLID
  8
GEO0BEMA
 62
    11
 10
-3.805232
 20
1.012075
 11
-3.845728
 21
1.012075
 12
-3.805232
 22
1.012075
 13
-3.825480
 23
0.858343
  0
POLYLINE
  8
GEO0BEMA
 62
    11
  6
CONTINUOUS
 66
     1
 40
0.003000
 41
0.003000
  0
VERTEX
  8
GEO0BEMA
 62
    11
  6
CONTINUOUS
 10
-3.805232
 20
1.012075
  0
VERTEX
  8
GEO0BEMA
 62
    11
  6
CONTINUOUS
 10
-3.845728
 20
1.012075
  0
VERTEX
  8
GEO0BEMA
 62
    11
  6
CONTINUOUS
 10
-3.825480
 20
0.858343
  0
VERTEX
  8
GEO0BEMA
 62
    11
  6
CONTINUOUS
 10
-3.805232
 20
1.012075
  0
SEQEND
  8
0
  0
POLYLINE
  8
GEO0BEMA
 62
    11
  6
CONTINUOUS
 66
     1
 40
0.003000
 41
0.003000
  0
VERTEX
  8
GEO0BEMA
 62
    11
  6
CONTINUOUS
 10
-1.616039
 20
4.330236
  0
VERTEX
  8
GEO0BEMA
 62
    11
  6
CONTINUOUS
 10
-3.866476
 20
4.330236
  0
SEQEND
  8
0
  0
POLYLINE
  8
GEO0BEMA
 62
    11
  6
CONTINUOUS
 66
     1
 40
0.003000
 41
0.003000
  0
VERTEX
  8
GEO0BEMA
 62
    11
  6
CONTINUOUS
 10
-1.458205
 20
0.858343
  0
VERTEX
  8
GEO0BEMA
 62
    11
  6
CONTINUOUS
 10
-3.866476
 20
0.858343
  0
SEQEND
  8
0
  0
POLYLINE
  8
GEO0BEMA
 62
    11
  6
CONTINUOUS
 66
     1
 40
0.003000
 41
0.003000
  0
VERTEX
  8
GEO0BEMA
 62
    11
  6
CONTINUOUS
 10
-3.825480
 20
0.858343
  0
VERTEX
  8
GEO0BEMA
 62
    11
  6
CONTINUOUS
 10
-3.825480
 20
4.330236
  0
SEQEND
  8
0
  0
TEXT
  8
GEO0BEMA
 62
     7
 10
-3.446272
 20
2.162591
 40
0.237719
  1
68
 50
90.000648
 41
1.000000
  7
SN0
 71
     0
 72
     5
 11
-3.446272
 21
2.374762
  0
SOLID
  8
GEO0BEMA
 62
    11
 10
-3.313287
 20
3.479583
 11
-3.353783
 21
3.479583
 12
-3.313287
 22
3.479583
 13
-3.333535
 23
3.633315
  0
POLYLINE
  8
GEO0BEMA
 62
    11
  6
CONTINUOUS
 66
     1
 40
0.003000
 41
0.003000
  0
VERTEX
  8
GEO0BEMA
 62
    11
  6
CONTINUOUS
 10
-3.313287
 20
3.479583
  0
VERTEX
  8
GEO0BEMA
 62
    11
  6
CONTINUOUS
 10
-3.353783
 20
3.479583
  0
VERTEX
  8
GEO0BEMA
 62
    11
  6
CONTINUOUS
 10
-3.333535
 20
3.633315
  0
VERTEX
  8
GEO0BEMA
 62
    11
  6
CONTINUOUS
 10
-3.313287
 20
3.479583
  0
SEQEND
  8
0
  0
SOLID
  8
GEO0BEMA
 62
    11
 10
-3.313287
 20
1.012075
 11
-3.353783
 21
1.012075
 12
-3.313287
 22
1.012075
 13
-3.333535
 23
0.858343
  0
POLYLINE
  8
GEO0BEMA
 62
    11
  6
CONTINUOUS
 66
     1
 40
0.003000
 41
0.003000
  0
VERTEX
  8
GEO0BEMA
 62
    11
  6
CONTINUOUS
 10
-3.313287
 20
1.012075
  0
VERTEX
  8
GEO0BEMA
 62
    11
  6
CONTINUOUS
 10
-3.353783
 20
1.012075
  0
VERTEX
  8
GEO0BEMA
 62
    11
  6
CONTINUOUS
 10
-3.333535
 20
0.858343
  0
VERTEX
  8
GEO0BEMA
 62
    11
  6
CONTINUOUS
 10
-3.313287
 20
1.012075
  0
SEQEND
  8
0
  0
POLYLINE
  8
GEO0BEMA
 62
    11
  6
CONTINUOUS
 66
     1
 40
0.003000
 41
0.003000
  0
VERTEX
  8
GEO0BEMA
 62
    11
  6
CONTINUOUS
 10
-1.700055
 20
3.633315
  0
VERTEX
  8
GEO0BEMA
 62
    11
  6
CONTINUOUS
 10
-3.374531
 20
3.633315
  0
SEQEND
  8
0
  0
POLYLINE
  8
GEO0BEMA
 62
    11
  6
CONTINUOUS
 66
     1
 40
0.003000
 41
0.003000
  0
VERTEX
  8
GEO0BEMA
 62
    11
  6
CONTINUOUS
 10
-1.458205
 20
0.858343
  0
VERTEX
  8
GEO0BEMA
 62
    11
  6
CONTINUOUS
 10
-3.374531
 20
0.858343
  0
SEQEND
  8
0
  0
POLYLINE
  8
GEO0BEMA
 62
    11
  6
CONTINUOUS
 66
     1
 40
0.003000
 41
0.003000
  0
VERTEX
  8
GEO0BEMA
 62
    11
  6
CONTINUOUS
 10
-3.333535
 20
0.858343
  0
VERTEX
  8
GEO0BEMA
 62
    11
  6
CONTINUOUS
 10
-3.333535
 20
3.633315
  0
SEQEND
  8
0
  0
SOLID
  8
GEO0BEMA
 62
    11
 10
-2.858035
 20
1.237547
 11
-2.898528
 21
1.237547
 12
-2.858035
 22
1.237547
 13
-2.878280
 23
1.391280
  0
POLYLINE
  8
GEO0BEMA
 62
    11
  6
CONTINUOUS
 66
     1
 40
0.003000
 41
0.003000
  0
VERTEX
  8
GEO0BEMA
 62
    11
  6
CONTINUOUS
 10
-2.858035
 20
1.237547
  0
VERTEX
  8
GEO0BEMA
 62
    11
  6
CONTINUOUS
 10
-2.898528
 20
1.237547
  0
VERTEX
  8
GEO0BEMA
 62
    11
  6
CONTINUOUS
 10
-2.878280
 20
1.391280
  0
VERTEX
  8
GEO0BEMA
 62
    11
  6
CONTINUOUS
 10
-2.858035
 20
1.237547
  0
SEQEND
  8
0
  0
SOLID
  8
GEO0BEMA
 62
    11
 10
-2.858035
 20
1.012075
 11
-2.898528
 21
1.012075
 12
-2.858035
 22
1.012075
 13
-2.878280
 23
0.858343
  0
POLYLINE
  8
GEO0BEMA
 62
    11
  6
CONTINUOUS
 66
     1
 40
0.003000
 41
0.003000
  0
VERTEX
  8
GEO0BEMA
 62
    11
  6
CONTINUOUS
 10
-2.858035
 20
1.012075
  0
VERTEX
  8
GEO0BEMA
 62
    11
  6
CONTINUOUS
 10
-2.898528
 20
1.012075
  0
VERTEX
  8
GEO0BEMA
 62
    11
  6
CONTINUOUS
 10
-2.878280
 20
0.858343
  0
VERTEX
  8
GEO0BEMA
 62
    11
  6
CONTINUOUS
 10
-2.858035
 20
1.012075
  0
SEQEND
  8
0
  0
TEXT
  8
GEO0BEMA
 62
     7
 10
-2.991020
 20
1.060244
 40
0.237719
  1
13
 50
90.000648
 41
1.000000
  7
SN0
 71
     0
 72
     5
 11
-2.991020
 21
1.234696
  0
POLYLINE
  8
GEO0BEMA
 62
    11
  6
CONTINUOUS
 66
     1
 40
0.003000
 41
0.003000
  0
VERTEX
  8
GEO0BEMA
 62
    11
  6
CONTINUOUS
 10
-0.790181
 20
1.533535
  0
VERTEX
  8
GEO0BEMA
 62
    11
  6
CONTINUOUS
 10
0.208870
 20
1.691776
  0
SEQEND
  8
0
  0
POLYLINE
  8
GEO0BEMA
 62
    11
  6
CONTINUOUS
 66
     1
 40
0.003000
 41
0.003000
  0
VERTEX
  8
GEO0BEMA
 62
    11
  6
CONTINUOUS
 10
-2.878280
 20
0.858343
  0
VERTEX
  8
GEO0BEMA
 62
    11
  6
CONTINUOUS
 10
-2.878280
 20
1.391280
  0
SEQEND
  8
0
  0
POLYLINE
  8
GEO0BEMA
 62
    11
  6
CONTINUOUS
 66
     1
 40
0.003000
 41
0.003000
  0
VERTEX
  8
GEO0BEMA
 62
    11
  6
CONTINUOUS
 10
-1.458205
 20
0.858343
  0
VERTEX
  8
GEO0BEMA
 62
    11
  6
CONTINUOUS
 10
-2.919276
 20
0.858343
  0
SEQEND
  8
0
  0
POLYLINE
  8
GEO0BEMA
 62
    11
  6
CONTINUOUS
 66
     1
 40
0.003000
 41
0.003000
  0
VERTEX
  8
GEO0BEMA
 62
    11
  6
CONTINUOUS
 10
-1.825110
 20
1.391280
  0
VERTEX
  8
GEO0BEMA
 62
    11
  6
CONTINUOUS
 10
-2.919276
 20
1.391280
  0
SEQEND
  8
0
  0
SOLID
  8
GEO0BEMA
 62
    11
 10
-2.858035
 20
0.622618
 11
-2.898528
 21
0.622618
 12
-2.858035
 22
0.622618
 13
-2.878280
 23
0.776350
  0
POLYLINE
  8
GEO0BEMA
 62
    11
  6
CONTINUOUS
 66
     1
 40
0.003000
 41
0.003000
  0
VERTEX
  8
GEO0BEMA
 62
    11
  6
CONTINUOUS
 10
-2.858035
 20
0.622618
  0
VERTEX
  8
GEO0BEMA
 62
    11
  6
CONTINUOUS
 10
-2.898528
 20
0.622618
  0
VERTEX
  8
GEO0BEMA
 62
    11
  6
CONTINUOUS
 10
-2.878280
 20
0.776350
  0
VERTEX
  8
GEO0BEMA
 62
    11
  6
CONTINUOUS
 10
-2.858035
 20
0.622618
  0
SEQEND
  8
0
  0
TEXT
  8
GEO0BEMA
 62
     7
 10
-2.991020
 20
0.353106
 40
0.237719
  1
2
 50
90.000640
 41
1.000000
  7
SN0
 71
     0
 72
     5
 11
-2.991020
 21
0.459068
  0
POLYLINE
  8
GEO0BEMA
 62
    11
  6
CONTINUOUS
 66
     1
 40
0.003000
 41
0.003000
  0
VERTEX
  8
GEO0BEMA
 62
    11
  6
CONTINUOUS
 10
-2.878280
 20
0.858343
  0
VERTEX
  8
GEO0BEMA
 62
    11
  6
CONTINUOUS
 10
-2.878280
 20
0.776350
  0
SEQEND
  8
0
  0
POLYLINE
  8
GEO0BEMA
 62
    11
  6
CONTINUOUS
 66
     1
 40
0.003000
 41
0.003000
  0
VERTEX
  8
GEO0BEMA
 62
    11
  6
CONTINUOUS
 10
-2.878280
 20
0.306988
  0
VERTEX
  8
GEO0BEMA
 62
    11
  6
CONTINUOUS
 10
-2.878280
 20
0.776350
  0
SEQEND
  8
0
  0
POLYLINE
  8
GEO0BEMA
 62
    11
  6
CONTINUOUS
 66
     1
 40
0.003000
 41
0.003000
  0
VERTEX
  8
GEO0BEMA
 62
    11
  6
CONTINUOUS
 10
-2.919276
 20
0.776350
  0
VERTEX
  8
GEO0BEMA
 62
    11
  6
CONTINUOUS
 10
-2.494799
 20
0.776350
  0
SEQEND
  8
0
  0
POLYLINE
  8
GEO0BEMA
 62
    11
  6
CONTINUOUS
 66
     1
 40
0.003000
 41
0.003000
  0
VERTEX
  8
GEO0BEMA
 62
    11
  6
CONTINUOUS
 10
-2.367220
 20
0.776350
  0
VERTEX
  8
GEO0BEMA
 62
    11
  6
CONTINUOUS
 10
-1.365965
 20
0.776350
  0
SEQEND
  8
0
  0
SOLID
  8
GEO0BEMA
 62
    11
 10
-2.407087
 20
0.704610
 11
-2.447579
 21
0.704610
 12
-2.407087
 22
0.704610
 13
-2.427331
 23
0.858343
  0
POLYLINE
  8
GEO0BEMA
 62
    11
  6
CONTINUOUS
 66
     1
 40
0.003000
 41
0.003000
  0
VERTEX
  8
GEO0BEMA
 62
    11
  6
CONTINUOUS
 10
-2.407087
 20
0.704610
  0
VERTEX
  8
GEO0BEMA
 62
    11
  6
CONTINUOUS
 10
-2.447579
 20
0.704610
  0
VERTEX
  8
GEO0BEMA
 62
    11
  6
CONTINUOUS
 10
-2.427331
 20
0.858343
  0
VERTEX
  8
GEO0BEMA
 62
    11
  6
CONTINUOUS
 10
-2.407087
 20
0.704610
  0
SEQEND
  8
0
  0
SOLID
  8
GEO0BEMA
 62
    11
 10
-2.407087
 20
1.094063
 11
-2.447579
 21
1.094063
 12
-2.407087
 22
1.094063
 13
-2.427331
 23
0.940331
  0
POLYLINE
  8
GEO0BEMA
 62
    11
  6
CONTINUOUS
 66
     1
 40
0.003000
 41
0.003000
  0
VERTEX
  8
GEO0BEMA
 62
    11
  6
CONTINUOUS
 10
-2.407087
 20
1.094063
  0
VERTEX
  8
GEO0BEMA
 62
    11
  6
CONTINUOUS
 10
-2.447579
 20
1.094063
  0
VERTEX
  8
GEO0BEMA
 62
    11
  6
CONTINUOUS
 10
-2.427331
 20
0.940331
  0
VERTEX
  8
GEO0BEMA
 62
    11
  6
CONTINUOUS
 10
-2.407087
 20
1.094063
  0
SEQEND
  8
0
  0
TEXT
  8
GEO0BEMA
 62
     7
 10
-2.540071
 20
0.341921
 40
0.237719
  1
2
 50
90.000648
 41
1.000000
  7
SN0
 71
     0
 72
     5
 11
-2.540071
 21
0.447883
  0
POLYLINE
  8
GEO0BEMA
 62
    11
  6
CONTINUOUS
 66
     1
 40
0.003000
 41
0.003000
  0
VERTEX
  8
GEO0BEMA
 62
    11
  6
CONTINUOUS
 10
-2.427331
 20
0.858343
  0
VERTEX
  8
GEO0BEMA
 62
    11
  6
CONTINUOUS
 10
-2.427331
 20
0.940331
  0
SEQEND
  8
0
  0
POLYLINE
  8
GEO0BEMA
 62
    11
  6
CONTINUOUS
 66
     1
 40
0.003000
 41
0.003000
  0
VERTEX
  8
GEO0BEMA
 62
    11
  6
CONTINUOUS
 10
-2.427331
 20
0.295799
  0
VERTEX
  8
GEO0BEMA
 62
    11
  6
CONTINUOUS
 10
-2.427331
 20
0.858343
  0
SEQEND
  8
0
  0
POLYLINE
  8
GEO0BEMA
 62
    11
  6
CONTINUOUS
 66
     1
 40
0.003000
 41
0.003000
  0
VERTEX
  8
GEO0BEMA
 62
    11
  6
CONTINUOUS
 10
-2.427331
 20
0.940331
  0
VERTEX
  8
GEO0BEMA
 62
    11
  6
CONTINUOUS
 10
-2.427331
 20
1.350287
  0
SEQEND
  8
0
  0
POLYLINE
  8
GEO0BEMA
 62
    11
  6
CONTINUOUS
 66
     1
 40
0.003000
 41
0.003000
  0
VERTEX
  8
GEO0BEMA
 62
    11
  6
CONTINUOUS
 10
-1.502173
 20
0.940331
  0
VERTEX
  8
GEO0BEMA
 62
    11
  6
CONTINUOUS
 10
-2.468327
 20
0.940331
  0
SEQEND
  8
0
  0
SOLID
  8
GEO0BEMA
 62
    11
 10
-1.695098
 20
-0.610594
 11
-1.695098
 21
-0.570102
 12
-1.695098
 22
-0.610594
 13
-1.541366
 23
-0.590350
  0
POLYLINE
  8
GEO0BEMA
 62
    11
  6
CONTINUOUS
 66
     1
 40
0.003000
 41
0.003000
  0
VERTEX
  8
GEO0BEMA
 62
    11
  6
CONTINUOUS
 10
-1.695098
 20
-0.610594
  0
VERTEX
  8
GEO0BEMA
 62
    11
  6
CONTINUOUS
 10
-1.695098
 20
-0.570102
  0
VERTEX
  8
GEO0BEMA
 62
    11
  6
CONTINUOUS
 10
-1.541366
 20
-0.590350
  0
VERTEX
  8
GEO0BEMA
 62
    11
  6
CONTINUOUS
 10
-1.695098
 20
-0.610594
  0
SEQEND
  8
0
  0
SOLID
  8
GEO0BEMA
 62
    11
 10
-0.848256
 20
-0.570102
 11
-0.848256
 21
-0.610594
 12
-0.848256
 22
-0.570102
 13
-1.001988
 23
-0.590350
  0
POLYLINE
  8
GEO0BEMA
 62
    11
  6
CONTINUOUS
 66
     1
 40
0.003000
 41
0.003000
  0
VERTEX
  8
GEO0BEMA
 62
    11
  6
CONTINUOUS
 10
-0.848256
 20
-0.570102
  0
VERTEX
  8
GEO0BEMA
 62
    11
  6
CONTINUOUS
 10
-0.848256
 20
-0.610594
  0
VERTEX
  8
GEO0BEMA
 62
    11
  6
CONTINUOUS
 10
-1.001988
 20
-0.590350
  0
VERTEX
  8
GEO0BEMA
 62
    11
  6
CONTINUOUS
 10
-0.848256
 20
-0.570102
  0
SEQEND
  8
0
  0
TEXT
  8
GEO0BEMA
 62
     7
 10
-2.424858
 20
-0.477610
 40
0.237719
  1
G1/4B
 41
1.000000
  7
SN0
 71
     0
 72
     5
 11
-1.926813
 21
-0.477610
  0
POLYLINE
  8
GEO0BEMA
 62
    11
  6
CONTINUOUS
 66
     1
 40
0.003000
 41
0.003000
  0
VERTEX
  8
GEO0BEMA
 62
    11
  6
CONTINUOUS
 10
-1.541366
 20
-0.590350
  0
VERTEX
  8
GEO0BEMA
 62
    11
  6
CONTINUOUS
 10
-1.001988
 20
-0.590350
  0
SEQEND
  8
0
  0
POLYLINE
  8
GEO0BEMA
 62
    11
  6
CONTINUOUS
 66
     1
 40
0.003000
 41
0.003000
  0
VERTEX
  8
GEO0BEMA
 62
    11
  6
CONTINUOUS
 10
-2.470980
 20
-0.590350
  0
VERTEX
  8
GEO0BEMA
 62
    11
  6
CONTINUOUS
 10
-1.541366
 20
-0.590350
  0
SEQEND
  8
0
  0
POLYLINE
  8
GEO0BEMA
 62
    11
  6
CONTINUOUS
 66
     1
 40
0.003000
 41
0.003000
  0
VERTEX
  8
GEO0BEMA
 62
    11
  6
CONTINUOUS
 10
-0.592031
 20
-0.590350
  0
VERTEX
  8
GEO0BEMA
 62
    11
  6
CONTINUOUS
 10
-1.001988
 20
-0.590350
  0
SEQEND
  8
0
  0
POLYLINE
  8
GEO0BEMA
 62
    11
  6
CONTINUOUS
 66
     1
 40
0.003000
 41
0.003000
  0
VERTEX
  8
GEO0BEMA
 62
    11
  6
CONTINUOUS
 10
-1.541366
 20
0.979524
  0
VERTEX
  8
GEO0BEMA
 62
    11
  6
CONTINUOUS
 10
-1.541366
 20
0.427480
  0
SEQEND
  8
0
  0
POLYLINE
  8
GEO0BEMA
 62
    11
  6
CONTINUOUS
 66
     1
 40
0.003000
 41
0.003000
  0
VERTEX
  8
GEO0BEMA
 62
    11
  6
CONTINUOUS
 10
-1.001988
 20
0.979524
  0
VERTEX
  8
GEO0BEMA
 62
    11
  6
CONTINUOUS
 10
-1.001988
 20
0.427480
  0
SEQEND
  8
0
  0
POLYLINE
  8
GEO0BEMA
 62
    11
  6
CONTINUOUS
 66
     1
 40
0.003000
 41
0.003000
  0
VERTEX
  8
GEO0BEMA
 62
    11
  6
CONTINUOUS
 10
-1.541366
 20
0.298839
  0
VERTEX
  8
GEO0BEMA
 62
    11
  6
CONTINUOUS
 10
-1.541366
 20
-0.074094
  0
SEQEND
  8
0
  0
POLYLINE
  8
GEO0BEMA
 62
    11
  6
CONTINUOUS
 66
     1
 40
0.003000
 41
0.003000
  0
VERTEX
  8
GEO0BEMA
 62
    11
  6
CONTINUOUS
 10
-1.001988
 20
0.298839
  0
VERTEX
  8
GEO0BEMA
 62
    11
  6
CONTINUOUS
 10
-1.001988
 20
-0.074094
  0
SEQEND
  8
0
  0
POLYLINE
  8
GEO0BEMA
 62
    11
  6
CONTINUOUS
 66
     1
 40
0.003000
 41
0.003000
  0
VERTEX
  8
GEO0BEMA
 62
    11
  6
CONTINUOUS
 10
-1.541366
 20
-0.201220
  0
VERTEX
  8
GEO0BEMA
 62
    11
  6
CONTINUOUS
 10
-1.541366
 20
-0.631343
  0
SEQEND
  8
0
  0
POLYLINE
  8
GEO0BEMA
 62
    11
  6
CONTINUOUS
 66
     1
 40
0.003000
 41
0.003000
  0
VERTEX
  8
GEO0BEMA
 62
    11
  6
CONTINUOUS
 10
-1.001988
 20
-0.201220
  0
VERTEX
  8
GEO0BEMA
 62
    11
  6
CONTINUOUS
 10
-1.001988
 20
-0.631343
  0
SEQEND
  8
0
  0
SOLID
  8
GEO0BEMA
 62
    11
 10
-1.620138
 20
-0.159646
 11
-1.620138
 21
-0.119154
 12
-1.620138
 22
-0.159646
 13
-1.466406
 23
-0.139398
  0
POLYLINE
  8
GEO0BEMA
 62
    11
  6
CONTINUOUS
 66
     1
 40
0.003000
 41
0.003000
  0
VERTEX
  8
GEO0BEMA
 62
    11
  6
CONTINUOUS
 10
-1.620138
 20
-0.159646
  0
VERTEX
  8
GEO0BEMA
 62
    11
  6
CONTINUOUS
 10
-1.620138
 20
-0.119154
  0
VERTEX
  8
GEO0BEMA
 62
    11
  6
CONTINUOUS
 10
-1.466406
 20
-0.139398
  0
VERTEX
  8
GEO0BEMA
 62
    11
  6
CONTINUOUS
 10
-1.620138
 20
-0.159646
  0
SEQEND
  8
0
  0
SOLID
  8
GEO0BEMA
 62
    11
 10
-0.923213
 20
-0.119154
 11
-0.923213
 21
-0.159646
 12
-0.923213
 22
-0.119154
 13
-1.076949
 23
-0.139398
  0
POLYLINE
  8
GEO0BEMA
 62
    11
  6
CONTINUOUS
 66
     1
 40
0.003000
 41
0.003000
  0
VERTEX
  8
GEO0BEMA
 62
    11
  6
CONTINUOUS
 10
-0.923213
 20
-0.119154
  0
VERTEX
  8
GEO0BEMA
 62
    11
  6
CONTINUOUS
 10
-0.923213
 20
-0.159646
  0
VERTEX
  8
GEO0BEMA
 62
    11
  6
CONTINUOUS
 10
-1.076949
 20
-0.139398
  0
VERTEX
  8
GEO0BEMA
 62
    11
  6
CONTINUOUS
 10
-0.923213
 20
-0.119154
  0
SEQEND
  8
0
  0
TEXT
  8
GEO0BEMA
 62
     7
 10
-2.196122
 20
-0.026661
 40
0.237719
  1
ø 9,5
 41
1.000000
  7
SN0
 71
     0
 72
     5
 11
-1.788405
 21
-0.026661
  0
POLYLINE
  8
GEO0BEMA
 62
    11
  6
CONTINUOUS
 66
     1
 40
0.003000
 41
0.003000
  0
VERTEX
  8
GEO0BEMA
 62
    11
  6
CONTINUOUS
 10
-1.466406
 20
-0.139398
  0
VERTEX
  8
GEO0BEMA
 62
    11
  6
CONTINUOUS
 10
-1.076949
 20
-0.139398
  0
SEQEND
  8
0
  0
POLYLINE
  8
GEO0BEMA
 62
    11
  6
CONTINUOUS
 66
     1
 40
0.003000
 41
0.003000
  0
VERTEX
  8
GEO0BEMA
 62
    11
  6
CONTINUOUS
 10
-2.242244
 20
-0.139398
  0
VERTEX
  8
GEO0BEMA
 62
    11
  6
CONTINUOUS
 10
-1.466406
 20
-0.139398
  0
SEQEND
  8
0
  0
POLYLINE
  8
GEO0BEMA
 62
    11
  6
CONTINUOUS
 66
     1
 40
0.003000
 41
0.003000
  0
VERTEX
  8
GEO0BEMA
 62
    11
  6
CONTINUOUS
 10
-0.666992
 20
-0.139398
  0
VERTEX
  8
GEO0BEMA
 62
    11
  6
CONTINUOUS
 10
-1.076949
 20
-0.139398
  0
SEQEND
  8
0
  0
POLYLINE
  8
GEO0BEMA
 62
    11
  6
CONTINUOUS
 66
     1
 40
0.003000
 41
0.003000
  0
VERTEX
  8
GEO0BEMA
 62
    11
  6
CONTINUOUS
 10
-1.466406
 20
0.866539
  0
VERTEX
  8
GEO0BEMA
 62
    11
  6
CONTINUOUS
 10
-1.466406
 20
0.427480
  0
SEQEND
  8
0
  0
POLYLINE
  8
GEO0BEMA
 62
    11
  6
CONTINUOUS
 66
     1
 40
0.003000
 41
0.003000
  0
VERTEX
  8
GEO0BEMA
 62
    11
  6
CONTINUOUS
 10
-1.076949
 20
0.866539
  0
VERTEX
  8
GEO0BEMA
 62
    11
  6
CONTINUOUS
 10
-1.076949
 20
0.427480
  0
SEQEND
  8
0
  0
POLYLINE
  8
GEO0BEMA
 62
    11
  6
CONTINUOUS
 66
     1
 40
0.003000
 41
0.003000
  0
VERTEX
  8
GEO0BEMA
 62
    11
  6
CONTINUOUS
 10
-1.466406
 20
0.298839
  0
VERTEX
  8
GEO0BEMA
 62
    11
  6
CONTINUOUS
 10
-1.466406
 20
-0.180394
  0
SEQEND
  8
0
  0
POLYLINE
  8
GEO0BEMA
 62
    11
  6
CONTINUOUS
 66
     1
 40
0.003000
 41
0.003000
  0
VERTEX
  8
GEO0BEMA
 62
    11
  6
CONTINUOUS
 10
-1.076949
 20
0.298839
  0
VERTEX
  8
GEO0BEMA
 62
    11
  6
CONTINUOUS
 10
-1.076949
 20
-0.180394
  0
SEQEND
  8
0
  0
SOLID
  8
GEO0BEMA
 62
    11
 10
-1.527898
 20
0.332295
 11
-1.527898
 21
0.372787
 12
-1.527898
 22
0.332295
 13
-1.374161
 23
0.352539
  0
POLYLINE
  8
GEO0BEMA
 62
    11
  6
CONTINUOUS
 66
     1
 40
0.003000
 41
0.003000
  0
VERTEX
  8
GEO0BEMA
 62
    11
  6
CONTINUOUS
 10
-1.527898
 20
0.332295
  0
VERTEX
  8
GEO0BEMA
 62
    11
  6
CONTINUOUS
 10
-1.527898
 20
0.372787
  0
VERTEX
  8
GEO0BEMA
 62
    11
  6
CONTINUOUS
 10
-1.374161
 20
0.352539
  0
VERTEX
  8
GEO0BEMA
 62
    11
  6
CONTINUOUS
 10
-1.527898
 20
0.332295
  0
SEQEND
  8
0
  0
SOLID
  8
GEO0BEMA
 62
    11
 10
-1.015453
 20
0.372787
 11
-1.015453
 21
0.332295
 12
-1.015453
 22
0.372787
 13
-1.169185
 23
0.352539
  0
POLYLINE
  8
GEO0BEMA
 62
    11
  6
CONTINUOUS
 66
     1
 40
0.003000
 41
0.003000
  0
VERTEX
  8
GEO0BEMA
 62
    11
  6
CONTINUOUS
 10
-1.015453
 20
0.372787
  0
VERTEX
  8
GEO0BEMA
 62
    11
  6
CONTINUOUS
 10
-1.015453
 20
0.332295
  0
VERTEX
  8
GEO0BEMA
 62
    11
  6
CONTINUOUS
 10
-1.169185
 20
0.352539
  0
VERTEX
  8
GEO0BEMA
 62
    11
  6
CONTINUOUS
 10
-1.015453
 20
0.372787
  0
SEQEND
  8
0
  0
TEXT
  8
GEO0BEMA
 62
     7
 10
-2.032185
 20
0.465280
 40
0.237719
  1
ø 5
 41
1.000000
  7
SN0
 71
     0
 72
     5
 11
-1.775594
 21
0.465280
  0
POLYLINE
  8
GEO0BEMA
 62
    11
  6
CONTINUOUS
 66
     1
 40
0.003000
 41
0.003000
  0
VERTEX
  8
GEO0BEMA
 62
    11
  6
CONTINUOUS
 10
-1.374161
 20
0.352539
  0
VERTEX
  8
GEO0BEMA
 62
    11
  6
CONTINUOUS
 10
-1.169185
 20
0.352539
  0
SEQEND
  8
0
  0
POLYLINE
  8
GEO0BEMA
 62
    11
  6
CONTINUOUS
 66
     1
 40
0.003000
 41
0.003000
  0
VERTEX
  8
GEO0BEMA
 62
    11
  6
CONTINUOUS
 10
-1.956299
 20
0.352539
  0
VERTEX
  8
GEO0BEMA
 62
    11
  6
CONTINUOUS
 10
-1.374161
 20
0.352539
  0
SEQEND
  8
0
  0
POLYLINE
  8
GEO0BEMA
 62
    11
  6
CONTINUOUS
 66
     1
 40
0.003000
 41
0.003000
  0
VERTEX
  8
GEO0BEMA
 62
    11
  6
CONTINUOUS
 10
-0.759232
 20
0.352539
  0
VERTEX
  8
GEO0BEMA
 62
    11
  6
CONTINUOUS
 10
-1.169185
 20
0.352539
  0
SEQEND
  8
0
  0
POLYLINE
  8
GEO0BEMA
 62
    11
  6
CONTINUOUS
 66
     1
 40
0.003000
 41
0.003000
  0
VERTEX
  8
GEO0BEMA
 62
    11
  6
CONTINUOUS
 10
-1.374165
 20
0.784551
  0
VERTEX
  8
GEO0BEMA
 62
    11
  6
CONTINUOUS
 10
-1.374161
 20
0.311547
  0
SEQEND
  8
0
  0
POLYLINE
  8
GEO0BEMA
 62
    11
  6
CONTINUOUS
 66
     1
 40
0.003000
 41
0.003000
  0
VERTEX
  8
GEO0BEMA
 62
    11
  6
CONTINUOUS
 10
-1.169189
 20
0.784551
  0
VERTEX
  8
GEO0BEMA
 62
    11
  6
CONTINUOUS
 10
-1.169185
 20
0.311547
  0
SEQEND
  8
0
  0
SOLID
  8
GEO0BEMA
 62
    11
 10
-0.871972
 20
2.303677
 11
-0.871972
 21
2.344173
 12
-0.871972
 22
2.303677
 13
-0.718240
 23
2.323925
  0
POLYLINE
  8
GEO0BEMA
 62
    11
  6
CONTINUOUS
 66
     1
 40
0.003000
 41
0.003000
  0
VERTEX
  8
GEO0BEMA
 62
    11
  6
CONTINUOUS
 10
-0.871972
 20
2.303677
  0
VERTEX
  8
GEO0BEMA
 62
    11
  6
CONTINUOUS
 10
-0.871972
 20
2.344173
  0
VERTEX
  8
GEO0BEMA
 62
    11
  6
CONTINUOUS
 10
-0.718240
 20
2.323925
  0
VERTEX
  8
GEO0BEMA
 62
    11
  6
CONTINUOUS
 10
-0.871972
 20
2.303677
  0
SEQEND
  8
0
  0
SOLID
  8
GEO0BEMA
 62
    11
 10
-1.671382
 20
2.303677
 11
-1.671382
 21
2.344173
 12
-1.671382
 22
2.303677
 13
-1.825114
 23
2.323925
  0
POLYLINE
  8
GEO0BEMA
 62
    11
  6
CONTINUOUS
 66
     1
 40
0.003000
 41
0.003000
  0
VERTEX
  8
GEO0BEMA
 62
    11
  6
CONTINUOUS
 10
-1.671382
 20
2.303677
  0
VERTEX
  8
GEO0BEMA
 62
    11
  6
CONTINUOUS
 10
-1.671382
 20
2.344173
  0
VERTEX
  8
GEO0BEMA
 62
    11
  6
CONTINUOUS
 10
-1.825114
 20
2.323925
  0
VERTEX
  8
GEO0BEMA
 62
    11
  6
CONTINUOUS
 10
-1.671382
 20
2.303677
  0
SEQEND
  8
0
  0
TEXT
  8
GEO0BEMA
 62
     7
 10
-1.780311
 20
2.436661
 40
0.237719
  1
ø 27
 41
1.000000
  7
SN0
 71
     0
 72
     5
 11
-1.417758
 21
2.436661
  0
POLYLINE
  8
GEO0BEMA
 62
    11
  6
CONTINUOUS
 66
     1
 40
0.003000
 41
0.003000
  0
VERTEX
  8
GEO0BEMA
 62
    11
  6
CONTINUOUS
 10
-1.825114
 20
2.323925
  0
VERTEX
  8
GEO0BEMA
 62
    11
  6
CONTINUOUS
 10
-0.718240
 20
2.323925
  0
SEQEND
  8
0
  0
POLYLINE
  8
GEO0BEMA
  6
CONTINUOUS
 66
     1
 40
0.003000
 41
0.003000
  0
VERTEX
  8
GEO0BEMA
  6
CONTINUOUS
 10
-1.761693
 20
3.557689
  0
VERTEX
  8
GEO0BEMA
  6
CONTINUOUS
 10
-1.794503
 20
3.541782
  0
VERTEX
  8
GEO0BEMA
  6
CONTINUOUS
 10
-1.816850
 20
3.513704
  0
VERTEX
  8
GEO0BEMA
  6
CONTINUOUS
 10
-1.825106
 20
3.477941
  0
SEQEND
  8
0
  0
POLYLINE
  8
GEO0BEMA
 62
    93
  6
CONTINUOUS
 66
     1
 40
0.003000
 41
0.003000
  0
VERTEX
  8
GEO0BEMA
 62
    93
  6
CONTINUOUS
 10
-1.761693
 20
3.557689
  0
VERTEX
  8
GEO0BEMA
 62
    93
  6
CONTINUOUS
 10
-1.794503
 20
3.541782
  0
VERTEX
  8
GEO0BEMA
 62
    93
  6
CONTINUOUS
 10
-1.816850
 20
3.513704
  0
VERTEX
  8
GEO0BEMA
 62
    93
  6
CONTINUOUS
 10
-1.825106
 20
3.477941
  0
SEQEND
  8
0
  0
POLYLINE
  8
GEO0BEMA
  6
CONTINUOUS
 66
     1
 40
0.003000
 41
0.003000
  0
VERTEX
  8
GEO0BEMA
  6
CONTINUOUS
 10
-0.718240
 20
3.477941
  0
VERTEX
  8
GEO0BEMA
  6
CONTINUOUS
 10
-0.729461
 20
3.519267
  0
VERTEX
  8
GEO0BEMA
  6
CONTINUOUS
 10
-0.758902
 20
3.548708
  0
VERTEX
  8
GEO0BEMA
  6
CONTINUOUS
 10
-0.800228
 20
3.559929
  0
SEQEND
  8
0
  0
POLYLINE
  8
GEO0BEMA
 62
    93
  6
CONTINUOUS
 66
     1
 40
0.003000
 41
0.003000
  0
VERTEX
  8
GEO0BEMA
 62
    93
  6
CONTINUOUS
 10
-0.718240
 20
3.477941
  0
VERTEX
  8
GEO0BEMA
 62
    93
  6
CONTINUOUS
 10
-0.729461
 20
3.519267
  0
VERTEX
  8
GEO0BEMA
 62
    93
  6
CONTINUOUS
 10
-0.758902
 20
3.548708
  0
VERTEX
  8
GEO0BEMA
 62
    93
  6
CONTINUOUS
 10
-0.800228
 20
3.559929
  0
SEQEND
  8
0
  0
POLYLINE
  8
GEO0BEMA
  6
CONTINUOUS
 66
     1
 40
0.003000
 41
0.003000
  0
VERTEX
  8
GEO0BEMA
  6
CONTINUOUS
 10
-0.718236
 20
3.047492
  0
VERTEX
  8
GEO0BEMA
  6
CONTINUOUS
 10
-0.726929
 20
3.080155
  0
VERTEX
  8
GEO0BEMA
  6
CONTINUOUS
 10
-0.749856
 20
3.103651
  0
VERTEX
  8
GEO0BEMA
  6
CONTINUOUS
 10
-0.782291
 20
3.113083
  0
SEQEND
  8
0
  0
POLYLINE
  8
GEO0BEMA
 62
    93
  6
CONTINUOUS
 66
     1
 40
0.003000
 41
0.003000
  0
VERTEX
  8
GEO0BEMA
 62
    93
  6
CONTINUOUS
 10
-0.718236
 20
3.047492
  0
VERTEX
  8
GEO0BEMA
 62
    93
  6
CONTINUOUS
 10
-0.726929
 20
3.080155
  0
VERTEX
  8
GEO0BEMA
 62
    93
  6
CONTINUOUS
 10
-0.749856
 20
3.103651
  0
VERTEX
  8
GEO0BEMA
 62
    93
  6
CONTINUOUS
 10
-0.782291
 20
3.113083
  0
SEQEND
  8
0
  0
POLYLINE
  8
GEO0BEMA
  6
CONTINUOUS
 66
     1
 40
0.003000
 41
0.003000
  0
VERTEX
  8
GEO0BEMA
  6
CONTINUOUS
 10
-1.761055
 20
3.113083
  0
VERTEX
  8
GEO0BEMA
  6
CONTINUOUS
 10
-1.793377
 20
3.103594
  0
VERTEX
  8
GEO0BEMA
  6
CONTINUOUS
 10
-1.816361
 20
3.080041
  0
VERTEX
  8
GEO0BEMA
  6
CONTINUOUS
 10
-1.825110
 20
3.047492
  0
SEQEND
  8
0
  0
POLYLINE
  8
GEO0BEMA
 62
    93
  6
CONTINUOUS
 66
     1
 40
0.003000
 41
0.003000
  0
VERTEX
  8
GEO0BEMA
 62
    93
  6
CONTINUOUS
 10
-1.761055
 20
3.113083
  0
VERTEX
  8
GEO0BEMA
 62
    93
  6
CONTINUOUS
 10
-1.793377
 20
3.103594
  0
VERTEX
  8
GEO0BEMA
 62
    93
  6
CONTINUOUS
 10
-1.816361
 20
3.080041
  0
VERTEX
  8
GEO0BEMA
 62
    93
  6
CONTINUOUS
 10
-1.825110
 20
3.047492
  0
SEQEND
  8
0
  0
POLYLINE
  8
GEO0BEMA
 62
    93
  6
CONTINUOUS
 66
     1
 40
0.003000
 41
0.003000
  0
VERTEX
  8
GEO0BEMA
 62
    93
  6
CONTINUOUS
 10
-1.761571
 20
3.592295
  0
VERTEX
  8
GEO0BEMA
 62
    93
  6
CONTINUOUS
 10
-0.802280
 20
3.592295
  0
SEQEND
  8
0
  0
POLYLINE
  8
GEO0BEMA
 62
    93
  6
CONTINUOUS
 66
     1
 40
0.003000
 41
0.003000
  0
VERTEX
  8
GEO0BEMA
 62
    93
  6
CONTINUOUS
 10
-1.761571
 20
3.557827
  0
VERTEX
  8
GEO0BEMA
 62
    93
  6
CONTINUOUS
 10
-0.802280
 20
3.559906
  0
SEQEND
  8
0
  0
POLYLINE
  8
GEO0BEMA
 62
    93
  6
CONTINUOUS
 66
     1
 40
0.003000
 41
0.003000
  0
VERTEX
  8
GEO0BEMA
 62
    93
  6
CONTINUOUS
 10
-0.802280
 20
3.592295
  0
VERTEX
  8
GEO0BEMA
 62
    93
  6
CONTINUOUS
 10
-0.802280
 20
3.559906
  0
SEQEND
  8
0
  0
POLYLINE
  8
GEO0BEMA
 62
    93
  6
CONTINUOUS
 66
     1
 40
0.003000
 41
0.003000
  0
VERTEX
  8
GEO0BEMA
 62
    93
  6
CONTINUOUS
 10
-1.761571
 20
3.592295
  0
VERTEX
  8
GEO0BEMA
 62
    93
  6
CONTINUOUS
 10
-1.761571
 20
3.557827
  0
SEQEND
  8
0
  0
POLYLINE
  8
GEO0BEMA
 62
    93
  6
CONTINUOUS
 66
     1
 40
0.003000
 41
0.003000
  0
VERTEX
  8
GEO0BEMA
 62
    93
  6
CONTINUOUS
 10
-0.802280
 20
3.592295
  0
VERTEX
  8
GEO0BEMA
 62
    93
  6
CONTINUOUS
 10
-0.843303
 20
3.633315
  0
SEQEND
  8
0
  0
POLYLINE
  8
GEO0BEMA
 62
    93
  6
CONTINUOUS
 66
     1
 40
0.003000
 41
0.003000
  0
VERTEX
  8
GEO0BEMA
 62
    93
  6
CONTINUOUS
 10
-0.718240
 20
3.477535
  0
VERTEX
  8
GEO0BEMA
 62
    93
  6
CONTINUOUS
 10
-0.718240
 20
3.113083
  0
SEQEND
  8
0
  0
POLYLINE
  8
GEO0BEMA
 62
    93
  6
CONTINUOUS
 66
     1
 40
0.003000
 41
0.003000
  0
VERTEX
  8
GEO0BEMA
 62
    93
  6
CONTINUOUS
 10
-1.741075
 20
3.592295
  0
VERTEX
  8
GEO0BEMA
 62
    93
  6
CONTINUOUS
 10
-1.700055
 20
3.633315
  0
SEQEND
  8
0
  0
POLYLINE
  8
GEO0BEMA
 62
    93
  6
CONTINUOUS
 66
     1
 40
0.003000
 41
0.003000
  0
VERTEX
  8
GEO0BEMA
 62
    93
  6
CONTINUOUS
 10
-1.825114
 20
3.477535
  0
VERTEX
  8
GEO0BEMA
 62
    93
  6
CONTINUOUS
 10
-1.825114
 20
3.113083
  0
SEQEND
  8
0
  0
POLYLINE
  8
GEO0BEMA
 62
    93
  6
CONTINUOUS
 66
     1
 40
0.003000
 41
0.003000
  0
VERTEX
  8
GEO0BEMA
 62
    93
  6
CONTINUOUS
 10
-1.825114
 20
3.113083
  0
VERTEX
  8
GEO0BEMA
 62
    93
  6
CONTINUOUS
 10
-0.718240
 20
3.113083
  0
SEQEND
  8
0
  0
POLYLINE
  8
GEO0BEMA
 62
    93
  6
CONTINUOUS
 66
     1
 40
0.003000
 41
0.003000
  0
VERTEX
  8
GEO0BEMA
 62
    93
  6
CONTINUOUS
 10
-1.700055
 20
3.633315
  0
VERTEX
  8
GEO0BEMA
 62
    93
  6
CONTINUOUS
 10
-0.843303
 20
3.633315
  0
SEQEND
  8
0
  0
POLYLINE
  8
GEO0BEMA
 62
    93
  6
CONTINUOUS
 66
     1
 40
0.003000
 41
0.003000
  0
VERTEX
  8
GEO0BEMA
 62
    93
  6
CONTINUOUS
 10
-1.825114
 20
3.047492
  0
VERTEX
  8
GEO0BEMA
 62
    93
  6
CONTINUOUS
 10
-1.825114
 20
1.698748
  0
SEQEND
  8
0
  0
POLYLINE
  8
GEO0BEMA
 62
    93
  6
CONTINUOUS
 66
     1
 40
0.003000
 41
0.003000
  0
VERTEX
  8
GEO0BEMA
 62
    93
  6
CONTINUOUS
 10
-0.718240
 20
3.047492
  0
VERTEX
  8
GEO0BEMA
 62
    93
  6
CONTINUOUS
 10
-0.718240
 20
1.698748
  0
SEQEND
  8
0
  0
POLYLINE
  8
GEO0BEMA
 62
    93
  6
CONTINUOUS
 66
     1
 40
0.003000
 41
0.003000
  0
VERTEX
  8
GEO0BEMA
 62
    93
  6
CONTINUOUS
 10
-1.616039
 20
4.330236
  0
VERTEX
  8
GEO0BEMA
 62
    93
  6
CONTINUOUS
 10
-1.616039
 20
3.633315
  0
SEQEND
  8
0
  0
POLYLINE
  8
GEO0BEMA
 62
    93
  6
CONTINUOUS
 66
     1
 40
0.003000
 41
0.003000
  0
VERTEX
  8
GEO0BEMA
 62
    93
  6
CONTINUOUS
 10
-1.046205
 20
3.857252
  0
VERTEX
  8
GEO0BEMA
 62
    93
  6
CONTINUOUS
 10
-1.046205
 20
3.674311
  0
SEQEND
  8
0
  0
POLYLINE
  8
GEO0BEMA
 62
    93
  6
CONTINUOUS
 66
     1
 40
0.003000
 41
0.003000
  0
VERTEX
  8
GEO0BEMA
 62
    93
  6
CONTINUOUS
 10
-0.961150
 20
3.753736
  0
VERTEX
  8
GEO0BEMA
 62
    93
  6
CONTINUOUS
 10
-0.927319
 20
3.715303
  0
SEQEND
  8
0
  0
POLYLINE
  8
GEO0BEMA
 62
    93
  6
CONTINUOUS
 66
     1
 40
0.003000
 41
0.003000
  0
VERTEX
  8
GEO0BEMA
 62
    93
  6
CONTINUOUS
 10
-0.993783
 20
3.792169
  0
VERTEX
  8
GEO0BEMA
 62
    93
  6
CONTINUOUS
 10
-0.961150
 20
3.753736
  0
SEQEND
  8
0
  0
POLYLINE
  8
GEO0BEMA
 62
    93
  6
CONTINUOUS
 66
     1
 40
0.003000
 41
0.003000
  0
VERTEX
  8
GEO0BEMA
 62
    93
  6
CONTINUOUS
 10
-1.024740
 20
3.830602
  0
VERTEX
  8
GEO0BEMA
 62
    93
  6
CONTINUOUS
 10
-0.993783
 20
3.792169
  0
SEQEND
  8
0
  0
POLYLINE
  8
GEO0BEMA
 62
    93
  6
CONTINUOUS
 66
     1
 40
0.003000
 41
0.003000
  0
VERTEX
  8
GEO0BEMA
 62
    93
  6
CONTINUOUS
 10
-1.053315
 20
3.869035
  0
VERTEX
  8
GEO0BEMA
 62
    93
  6
CONTINUOUS
 10
-1.024740
 20
3.830602
  0
SEQEND
  8
0
  0
POLYLINE
  8
GEO0BEMA
 62
    93
  6
CONTINUOUS
 66
     1
 40
0.003000
 41
0.003000
  0
VERTEX
  8
GEO0BEMA
 62
    93
  6
CONTINUOUS
 10
-1.078433
 20
3.907469
  0
VERTEX
  8
GEO0BEMA
 62
    93
  6
CONTINUOUS
 10
-1.053315
 20
3.869035
  0
SEQEND
  8
0
  0
POLYLINE
  8
GEO0BEMA
 62
    93
  6
CONTINUOUS
 66
     1
 40
0.003000
 41
0.003000
  0
VERTEX
  8
GEO0BEMA
 62
    93
  6
CONTINUOUS
 10
-1.098594
 20
3.945902
  0
VERTEX
  8
GEO0BEMA
 62
    93
  6
CONTINUOUS
 10
-1.078433
 20
3.907469
  0
SEQEND
  8
0
  0
POLYLINE
  8
GEO0BEMA
 62
    93
  6
CONTINUOUS
 66
     1
 40
0.003000
 41
0.003000
  0
VERTEX
  8
GEO0BEMA
 62
    93
  6
CONTINUOUS
 10
-1.111906
 20
3.984335
  0
VERTEX
  8
GEO0BEMA
 62
    93
  6
CONTINUOUS
 10
-1.098594
 20
3.945902
  0
SEQEND
  8
0
  0
POLYLINE
  8
GEO0BEMA
 62
    93
  6
CONTINUOUS
 66
     1
 40
0.003000
 41
0.003000
  0
VERTEX
  8
GEO0BEMA
 62
    93
  6
CONTINUOUS
 10
-1.116598
 20
4.022768
  0
VERTEX
  8
GEO0BEMA
 62
    93
  6
CONTINUOUS
 10
-1.111906
 20
3.984335
  0
SEQEND
  8
0
  0
POLYLINE
  8
GEO0BEMA
 62
    93
  6
CONTINUOUS
 66
     1
 40
0.003000
 41
0.003000
  0
VERTEX
  8
GEO0BEMA
 62
    93
  6
CONTINUOUS
 10
-1.111906
 20
4.061201
  0
VERTEX
  8
GEO0BEMA
 62
    93
  6
CONTINUOUS
 10
-1.116598
 20
4.022768
  0
SEQEND
  8
0
  0
POLYLINE
  8
GEO0BEMA
 62
    93
  6
CONTINUOUS
 66
     1
 40
0.003000
 41
0.003000
  0
VERTEX
  8
GEO0BEMA
 62
    93
  6
CONTINUOUS
 10
-1.098594
 20
4.099634
  0
VERTEX
  8
GEO0BEMA
 62
    93
  6
CONTINUOUS
 10
-1.111906
 20
4.061201
  0
SEQEND
  8
0
  0
POLYLINE
  8
GEO0BEMA
 62
    93
  6
CONTINUOUS
 66
     1
 40
0.003000
 41
0.003000
  0
VERTEX
  8
GEO0BEMA
 62
    93
  6
CONTINUOUS
 10
-1.078433
 20
4.138067
  0
VERTEX
  8
GEO0BEMA
 62
    93
  6
CONTINUOUS
 10
-1.098594
 20
4.099634
  0
SEQEND
  8
0
  0
POLYLINE
  8
GEO0BEMA
 62
    93
  6
CONTINUOUS
 66
     1
 40
0.003000
 41
0.003000
  0
VERTEX
  8
GEO0BEMA
 62
    93
  6
CONTINUOUS
 10
-1.053315
 20
4.176504
  0
VERTEX
  8
GEO0BEMA
 62
    93
  6
CONTINUOUS
 10
-1.078433
 20
4.138067
  0
SEQEND
  8
0
  0
POLYLINE
  8
GEO0BEMA
 62
    93
  6
CONTINUOUS
 66
     1
 40
0.003000
 41
0.003000
  0
VERTEX
  8
GEO0BEMA
 62
    93
  6
CONTINUOUS
 10
-1.024740
 20
4.214937
  0
VERTEX
  8
GEO0BEMA
 62
    93
  6
CONTINUOUS
 10
-1.053315
 20
4.176504
  0
SEQEND
  8
0
  0
POLYLINE
  8
GEO0BEMA
 62
    93
  6
CONTINUOUS
 66
     1
 40
0.003000
 41
0.003000
  0
VERTEX
  8
GEO0BEMA
 62
    93
  6
CONTINUOUS
 10
-0.993783
 20
4.253370
  0
VERTEX
  8
GEO0BEMA
 62
    93
  6
CONTINUOUS
 10
-1.024740
 20
4.214937
  0
SEQEND
  8
0
  0
POLYLINE
  8
GEO0BEMA
 62
    93
  6
CONTINUOUS
 66
     1
 40
0.003000
 41
0.003000
  0
VERTEX
  8
GEO0BEMA
 62
    93
  6
CONTINUOUS
 10
-0.961150
 20
4.291803
  0
VERTEX
  8
GEO0BEMA
 62
    93
  6
CONTINUOUS
 10
-0.993783
 20
4.253370
  0
SEQEND
  8
0
  0
POLYLINE
  8
GEO0BEMA
 62
    93
  6
CONTINUOUS
 66
     1
 40
0.003000
 41
0.003000
  0
VERTEX
  8
GEO0BEMA
 62
    93
  6
CONTINUOUS
 10
-0.927319
 20
4.330236
  0
VERTEX
  8
GEO0BEMA
 62
    93
  6
CONTINUOUS
 10
-0.961150
 20
4.291803
  0
SEQEND
  8
0
  0
POLYLINE
  8
GEO0BEMA
 62
    93
  6
CONTINUOUS
 66
     1
 40
0.003000
 41
0.003000
  0
VERTEX
  8
GEO0BEMA
 62
    93
  6
CONTINUOUS
 10
-0.468169
 20
3.756299
  0
VERTEX
  8
GEO0BEMA
 62
    93
  6
CONTINUOUS
 10
-0.386177
 20
3.756299
  0
SEQEND
  8
0
  0
POLYLINE
  8
GEO0BEMA
 62
    93
  6
CONTINUOUS
 66
     1
 40
0.003000
 41
0.003000
  0
VERTEX
  8
GEO0BEMA
 62
    93
  6
CONTINUOUS
 10
-0.468169
 20
4.248244
  0
VERTEX
  8
GEO0BEMA
 62
    93
  6
CONTINUOUS
 10
-0.386177
 20
4.248244
  0
SEQEND
  8
0
  0
POLYLINE
  8
GEO0BEMA
 62
    93
  6
CONTINUOUS
 66
     1
 40
0.003000
 41
0.003000
  0
VERTEX
  8
GEO0BEMA
 62
    93
  6
CONTINUOUS
 10
-0.386177
 20
3.715303
  0
VERTEX
  8
GEO0BEMA
 62
    93
  6
CONTINUOUS
 10
-0.140205
 20
3.715303
  0
SEQEND
  8
0
  0
POLYLINE
  8
GEO0BEMA
 62
    93
  6
CONTINUOUS
 66
     1
 40
0.003000
 41
0.003000
  0
VERTEX
  8
GEO0BEMA
 62
    93
  6
CONTINUOUS
 10
-0.386177
 20
4.330236
  0
VERTEX
  8
GEO0BEMA
 62
    93
  6
CONTINUOUS
 10
-0.140205
 20
4.330236
  0
SEQEND
  8
0
  0
POLYLINE
  8
GEO0BEMA
 62
    93
  6
CONTINUOUS
 66
     1
 40
0.003000
 41
0.003000
  0
VERTEX
  8
GEO0BEMA
 62
    93
  6
CONTINUOUS
 10
-0.386177
 20
4.330236
  0
VERTEX
  8
GEO0BEMA
 62
    93
  6
CONTINUOUS
 10
-0.386177
 20
3.715303
  0
SEQEND
  8
0
  0
POLYLINE
  8
GEO0BEMA
 62
    93
  6
CONTINUOUS
 66
     1
 40
0.003000
 41
0.003000
  0
VERTEX
  8
GEO0BEMA
 62
    93
  6
CONTINUOUS
 10
-0.140205
 20
4.330236
  0
VERTEX
  8
GEO0BEMA
 62
    93
  6
CONTINUOUS
 10
-0.140205
 20
3.715303
  0
SEQEND
  8
0
  0
POLYLINE
  8
GEO0BEMA
 62
    93
  6
CONTINUOUS
 66
     1
 40
0.003000
 41
0.003000
  0
VERTEX
  8
GEO0BEMA
 62
    93
  6
CONTINUOUS
 10
-0.927319
 20
3.715303
  0
VERTEX
  8
GEO0BEMA
 62
    93
  6
CONTINUOUS
 10
-0.468169
 20
3.715303
  0
SEQEND
  8
0
  0
POLYLINE
  8
GEO0BEMA
 62
    93
  6
CONTINUOUS
 66
     1
 40
0.003000
 41
0.003000
  0
VERTEX
  8
GEO0BEMA
 62
    93
  6
CONTINUOUS
 10
-0.927319
 20
4.330236
  0
VERTEX
  8
GEO0BEMA
 62
    93
  6
CONTINUOUS
 10
-0.468169
 20
4.330236
  0
SEQEND
  8
0
  0
POLYLINE
  8
GEO0BEMA
 62
    93
  6
CONTINUOUS
 66
     1
 40
0.003000
 41
0.003000
  0
VERTEX
  8
GEO0BEMA
 62
    93
  6
CONTINUOUS
 10
-0.386177
 20
4.022768
  0
VERTEX
  8
GEO0BEMA
 62
    93
  6
CONTINUOUS
 10
-0.140205
 20
4.022768
  0
SEQEND
  8
0
  0
POLYLINE
  8
GEO0BEMA
 62
    93
  6
CONTINUOUS
 66
     1
 40
0.003000
 41
0.003000
  0
VERTEX
  8
GEO0BEMA
 62
    93
  6
CONTINUOUS
 10
-0.468169
 20
4.330236
  0
VERTEX
  8
GEO0BEMA
 62
    93
  6
CONTINUOUS
 10
-0.468169
 20
3.715303
  0
SEQEND
  8
0
  0
POLYLINE
  8
GEO0BEMA
 62
    93
  6
CONTINUOUS
 66
     1
 40
0.003000
 41
0.003000
  0
VERTEX
  8
GEO0BEMA
 62
    93
  6
CONTINUOUS
 10
-1.616039
 20
4.330236
  0
VERTEX
  8
GEO0BEMA
 62
    93
  6
CONTINUOUS
 10
-0.927319
 20
4.330236
  0
SEQEND
  8
0
  0
POLYLINE
  8
GEO0BEMA
 62
    93
  6
CONTINUOUS
 66
     1
 40
0.003000
 41
0.003000
  0
VERTEX
  8
GEO0BEMA
 62
    93
  6
CONTINUOUS
 10
-0.927319
 20
3.715303
  0
VERTEX
  8
GEO0BEMA
 62
    93
  6
CONTINUOUS
 10
-0.927319
 20
3.633315
  0
SEQEND
  8
0
  0
POLYLINE
  8
GEO0BEMA
 62
    93
  6
CONTINUOUS
 66
     1
 40
0.003000
 41
0.003000
  0
VERTEX
  8
GEO0BEMA
 62
    93
  6
CONTINUOUS
 10
-1.616039
 20
3.674311
  0
VERTEX
  8
GEO0BEMA
 62
    93
  6
CONTINUOUS
 10
-0.927319
 20
3.674311
  0
SEQEND
  8
0
  0
POLYLINE
  8
GEO0BEMA
 62
    93
  6
CONTINUOUS
 66
     1
 40
0.003000
 41
0.003000
  0
VERTEX
  8
GEO0BEMA
 62
    93
  6
CONTINUOUS
 10
-1.538150
 20
4.330236
  0
VERTEX
  8
GEO0BEMA
 62
    93
  6
CONTINUOUS
 10
-1.538150
 20
3.674311
  0
SEQEND
  8
0
  0
POLYLINE
  8
GEO0BEMA
 62
    93
  6
CONTINUOUS
 66
     1
 40
0.003000
 41
0.003000
  0
VERTEX
  8
GEO0BEMA
 62
    93
  6
CONTINUOUS
 10
-1.046205
 20
4.330236
  0
VERTEX
  8
GEO0BEMA
 62
    93
  6
CONTINUOUS
 10
-1.046205
 20
4.188291
  0
SEQEND
  8
0
  0
POLYLINE
  8
GEO0BEMA
 62
    93
  6
CONTINUOUS
 66
     1
 40
0.003000
 41
0.003000
  0
VERTEX
  8
GEO0BEMA
 62
    93
  6
CONTINUOUS
 10
-1.825114
 20
1.698748
  0
VERTEX
  8
GEO0BEMA
 62
    93
  6
CONTINUOUS
 10
-0.718240
 20
1.698748
  0
SEQEND
  8
0
  0
ENDSEC
  0
EOF
