  0
SECTION
  2
HEADER
  9
$ACADVER
  1
AC1012
  9
$DWGCODEPAGE
  3
ansi_1252
  9
$INSBASE
 10
-20.508751
 20
-1.359591
 30
0.0
  9
$EXTMIN
 10
40.784978
 20
25.052672
 30
0.0
  9
$EXTMAX
 10
48.911212
 20
27.864826
 30
0.0
  9
$LIMMIN
 10
0.0
 20
0.0
  9
$LIMMAX
 10
18.0
 20
12.0
  9
$ORTHOMODE
 70
     0
  9
$REGENMODE
 70
     1
  9
$FILLMODE
 70
     1
  9
$QTEXTMODE
 70
     0
  9
$MIRRTEXT
 70
     1
  9
$DRAGMODE
 70
     2
  9
$LTSCALE
 40
1.0
  9
$OSMODE
 70
    37
  9
$ATTMODE
 70
     1
  9
$TEXTSIZE
 40
0.2
  9
$TRACEWID
 40
0.05
  9
$TEXTSTYLE
  7
ROMANS
  9
$CLAYER
  8
OBJ1
  9
$CELTYPE
  6
BYLAYER
  9
$CECOLOR
 62
   256
  9
$CELTSCALE
 40
1.0
  9
$DELOBJ
 70
     1
  9
$DISPSILH
 70
     0
  9
$DIMSCALE
 40
1.0
  9
$DIMASZ
 40
0.18
  9
$DIMEXO
 40
0.0625
  9
$DIMDLI
 40
0.38
  9
$DIMRND
 40
0.0
  9
$DIMDLE
 40
0.0
  9
$DIMEXE
 40
0.18
  9
$DIMTP
 40
0.0
  9
$DIMTM
 40
0.0
  9
$DIMTXT
 40
0.13
  9
$DIMCEN
 40
0.09
  9
$DIMTSZ
 40
0.0
  9
$DIMTOL
 70
     0
  9
$DIMLIM
 70
     0
  9
$DIMTIH
 70
     1
  9
$DIMTOH
 70
     1
  9
$DIMSE1
 70
     0
  9
$DIMSE2
 70
     0
  9
$DIMTAD
 70
     0
  9
$DIMZIN
 70
     0
  9
$DIMBLK
  1

  9
$DIMASO
 70
     1
  9
$DIMSHO
 70
     1
  9
$DIMPOST
  1

  9
$DIMAPOST
  1

  9
$DIMALT
 70
     0
  9
$DIMALTD
 70
     2
  9
$DIMALTF
 40
25.4
  9
$DIMLFAC
 40
1.0
  9
$DIMTOFL
 70
     0
  9
$DIMTVP
 40
0.0
  9
$DIMTIX
 70
     0
  9
$DIMSOXD
 70
     0
  9
$DIMSAH
 70
     0
  9
$DIMBLK1
  1

  9
$DIMBLK2
  1

  9
$DIMSTYLE
  2
1-1
  9
$DIMCLRD
 70
     8
  9
$DIMCLRE
 70
     8
  9
$DIMCLRT
 70
     3
  9
$DIMTFAC
 40
1.2
  9
$DIMGAP
 40
0.09
  9
$DIMJUST
 70
     0
  9
$DIMSD1
 70
     0
  9
$DIMSD2
 70
     0
  9
$DIMTOLJ
 70
     1
  9
$DIMTZIN
 70
     0
  9
$DIMALTZ
 70
     0
  9
$DIMALTTZ
 70
     0
  9
$DIMFIT
 70
     3
  9
$DIMUPT
 70
     0
  9
$DIMUNIT
 70
     5
  9
$DIMDEC
 70
     6
  9
$DIMTDEC
 70
     1
  9
$DIMALTU
 70
     2
  9
$DIMALTTD
 70
     2
  9
$DIMTXSTY
  7
ROMANS
  9
$DIMAUNIT
 70
     0
  9
$LUNITS
 70
     2
  9
$LUPREC
 70
     3
  9
$SKETCHINC
 40
0.1
  9
$FILLETRAD
 40
0.0
  9
$AUNITS
 70
     0
  9
$AUPREC
 70
     3
  9
$MENU
  1
acad
  9
$ELEVATION
 40
0.0
  9
$PELEVATION
 40
0.0
  9
$THICKNESS
 40
0.0
  9
$LIMCHECK
 70
     0
  9
$BLIPMODE
 70
     0
  9
$CHAMFERA
 40
0.0
  9
$CHAMFERB
 40
0.0
  9
$CHAMFERC
 40
0.0
  9
$CHAMFERD
 40
0.0
  9
$SKPOLY
 70
     0
  9
$TDCREATE
 40
2450893.333799421
  9
$TDUPDATE
 40
2450893.333799421
  9
$TDINDWG
 40
0.0000000000
  9
$TDUSRTIMER
 40
0.0000000000
  9
$USRTIMER
 70
     1
  9
$ANGBASE
 50
0.0
  9
$ANGDIR
 70
     0
  9
$PDMODE
 70
     0
  9
$PDSIZE
 40
-5.0
  9
$PLINEWID
 40
0.0
  9
$COORDS
 70
     2
  9
$SPLFRAME
 70
     0
  9
$SPLINETYPE
 70
     6
  9
$SPLINESEGS
 70
     8
  9
$ATTDIA
 70
     0
  9
$ATTREQ
 70
     1
  9
$HANDLING
 70
     1
  9
$HANDSEED
  5
32479
  9
$SURFTAB1
 70
     6
  9
$SURFTAB2
 70
     6
  9
$SURFTYPE
 70
     6
  9
$SURFU
 70
     6
  9
$SURFV
 70
     6
  9
$UCSNAME
  2

  9
$UCSORG
 10
0.0
 20
0.0
 30
0.0
  9
$UCSXDIR
 10
1.0
 20
0.0
 30
0.0
  9
$UCSYDIR
 10
0.0
 20
1.0
 30
0.0
  9
$PUCSNAME
  2

  9
$PUCSORG
 10
0.0
 20
0.0
 30
0.0
  9
$PUCSXDIR
 10
1.0
 20
0.0
 30
0.0
  9
$PUCSYDIR
 10
0.0
 20
1.0
 30
0.0
  9
$USERI1
 70
     0
  9
$USERI2
 70
     0
  9
$USERI3
 70
     0
  9
$USERI4
 70
     0
  9
$USERI5
 70
     0
  9
$USERR1
 40
0.0
  9
$USERR2
 40
0.0
  9
$USERR3
 40
0.0
  9
$USERR4
 40
0.0
  9
$USERR5
 40
0.0
  9
$WORLDVIEW
 70
     1
  9
$SHADEDGE
 70
     3
  9
$SHADEDIF
 70
    70
  9
$TILEMODE
 70
     1
  9
$MAXACTVP
 70
    16
  9
$PINSBASE
 10
0.0
 20
0.0
 30
0.0
  9
$PLIMCHECK
 70
     0
  9
$PEXTMIN
 10
1.000000E+20
 20
1.000000E+20
 30
1.000000E+20
  9
$PEXTMAX
 10
-1.000000E+20
 20
-1.000000E+20
 30
-1.000000E+20
  9
$PLIMMIN
 10
4.223712
 20
33.213407
  9
$PLIMMAX
 10
16.223712
 20
42.213407
  9
$UNITMODE
 70
     0
  9
$VISRETAIN
 70
     0
  9
$PLINEGEN
 70
     0
  9
$PSLTSCALE
 70
     1
  9
$TREEDEPTH
 70
  3020
  9
$PICKSTYLE
 70
     1
  9
$CMLSTYLE
  2
STANDARD
  9
$CMLJUST
 70
     0
  9
$CMLSCALE
 40
1.0
  9
$SAVEIMAGES
 70
     0
  0
ENDSEC
  0
SECTION
  2
CLASSES
  0
ENDSEC
  0
SECTION
  2
TABLES
  0
TABLE
  2
VPORT
  5
323FA
100
AcDbSymbolTable
 70
     2
  0
VPORT
  5
32478
100
AcDbSymbolTableRecord
100
AcDbViewportTableRecord
  2
*ACTIVE
 70
     0
 10
0.0
 20
0.0
 11
1.0
 21
1.0
 12
39.800925
 22
-5.887617
 13
0.0
 23
0.0
 14
1.0
 24
1.0
 15
0.0
 25
0.0
 16
0.0
 26
0.0
 36
1.0
 17
4.223712
 27
33.213407
 37
0.0
 40
8.63785
 41
1.640704
 42
50.0
 43
0.0
 44
0.0
 50
0.0
 51
0.0
 71
     0
 72
  2000
 73
     1
 74
     1
 75
     0
 76
     0
 77
     0
 78
     1
  0
ENDTAB
  0
TABLE
  2
LTYPE
  5
323F7
100
AcDbSymbolTable
 70
    25
  0
LTYPE
  5
32404
100
AcDbSymbolTableRecord
100
AcDbLinetypeTableRecord
  2
BYBLOCK
 70
     0
  3

 72
    65
 73
     0
 40
0.0
  0
LTYPE
  5
32405
100
AcDbSymbolTableRecord
100
AcDbLinetypeTableRecord
  2
BYLAYER
 70
     0
  3

 72
    65
 73
     0
 40
0.0
  0
LTYPE
  5
32406
100
AcDbSymbolTableRecord
100
AcDbLinetypeTableRecord
  2
CONTINUOUS
 70
    64
  3
Solid line
 72
    65
 73
     0
 40
0.0
  0
LTYPE
  5
32414
100
AcDbSymbolTableRecord
100
AcDbLinetypeTableRecord
  2
BORDER
 70
     0
  3
__ __ . __ __ . __ __ . __ __ . __ __ . __ __ .
 72
    65
 73
     6
 40
1.75
 49
0.5
 74
     0
 49
-0.25
 74
     0
 49
0.5
 74
     0
 49
-0.25
 74
     0
 49
0.0
 74
     0
 49
-0.25
 74
     0
  0
LTYPE
  5
32415
100
AcDbSymbolTableRecord
100
AcDbLinetypeTableRecord
  2
BORDER2
 70
     0
  3
__.__.__.__.__.__.__.__.__.__.__.__.__.__.__.__
 72
    65
 73
     6
 40
0.875
 49
0.25
 74
     0
 49
-0.125
 74
     0
 49
0.25
 74
     0
 49
-0.125
 74
     0
 49
0.0
 74
     0
 49
-0.125
 74
     0
  0
LTYPE
  5
32416
100
AcDbSymbolTableRecord
100
AcDbLinetypeTableRecord
  2
BORDERX2
 70
     0
  3
____  ____  .  ____  ____  .  ____  ____  .  __
 72
    65
 73
     6
 40
3.5
 49
1.0
 74
     0
 49
-0.5
 74
     0
 49
1.0
 74
     0
 49
-0.5
 74
     0
 49
0.0
 74
     0
 49
-0.5
 74
     0
  0
LTYPE
  5
32417
100
AcDbSymbolTableRecord
100
AcDbLinetypeTableRecord
  2
CENTER
 70
    64
  3
____ _ ____ _ ____ _ ____ _ ____ _ ____ _ ____ 
 72
    65
 73
     4
 40
2.0
 49
1.25
 74
     0
 49
-0.25
 74
     0
 49
0.25
 74
     0
 49
-0.25
 74
     0
  0
LTYPE
  5
32418
100
AcDbSymbolTableRecord
100
AcDbLinetypeTableRecord
  2
CENTER2
 70
     0
  3
___ _ ___ _ ___ _ ___ _ ___ _ ___ _ ___ _ ___ _
 72
    65
 73
     4
 40
1.125
 49
0.75
 74
     0
 49
-0.125
 74
     0
 49
0.125
 74
     0
 49
-0.125
 74
     0
  0
LTYPE
  5
32419
100
AcDbSymbolTableRecord
100
AcDbLinetypeTableRecord
  2
CENTERX2
 70
     0
  3
________  __  ________  __  ________  __  _____
 72
    65
 73
     4
 40
4.0
 49
2.5
 74
     0
 49
-0.5
 74
     0
 49
0.5
 74
     0
 49
-0.5
 74
     0
  0
LTYPE
  5
3241A
100
AcDbSymbolTableRecord
100
AcDbLinetypeTableRecord
  2
DASHDOT
 70
     0
  3
__ . __ . __ . __ . __ . __ . __ . __ . __ . __
 72
    65
 73
     4
 40
1.0
 49
0.5
 74
     0
 49
-0.25
 74
     0
 49
0.0
 74
     0
 49
-0.25
 74
     0
  0
LTYPE
  5
3241B
100
AcDbSymbolTableRecord
100
AcDbLinetypeTableRecord
  2
DASHDOT2
 70
     0
  3
_._._._._._._._._._._._._._._._._._._._._._._._
 72
    65
 73
     4
 40
0.5
 49
0.25
 74
     0
 49
-0.125
 74
     0
 49
0.0
 74
     0
 49
-0.125
 74
     0
  0
LTYPE
  5
3241C
100
AcDbSymbolTableRecord
100
AcDbLinetypeTableRecord
  2
DASHDOTX2
 70
     0
  3
____  .  ____  .  ____  .  ____  .  ____  .  __
 72
    65
 73
     4
 40
2.0
 49
1.0
 74
     0
 49
-0.5
 74
     0
 49
0.0
 74
     0
 49
-0.5
 74
     0
  0
LTYPE
  5
3241D
100
AcDbSymbolTableRecord
100
AcDbLinetypeTableRecord
  2
DASHED
 70
     0
  3
__ __ __ __ __ __ __ __ __ __ __ __ __ __ __ __
 72
    65
 73
     2
 40
0.75
 49
0.5
 74
     0
 49
-0.25
 74
     0
  0
LTYPE
  5
3241E
100
AcDbSymbolTableRecord
100
AcDbLinetypeTableRecord
  2
DASHED2
 70
     0
  3
_ _ _ _ _ _ _ _ _ _ _ _ _ _ _ _ _ _ _ _ _ _ _ _
 72
    65
 73
     2
 40
0.375
 49
0.25
 74
     0
 49
-0.125
 74
     0
  0
LTYPE
  5
3241F
100
AcDbSymbolTableRecord
100
AcDbLinetypeTableRecord
  2
DASHEDX2
 70
     0
  3
____  ____  ____  ____  ____  ____  ____  ____ 
 72
    65
 73
     2
 40
1.5
 49
1.0
 74
     0
 49
-0.5
 74
     0
  0
LTYPE
  5
32420
100
AcDbSymbolTableRecord
100
AcDbLinetypeTableRecord
  2
DIVIDE
 70
     0
  3
____ . . ____ . . ____ . . ____ . . ____ . . __
 72
    65
 73
     6
 40
1.25
 49
0.5
 74
     0
 49
-0.25
 74
     0
 49
0.0
 74
     0
 49
-0.25
 74
     0
 49
0.0
 74
     0
 49
-0.25
 74
     0
  0
LTYPE
  5
32421
100
AcDbSymbolTableRecord
100
AcDbLinetypeTableRecord
  2
DIVIDE2
 70
     0
  3
__..__..__..__..__..__..__..__..__..__..__..__.
 72
    65
 73
     6
 40
0.625
 49
0.25
 74
     0
 49
-0.125
 74
     0
 49
0.0
 74
     0
 49
-0.125
 74
     0
 49
0.0
 74
     0
 49
-0.125
 74
     0
  0
LTYPE
  5
32422
100
AcDbSymbolTableRecord
100
AcDbLinetypeTableRecord
  2
DIVIDEX2
 70
     0
  3
________  .  .  ________  .  .  ________  .  . 
 72
    65
 73
     6
 40
2.5
 49
1.0
 74
     0
 49
-0.5
 74
     0
 49
0.0
 74
     0
 49
-0.5
 74
     0
 49
0.0
 74
     0
 49
-0.5
 74
     0
  0
LTYPE
  5
32423
100
AcDbSymbolTableRecord
100
AcDbLinetypeTableRecord
  2
DOT
 70
     0
  3
. . . . . . . . . . . . . . . . . . . . . . . .
 72
    65
 73
     2
 40
0.25
 49
0.0
 74
     0
 49
-0.25
 74
     0
  0
LTYPE
  5
32424
100
AcDbSymbolTableRecord
100
AcDbLinetypeTableRecord
  2
DOT2
 70
     0
  3
...............................................
 72
    65
 73
     2
 40
0.125
 49
0.0
 74
     0
 49
-0.125
 74
     0
  0
LTYPE
  5
32425
100
AcDbSymbolTableRecord
100
AcDbLinetypeTableRecord
  2
DOTX2
 70
     0
  3
.  .  .  .  .  .  .  .  .  .  .  .  .  .  .  . 
 72
    65
 73
     2
 40
0.5
 49
0.0
 74
     0
 49
-0.5
 74
     0
  0
LTYPE
  5
32426
100
AcDbSymbolTableRecord
100
AcDbLinetypeTableRecord
  2
HIDDEN
 70
    64
  3
__ __ __ __ __ __ __ __ __ __ __ __ __ __ __ __
 72
    65
 73
     2
 40
0.375
 49
0.25
 74
     0
 49
-0.125
 74
     0
  0
LTYPE
  5
32427
100
AcDbSymbolTableRecord
100
AcDbLinetypeTableRecord
  2
HIDDEN2
 70
     0
  3
_ _ _ _ _ _ _ _ _ _ _ _ _ _ _ _ _ _ _ _ _ _ _ _
 72
    65
 73
     2
 40
0.1875
 49
0.125
 74
     0
 49
-0.0625
 74
     0
  0
LTYPE
  5
32428
100
AcDbSymbolTableRecord
100
AcDbLinetypeTableRecord
  2
HIDDENX2
 70
     0
  3
____ ____ ____ ____ ____ ____ ____ ____ ____ __
 72
    65
 73
     2
 40
0.75
 49
0.5
 74
     0
 49
-0.25
 74
     0
  0
LTYPE
  5
32429
100
AcDbSymbolTableRecord
100
AcDbLinetypeTableRecord
  2
PHANTOM
 70
    64
  3
______  __  __  ______  __  __  ______  __  __ 
 72
    65
 73
     6
 40
2.5
 49
1.25
 74
     0
 49
-0.25
 74
     0
 49
0.25
 74
     0
 49
-0.25
 74
     0
 49
0.25
 74
     0
 49
-0.25
 74
     0
  0
LTYPE
  5
3242A
100
AcDbSymbolTableRecord
100
AcDbLinetypeTableRecord
  2
PHANTOM2
 70
     0
  3
___ _ _ ___ _ _ ___ _ _ ___ _ _ ___ _ _ ___ _ _
 72
    65
 73
     6
 40
1.25
 49
0.625
 74
     0
 49
-0.125
 74
     0
 49
0.125
 74
     0
 49
-0.125
 74
     0
 49
0.125
 74
     0
 49
-0.125
 74
     0
  0
LTYPE
  5
3242B
100
AcDbSymbolTableRecord
100
AcDbLinetypeTableRecord
  2
PHANTOMX2
 70
     0
  3
____________    ____    ____    ____________   
 72
    65
 73
     6
 40
5.0
 49
2.5
 74
     0
 49
-0.5
 74
     0
 49
0.5
 74
     0
 49
-0.5
 74
     0
 49
0.5
 74
     0
 49
-0.5
 74
     0
  0
ENDTAB
  0
TABLE
  2
LAYER
  5
323F4
100
AcDbSymbolTable
 70
     8
  0
LAYER
  5
32401
100
AcDbSymbolTableRecord
100
AcDbLayerTableRecord
  2
0
 70
    64
 62
     7
  6
CONTINUOUS
  0
LAYER
  5
32438
100
AcDbSymbolTableRecord
100
AcDbLayerTableRecord
  2
OBJ1
 70
     0
 62
     4
  6
CONTINUOUS
  0
LAYER
  5
3243B
100
AcDbSymbolTableRecord
100
AcDbLayerTableRecord
  2
DIM
 70
     0
 62
     8
  6
CONTINUOUS
  0
LAYER
  5
3243D
100
AcDbSymbolTableRecord
100
AcDbLayerTableRecord
  2
HATCH
 70
     0
 62
     1
  6
CONTINUOUS
  0
LAYER
  5
3243E
100
AcDbSymbolTableRecord
100
AcDbLayerTableRecord
  2
BOM
 70
     0
 62
     8
  6
CONTINUOUS
  0
LAYER
  5
3243F
100
AcDbSymbolTableRecord
100
AcDbLayerTableRecord
  2
PRELIMINARY
 70
     0
 62
     4
  6
CONTINUOUS
  0
LAYER
  5
32441
100
AcDbSymbolTableRecord
100
AcDbLayerTableRecord
  2
BORDER
 70
    64
 62
     7
  6
CONTINUOUS
  0
LAYER
  5
3245D
100
AcDbSymbolTableRecord
100
AcDbLayerTableRecord
  2
DEFPOINTS
 70
    64
 62
     7
  6
CONTINUOUS
  0
ENDTAB
  0
TABLE
  2
STYLE
  5
323F5
100
AcDbSymbolTable
 70
     3
  0
STYLE
  5
32402
100
AcDbSymbolTableRecord
100
AcDbTextStyleTableRecord
  2
STANDARD
 70
     0
 40
0.0
 41
1.0
 50
0.0
 71
     0
 42
0.2
  3
txt
  4

  0
STYLE
  5
32412
100
AcDbSymbolTableRecord
100
AcDbTextStyleTableRecord
  2
ROMANS
 70
    64
 40
0.0
 41
1.0
 50
0.0
 71
     0
 42
0.2
  3
romans.shx
  4

  0
STYLE
  5
32413
100
AcDbSymbolTableRecord
100
AcDbTextStyleTableRecord
  2
ROMANT
 70
    64
 40
0.0
 41
0.75
 50
0.0
 71
     0
 42
0.201
  3
romant
  4

  0
ENDTAB
  0
TABLE
  2
VIEW
  5
323F8
100
AcDbSymbolTable
 70
     5
  0
VIEW
  5
3242C
100
AcDbSymbolTableRecord
100
AcDbViewTableRecord
  2
LEFT-FRONT
 70
     0
 40
164.904334
 10
23.547264
 20
70.303416
 41
247.532305
 11
-0.719924
 21
-0.604088
 31
0.341741
 12
4.223712
 22
33.213407
 32
0.0
 42
50.0
 43
0.0
 44
0.0
 50
0.0
 71
     0
  0
VIEW
  5
3242D
100
AcDbSymbolTableRecord
100
AcDbViewTableRecord
  2
RIGHT-FRONT
 70
     0
 40
164.904334
 10
86.081055
 20
32.679824
 41
247.532305
 11
0.719924
 21
-0.604088
 31
0.341741
 12
4.223712
 22
33.213407
 32
0.0
 42
50.0
 43
0.0
 44
0.0
 50
0.0
 71
     0
  0
VIEW
  5
3242E
100
AcDbSymbolTableRecord
100
AcDbViewTableRecord
  2
RIGHT-BACK
 70
     0
 40
164.904334
 10
-6.298592
 20
14.747946
 41
247.532305
 11
0.719924
 21
0.604088
 31
0.341741
 12
4.223712
 22
33.213407
 32
0.0
 42
50.0
 43
0.0
 44
0.0
 50
0.0
 71
     0
  0
VIEW
  5
3242F
100
AcDbSymbolTableRecord
100
AcDbViewTableRecord
  2
LEFT-BACK
 70
     0
 40
164.904334
 10
-68.832384
 20
52.371538
 41
247.532305
 11
-0.719924
 21
0.604088
 31
0.341741
 12
4.223712
 22
33.213407
 32
0.0
 42
50.0
 43
0.0
 44
0.0
 50
0.0
 71
     0
  0
VIEW
  5
32430
100
AcDbSymbolTableRecord
100
AcDbViewTableRecord
  2
WORLD
 70
     0
 40
37.75
 10
17.07016
 20
-20.724498
 41
56.665245
 11
0.0
 21
0.0
 31
1.0
 12
4.223712
 22
33.213407
 32
0.0
 42
50.0
 43
0.0
 44
0.0
 50
0.0
 71
     0
  0
ENDTAB
  0
TABLE
  2
UCS
  5
323F9
100
AcDbSymbolTable
 70
     4
  0
UCS
  5
32431
100
AcDbSymbolTableRecord
100
AcDbUCSTableRecord
  2
FRONT
 70
     0
 10
-2.538750594141859
 20
-1.886090801716002
 30
0.0
 11
1.0
 21
0.0
 31
0.0
 12
0.0
 22
0.0
 32
1.0
  0
UCS
  5
32432
100
AcDbSymbolTableRecord
100
AcDbUCSTableRecord
  2
R-SIDE
 70
     0
 10
-2.538750594141859
 20
-1.886090801716002
 30
0.0
 11
0.0
 21
1.0
 31
0.0
 12
0.0
 22
0.0
 32
1.0
  0
UCS
  5
32433
100
AcDbSymbolTableRecord
100
AcDbUCSTableRecord
  2
BACK
 70
     0
 10
-2.538750594141859
 20
-1.886090801716002
 30
0.0
 11
-1.0
 21
0.0
 31
0.0
 12
0.0
 22
0.0
 32
1.0
  0
UCS
  5
32434
100
AcDbSymbolTableRecord
100
AcDbUCSTableRecord
  2
L-SIDE
 70
     0
 10
-2.538750594141859
 20
-1.886090801716002
 30
0.0
 11
0.0
 21
-1.0
 31
0.0
 12
0.0
 22
0.0
 32
1.0
  0
ENDTAB
  0
TABLE
  2
APPID
  5
323FB
100
AcDbSymbolTable
 70
     1
  0
APPID
  5
32403
100
AcDbSymbolTableRecord
100
AcDbRegAppTableRecord
  2
ACAD
 70
    64
  0
ENDTAB
  0
TABLE
  2
DIMSTYLE
  5
323FC
100
AcDbSymbolTable
 70
     1
  0
DIMSTYLE
105
32437
100
AcDbSymbolTableRecord
100
AcDbDimStyleTableRecord
  2
1-1
 70
     0
  3

  4

  5

  6

  7

 40
1.0
 41
0.18
 42
0.0625
 43
0.38
 44
0.18
 45
0.0
 46
0.0
 47
0.0
 48
0.0
140
0.13
141
0.09
142
0.0
143
25.4
144
1.0
145
0.0
146
1.2
147
0.09
 71
     0
 72
     0
 73
     1
 74
     1
 75
     0
 76
     0
 77
     0
 78
     0
170
     0
171
     2
172
     0
173
     0
174
     0
175
     0
176
     8
177
     8
178
     3
270
     2
271
     4
272
     4
273
     2
274
     2
340
32412
275
     0
280
     0
281
     0
282
     0
283
     1
284
     0
285
     0
286
     0
287
     3
288
     0
  0
ENDTAB
  0
TABLE
  2
BLOCK_RECORD
  5
323F3
100
AcDbSymbolTable
 70
     4
  0
BLOCK_RECORD
  5
3240A
100
AcDbSymbolTableRecord
100
AcDbBlockTableRecord
  2
*MODEL_SPACE
  0
BLOCK_RECORD
  5
32407
100
AcDbSymbolTableRecord
100
AcDbBlockTableRecord
  2
*PAPER_SPACE
  0
BLOCK_RECORD
  5
3240E
100
AcDbSymbolTableRecord
100
AcDbBlockTableRecord
  2
BA
  0
BLOCK_RECORD
  5
3240F
100
AcDbSymbolTableRecord
100
AcDbBlockTableRecord
  2
BB
  0
BLOCK_RECORD
  5
32410
100
AcDbSymbolTableRecord
100
AcDbBlockTableRecord
  2
BC
  0
BLOCK_RECORD
  5
32411
100
AcDbSymbolTableRecord
100
AcDbBlockTableRecord
  2
BD
  0
ENDTAB
  0
ENDSEC
  0
SECTION
  2
BLOCKS
  0
BLOCK
  5
32444
100
AcDbEntity
  8
OBJ1
100
AcDbBlockBegin
  2
*MODEL_SPACE
 70
     0
 10
0.0
 20
0.0
 30
0.0
  3
*MODEL_SPACE
  1

  0
ENDBLK
  5
32445
100
AcDbEntity
  8
OBJ1
100
AcDbBlockEnd
  0
BLOCK
  5
32442
100
AcDbEntity
 67
     1
  8
OBJ1
100
AcDbBlockBegin
  2
*PAPER_SPACE
 70
     0
 10
0.0
 20
0.0
 30
0.0
  3
*PAPER_SPACE
  1

  0
ENDBLK
  5
32443
100
AcDbEntity
 67
     1
  8
OBJ1
100
AcDbBlockEnd
  0
BLOCK
  5
B4
100
AcDbEntity
  8
0
100
AcDbBlockBegin
  2
BA
 70
     0
 10
0.0
 20
0.0
 30
0.0
  3
BA
  1

  0
TEXT
  5
B5
100
AcDbEntity
  8
BORDER
  6
CONTINUOUS
 62
     3
100
AcDbText
 10
0.404473
 20
7.343204
 30
0.0
 40
0.093
  1
REPORT ALL ERRORS TO ENGINEERING DEPT.
  7
ROMANS
100
AcDbText
  0
LINE
  5
B6
100
AcDbEntity
  8
BORDER
 62
     9
100
AcDbLine
 10
0.03
 20
8.0265
 30
0.0
 11
10.53
 21
8.0265
 31
0.0
  0
LINE
  5
B7
100
AcDbEntity
  8
BORDER
 62
     9
100
AcDbLine
 10
0.03
 20
0.5265
 30
0.0
 11
10.53
 21
0.5265
 31
0.0
  0
TEXT
  5
B8
100
AcDbEntity
  8
BORDER
 62
     2
100
AcDbText
 10
3.099884
 20
0.615238
 30
0.0
 40
0.06
  1
AS AUTHORIZED IN WRITING BY THE SALISBURY MACHINERY COMPANY.
 41
0.75
  7
ROMANS
100
AcDbText
  0
TEXT
  5
B9
100
AcDbEntity
  8
BORDER
 62
     2
100
AcDbText
 10
3.099884
 20
0.726459
 30
0.0
 40
0.06
  1
PROPRIETARY DATA NOT TO BE DISCLOSED, USED OR DUPLICATED FOR ANY PURPOSE EXCEPT
 41
0.75
  7
ROMANS
100
AcDbText
  0
TEXT
  5
BA
100
AcDbEntity
  8
BORDER
 62
     3
100
AcDbText
 10
3.06237
 20
1.201303
 30
0.0
 40
0.15
  1
MATERIAL
  7
ROMANS
100
AcDbText
  0
TEXT
  5
BB
100
AcDbEntity
  8
BORDER
 62
     3
100
AcDbText
 10
3.06237
 20
0.915801
 30
0.0
 40
0.15
  1
NO.REQ'D PER MACH.
  7
ROMANS
100
AcDbText
  0
LINE
  5
BC
100
AcDbEntity
  8
BORDER
 62
     4
100
AcDbLine
 10
3.004625
 20
1.403276
 30
0.0
 11
6.754625
 21
1.403276
 31
0.0
  0
LINE
  5
BD
100
AcDbEntity
  8
BORDER
 62
     4
100
AcDbLine
 10
6.754625
 20
1.153276
 30
0.0
 11
3.004625
 21
1.153276
 31
0.0
  0
LINE
  5
BE
100
AcDbEntity
  8
BORDER
 62
     4
100
AcDbLine
 10
3.004625
 20
0.84497
 30
0.0
 11
10.478447
 21
0.84497
 31
0.0
  0
LINE
  5
BF
100
AcDbEntity
  8
BORDER
 62
     7
100
AcDbLine
 10
0.0
 20
0.0
 30
0.0
 11
0.227728
 21
0.0
 31
0.0
  0
LINE
  5
C0
100
AcDbEntity
  8
BORDER
 62
     7
100
AcDbLine
 10
0.0
 20
0.398597
 30
0.0
 11
0.0
 21
0.0
 31
0.0
  0
TEXT
  5
C1
100
AcDbEntity
  8
BORDER
 62
     3
100
AcDbText
 10
0.079027
 20
1.284374
 30
0.0
 40
0.089224
  1
INDICATED, TOLERANCES:
  7
ROMANS
100
AcDbText
  0
TEXT
  5
C2
100
AcDbEntity
  8
BORDER
 62
     3
100
AcDbText
 10
0.139284
 20
1.091783
 30
0.0
 40
0.089224
  1
X.X   =   0.025
  7
ROMANS
100
AcDbText
  0
TEXT
  5
C3
100
AcDbEntity
  8
BORDER
 62
     3
100
AcDbText
 10
0.145941
 20
0.894612
 30
0.0
 40
0.089224
  1
X.XX  =   0.010
  7
ROMANS
100
AcDbText
  0
TEXT
  5
C4
100
AcDbEntity
  8
BORDER
 62
     3
100
AcDbText
 10
0.145938
 20
0.69079
 30
0.0
 40
0.089224
  1
X.XXX =   0.005
  7
ROMANS
100
AcDbText
  0
TEXT
  5
C5
100
AcDbEntity
  8
BORDER
 62
     3
100
AcDbText
 10
0.079027
 20
1.440247
 30
0.0
 40
0.089224
  1
UNLESS OTHERWISE
  7
ROMANS
100
AcDbText
  0
LINE
  5
C6
100
AcDbEntity
  8
BORDER
 62
     9
100
AcDbLine
 10
0.03
 20
0.5265
 30
0.0
 11
0.03
 21
8.0265
 31
0.0
  0
TEXT
  5
C7
100
AcDbEntity
  8
BORDER
  6
CONTINUOUS
 62
     3
100
AcDbText
 10
0.404473
 20
7.530515
 30
0.0
 40
0.093
  1
BREAK ALL SHARP EDGES
  7
ROMANS
100
AcDbText
  0
TEXT
  5
C8
100
AcDbEntity
  8
BORDER
 62
     3
100
AcDbText
 10
1.504303
 20
0.946986
 30
0.0
 40
0.089224
  1
FRACTIONS   1/64
  7
ROMANS
100
AcDbText
  0
TEXT
  5
C9
100
AcDbEntity
  8
BORDER
 62
     3
100
AcDbText
 10
1.521015
 20
1.107607
 30
0.0
 40
0.089224
  1
ANGLES   1 DEG.
  7
ROMANS
100
AcDbText
  0
TEXT
  5
CA
100
AcDbEntity
  8
BORDER
 62
     3
100
AcDbText
 10
0.819573
 20
1.0488
 30
0.0
 40
0.07
  1
-
 41
0.8
  7
ROMANS
100
AcDbText
  0
TEXT
  5
CB
100
AcDbEntity
  8
BORDER
 62
     3
100
AcDbText
 10
0.819573
 20
1.108074
 30
0.0
 40
0.07
  1
+
 41
0.8
  7
ROMANS
100
AcDbText
  0
TEXT
  5
CC
100
AcDbEntity
  8
BORDER
 62
     3
100
AcDbText
 10
0.826228
 20
0.735592
 30
0.0
 40
0.07
  1
+
 41
0.8
  7
ROMANS
100
AcDbText
  0
TEXT
  5
CD
100
AcDbEntity
  8
BORDER
 62
     3
100
AcDbText
 10
0.82623
 20
0.869211
 30
0.0
 40
0.07
  1
-
 41
0.8
  7
ROMANS
100
AcDbText
  0
TEXT
  5
CE
100
AcDbEntity
  8
BORDER
 62
     3
100
AcDbText
 10
0.82623
 20
0.928485
 30
0.0
 40
0.07
  1
+
 41
0.8
  7
ROMANS
100
AcDbText
  0
TEXT
  5
CF
100
AcDbEntity
  8
BORDER
 62
     3
100
AcDbText
 10
0.826228
 20
0.676318
 30
0.0
 40
0.07
  1
-
 41
0.8
  7
ROMANS
100
AcDbText
  0
TEXT
  5
D0
100
AcDbEntity
  8
BORDER
  6
CONTINUOUS
 62
     3
100
AcDbText
 10
0.404473
 20
7.717827
 30
0.0
 40
0.093
  1
DO NOT SCALE
  7
ROMANS
100
AcDbText
  0
TEXT
  5
D1
100
AcDbEntity
  8
BORDER
 62
     3
100
AcDbText
 10
2.339491
 20
0.91168
 30
0.0
 40
0.07
  1
-
 41
0.8
  7
ROMANS
100
AcDbText
  0
TEXT
  5
D2
100
AcDbEntity
  8
BORDER
 62
     3
100
AcDbText
 10
2.339491
 20
0.970954
 30
0.0
 40
0.07
  1
+
 41
0.8
  7
ROMANS
100
AcDbText
  0
LINE
  5
D3
100
AcDbEntity
  8
BORDER
100
AcDbLine
 10
3.004625
 20
1.296194
 30
0.0
 11
3.004625
 21
1.403276
 31
0.0
  0
LINE
  5
D4
100
AcDbEntity
  8
BORDER
 62
     4
100
AcDbLine
 10
3.004625
 20
1.296194
 30
0.0
 11
3.004625
 21
0.5265
 31
0.0
  0
TEXT
  5
D5
100
AcDbEntity
  8
BORDER
 62
     3
100
AcDbText
 10
2.122414
 20
1.153476
 30
0.0
 40
0.07
  1
+
 41
0.8
  7
ROMANS
100
AcDbText
  0
TEXT
  5
D6
100
AcDbEntity
  8
BORDER
 62
     3
100
AcDbText
 10
2.122414
 20
1.094202
 30
0.0
 40
0.07
  1
-
 41
0.8
  7
ROMANS
100
AcDbText
  0
LINE
  5
D7
100
AcDbEntity
  8
BORDER
 62
     2
100
AcDbLine
 10
6.754625
 20
2.552847
 30
0.0
 11
10.492397
 21
2.552847
 31
0.0
  0
LINE
  5
D8
100
AcDbEntity
  8
BORDER
 62
     2
100
AcDbLine
 10
6.754625
 20
2.552847
 30
0.0
 11
10.504625
 21
2.552847
 31
0.0
  0
TRACE
  5
D9
100
AcDbEntity
  8
BORDER
 62
     2
100
AcDbTrace
 10
6.754625
 20
2.577847
 30
0.0
 11
6.754625
 21
2.527847
 31
0.0
 12
10.529625
 22
2.577847
 32
0.0
 13
10.479625
 23
2.527847
 33
0.0
  0
TRACE
  5
DA
100
AcDbEntity
  8
BORDER
 62
     2
100
AcDbTrace
 10
10.504625
 20
0.527847
 30
0.0
 11
10.504625
 21
0.577847
 31
0.0
 12
6.729625
 22
0.527847
 32
0.0
 13
6.779625
 23
0.577847
 33
0.0
  0
TEXT
  5
DB
100
AcDbEntity
  8
BORDER
 62
     4
100
AcDbText
 10
6.973473
 20
2.263821
 30
0.0
 40
0.201
  1
SALISBURY MACHINERY CO.
 41
0.75
  7
ROMANT
100
AcDbText
  0
LINE
  5
DC
100
AcDbEntity
  8
BORDER
 62
     4
100
AcDbLine
 10
10.504625
 20
1.106371
 30
0.0
 11
6.754625
 21
1.106371
 31
0.0
  0
LINE
  5
DD
100
AcDbEntity
  8
BORDER
 62
     4
100
AcDbLine
 10
6.754625
 20
1.615347
 30
0.0
 11
10.492397
 21
1.615347
 31
0.0
  0
LINE
  5
DE
100
AcDbEntity
  8
BORDER
 62
     4
100
AcDbLine
 10
10.504625
 20
1.865347
 30
0.0
 11
6.754625
 21
1.865347
 31
0.0
  0
LINE
  5
DF
100
AcDbEntity
  8
BORDER
 62
     4
100
AcDbLine
 10
6.754625
 20
2.052847
 30
0.0
 11
10.492397
 21
2.052847
 31
0.0
  0
LINE
  5
E0
100
AcDbEntity
  8
BORDER
 62
     4
100
AcDbLine
 10
4.220151
 20
1.403276
 30
0.0
 11
4.220151
 21
1.153276
 31
0.0
  0
LINE
  5
E1
100
AcDbEntity
  8
BORDER
 62
     4
100
AcDbLine
 10
5.573221
 20
1.153276
 30
0.0
 11
5.573221
 21
0.859169
 31
0.0
  0
TEXT
  5
E2
100
AcDbEntity
  8
BORDER
 62
     3
100
AcDbText
 10
7.778288
 20
2.094401
 30
0.0
 40
0.12
  1
SALISBURY, N.C.
  7
ROMANS
100
AcDbText
  0
TEXT
  5
E3
100
AcDbEntity
  8
BORDER
 62
     3
100
AcDbText
 10
7.853892
 20
1.660613
 30
0.0
 40
0.15
  1
APP.
 41
0.75
  7
ROMANS
100
AcDbText
  0
TEXT
  5
E4
100
AcDbEntity
  8
BORDER
 62
     3
100
AcDbText
 10
6.85494
 20
1.888885
 30
0.0
 40
0.122119
  1
DRN.
 41
0.75
  7
ROMANS
100
AcDbText
  0
TEXT
  5
E5
100
AcDbEntity
  8
BORDER
 62
     3
100
AcDbText
 10
6.847486
 20
1.660613
 30
0.0
 40
0.15
  1
CHK.      
 41
0.75
  7
ROMANS
100
AcDbText
  0
TEXT
  5
E6
100
AcDbEntity
  8
BORDER
 62
     3
100
AcDbText
 10
6.855871
 20
0.903145
 30
0.0
 40
0.1215
  1
REV.
  7
ROMANS
100
AcDbText
  0
LINE
  5
E7
100
AcDbEntity
  8
BORDER
 62
     4
100
AcDbLine
 10
7.817125
 20
1.615347
 30
0.0
 11
7.817125
 21
1.865347
 31
0.0
  0
LINE
  5
E8
100
AcDbEntity
  8
BORDER
100
AcDbLine
 10
7.817125
 20
1.865347
 30
0.0
 11
7.817125
 21
1.615347
 31
0.0
  0
TRACE
  5
E9
100
AcDbEntity
  8
BORDER
 62
     2
100
AcDbTrace
 10
6.729625
 20
0.527847
 30
0.0
 11
6.779625
 21
0.577847
 31
0.0
 12
6.729625
 22
2.577847
 32
0.0
 13
6.779625
 23
2.577847
 33
0.0
  0
LINE
  5
EA
100
AcDbEntity
  8
BORDER
 62
     2
100
AcDbLine
 10
6.754625
 20
2.552847
 30
0.0
 11
6.754625
 21
0.544276
 31
0.0
  0
LINE
  5
EB
100
AcDbEntity
  8
BORDER
 62
     2
100
AcDbLine
 10
6.754625
 20
0.552847
 30
0.0
 11
6.754625
 21
2.552847
 31
0.0
  0
TEXT
  5
EC
100
AcDbEntity
  8
BORDER
 62
     3
100
AcDbText
 10
6.879625
 20
0.622339
 30
0.0
 40
0.117
  1
NO.
  7
ROMANS
100
AcDbText
  0
TEXT
  5
ED
100
AcDbEntity
  8
BORDER
 62
     3
100
AcDbText
 10
8.694456
 20
1.888885
 30
0.0
 40
0.122119
  1
DATE:
 41
0.75
  7
ROMANS
100
AcDbText
  0
LINE
  5
EE
100
AcDbEntity
  8
BORDER
 62
     4
100
AcDbLine
 10
8.629625
 20
2.052847
 30
0.0
 11
8.629625
 21
1.865347
 31
0.0
  0
TEXT
  5
EF
100
AcDbEntity
  8
BORDER
 62
     3
100
AcDbText
 10
8.695987
 20
1.653761
 30
0.0
 40
0.15
  1
SCALE:
 41
0.75
  7
ROMANS
100
AcDbText
  0
LINE
  5
F0
100
AcDbEntity
  8
BORDER
 62
     4
100
AcDbLine
 10
8.629625
 20
1.865347
 30
0.0
 11
8.629625
 21
1.615347
 31
0.0
  0
LINE
  5
F1
100
AcDbEntity
  8
BORDER
100
AcDbLine
 10
8.629625
 20
1.865347
 30
0.0
 11
8.629625
 21
1.615347
 31
0.0
  0
LINE
  5
F2
100
AcDbEntity
  8
BORDER
 62
     9
100
AcDbLine
 10
10.53
 20
0.5265
 30
0.0
 11
10.53
 21
8.0265
 31
0.0
  0
SOLID
  5
F3
100
AcDbEntity
  8
BORDER
 62
     2
100
AcDbTrace
 10
10.529625
 20
0.577847
 30
0.0
 11
10.528353
 21
0.525225
 31
0.0
 12
10.479625
 22
0.527847
 32
0.0
 13
10.479625
 23
0.527847
 33
0.0
  0
TRACE
  5
F4
100
AcDbEntity
  8
BORDER
 62
     2
100
AcDbTrace
 10
10.529625
 20
0.577847
 30
0.0
 11
10.479625
 21
0.527847
 31
0.0
 12
10.504625
 22
0.577847
 32
0.0
 13
10.504625
 23
0.527847
 33
0.0
  0
LINE
  5
F5
100
AcDbEntity
  8
BORDER
 62
     2
100
AcDbLine
 10
10.504625
 20
2.552847
 30
0.0
 11
10.504625
 21
0.552847
 31
0.0
  0
TRACE
  5
F6
100
AcDbEntity
  8
BORDER
 62
     2
100
AcDbTrace
 10
10.529625
 20
2.577847
 30
0.0
 11
10.479625
 21
2.527847
 31
0.0
 12
10.529625
 22
0.577847
 32
0.0
 13
10.479625
 23
0.527847
 33
0.0
  0
ENDBLK
  5
F7
100
AcDbEntity
  8
0
100
AcDbBlockEnd
  0
BLOCK
  5
F9
100
AcDbEntity
  8
0
100
AcDbBlockBegin
  2
BB
 70
     0
 10
0.0
 20
0.0
 30
0.0
  3
BB
  1

  0
LINE
  5
FA
100
AcDbEntity
  8
BORDER
 62
     9
100
AcDbLine
 10
0.03
 20
11.0265
 30
0.0
 11
16.53
 21
11.0265
 31
0.0
  0
LINE
  5
FB
100
AcDbEntity
  8
BORDER
 62
     9
100
AcDbLine
 10
0.03
 20
0.5265
 30
0.0
 11
16.53
 21
0.5265
 31
0.0
  0
TEXT
  5
FC
100
AcDbEntity
  8
BORDER
 62
     2
100
AcDbText
 10
9.099884
 20
0.615238
 30
0.0
 40
0.06
  1
AS AUTHORIZED IN WRITING BY THE SALISBURY MACHINERY COMPANY.
 41
0.75
  7
ROMANS
100
AcDbText
  0
TEXT
  5
FD
100
AcDbEntity
  8
BORDER
 62
     2
100
AcDbText
 10
9.099884
 20
0.726459
 30
0.0
 40
0.06
  1
PROPRIETARY DATA NOT TO BE DISCLOSED, USED OR DUPLICATED FOR ANY PURPOSE EXCEPT
 41
0.75
  7
ROMANS
100
AcDbText
  0
TEXT
  5
FE
100
AcDbEntity
  8
BORDER
 62
     3
100
AcDbText
 10
9.06237
 20
1.201303
 30
0.0
 40
0.15
  1
MATERIAL
  7
ROMANS
100
AcDbText
  0
TEXT
  5
FF
100
AcDbEntity
  8
BORDER
 62
     3
100
AcDbText
 10
9.06237
 20
0.915801
 30
0.0
 40
0.15
  1
NO.REQ'D PER MACH.
  7
ROMANS
100
AcDbText
  0
LINE
  5
100
100
AcDbEntity
  8
BORDER
 62
     4
100
AcDbLine
 10
9.004625
 20
1.403276
 30
0.0
 11
12.754625
 21
1.403276
 31
0.0
  0
LINE
  5
101
100
AcDbEntity
  8
BORDER
 62
     4
100
AcDbLine
 10
12.754625
 20
1.153276
 30
0.0
 11
9.004625
 21
1.153276
 31
0.0
  0
LINE
  5
102
100
AcDbEntity
  8
BORDER
 62
     4
100
AcDbLine
 10
9.004625
 20
0.84497
 30
0.0
 11
16.478447
 21
0.84497
 31
0.0
  0
TEXT
  5
103
100
AcDbEntity
  8
BORDER
 62
     3
100
AcDbText
 10
2.044587
 20
0.884384
 30
0.0
 40
0.089224
  1
FRACTIONS   1/64
  7
ROMANS
100
AcDbText
  0
TEXT
  5
104
100
AcDbEntity
  8
BORDER
  6
CONTINUOUS
 62
     3
100
AcDbText
 10
0.404473
 20
10.717827
 30
0.0
 40
0.093
  1
DO NOT SCALE             BREAK ALL SHARP EDGES         REPORT ALL ERRORS TO ENGINEERING DEPT.
  7
ROMANS
100
AcDbText
  0
TEXT
  5
105
100
AcDbEntity
  8
BORDER
 62
     3
100
AcDbText
 10
0.140231
 20
1.26066
 30
0.0
 40
0.089224
  1
UNLESS OTHERWISE INDICATED, TOLERANCES:
  7
ROMANS
100
AcDbText
  0
TEXT
  5
106
100
AcDbEntity
  8
BORDER
 62
     3
100
AcDbText
 10
2.044587
 20
1.045005
 30
0.0
 40
0.089224
  1
ANGLES   1 DEG.
  7
ROMANS
100
AcDbText
  0
LINE
  5
107
100
AcDbEntity
  8
BORDER
 62
     7
100
AcDbLine
 10
0.0
 20
0.0
 30
0.0
 11
0.227728
 21
0.0
 31
0.0
  0
LINE
  5
108
100
AcDbEntity
  8
BORDER
 62
     7
100
AcDbLine
 10
0.0
 20
0.398597
 30
0.0
 11
0.0
 21
0.0
 31
0.0
  0
LINE
  5
109
100
AcDbEntity
  8
BORDER
 62
     9
100
AcDbLine
 10
0.03
 20
0.5265
 30
0.0
 11
0.03
 21
11.0265
 31
0.0
  0
TEXT
  5
10A
100
AcDbEntity
  8
BORDER
 62
     3
100
AcDbText
 10
0.942055
 20
0.997254
 30
0.0
 40
0.07
  1
-
 41
0.8
  7
ROMANS
100
AcDbText
  0
TEXT
  5
10B
100
AcDbEntity
  8
BORDER
 62
     3
100
AcDbText
 10
0.942055
 20
1.056528
 30
0.0
 40
0.07
  1
+
 41
0.8
  7
ROMANS
100
AcDbText
  0
TEXT
  5
10C
100
AcDbEntity
  8
BORDER
 62
     3
100
AcDbText
 10
0.948709
 20
0.684046
 30
0.0
 40
0.07
  1
+
 41
0.8
  7
ROMANS
100
AcDbText
  0
TEXT
  5
10D
100
AcDbEntity
  8
BORDER
 62
     3
100
AcDbText
 10
0.948712
 20
0.817665
 30
0.0
 40
0.07
  1
-
 41
0.8
  7
ROMANS
100
AcDbText
  0
TEXT
  5
10E
100
AcDbEntity
  8
BORDER
 62
     3
100
AcDbText
 10
0.948712
 20
0.876939
 30
0.0
 40
0.07
  1
+
 41
0.8
  7
ROMANS
100
AcDbText
  0
TEXT
  5
10F
100
AcDbEntity
  8
BORDER
 62
     3
100
AcDbText
 10
0.948709
 20
0.624772
 30
0.0
 40
0.07
  1
-
 41
0.8
  7
ROMANS
100
AcDbText
  0
TEXT
  5
110
100
AcDbEntity
  8
BORDER
 62
     3
100
AcDbText
 10
0.261765
 20
1.040237
 30
0.0
 40
0.089224
  1
X.X   =   0.025
  7
ROMANS
100
AcDbText
  0
TEXT
  5
111
100
AcDbEntity
  8
BORDER
 62
     3
100
AcDbText
 10
0.268422
 20
0.843066
 30
0.0
 40
0.089224
  1
X.XX  =   0.010
  7
ROMANS
100
AcDbText
  0
TEXT
  5
112
100
AcDbEntity
  8
BORDER
 62
     3
100
AcDbText
 10
0.26842
 20
0.639243
 30
0.0
 40
0.089224
  1
X.XXX =   0.005
  7
ROMANS
100
AcDbText
  0
TEXT
  5
113
100
AcDbEntity
  8
BORDER
 62
     3
100
AcDbText
 10
2.879775
 20
0.849078
 30
0.0
 40
0.07
  1
-
 41
0.8
  7
ROMANS
100
AcDbText
  0
TEXT
  5
114
100
AcDbEntity
  8
BORDER
 62
     3
100
AcDbText
 10
2.879775
 20
0.908352
 30
0.0
 40
0.07
  1
+
 41
0.8
  7
ROMANS
100
AcDbText
  0
TEXT
  5
115
100
AcDbEntity
  8
BORDER
 62
     3
100
AcDbText
 10
2.645986
 20
1.090874
 30
0.0
 40
0.07
  1
+
 41
0.8
  7
ROMANS
100
AcDbText
  0
TEXT
  5
116
100
AcDbEntity
  8
BORDER
 62
     3
100
AcDbText
 10
2.645986
 20
1.0316
 30
0.0
 40
0.07
  1
-
 41
0.8
  7
ROMANS
100
AcDbText
  0
LINE
  5
117
100
AcDbEntity
  8
BORDER
100
AcDbLine
 10
9.004625
 20
1.296194
 30
0.0
 11
9.004625
 21
1.403276
 31
0.0
  0
LINE
  5
118
100
AcDbEntity
  8
BORDER
 62
     4
100
AcDbLine
 10
9.004625
 20
1.296194
 30
0.0
 11
9.004625
 21
0.5265
 31
0.0
  0
LINE
  5
119
100
AcDbEntity
  8
BORDER
 62
     2
100
AcDbLine
 10
12.754625
 20
2.552847
 30
0.0
 11
16.492397
 21
2.552847
 31
0.0
  0
LINE
  5
11A
100
AcDbEntity
  8
BORDER
 62
     2
100
AcDbLine
 10
12.754625
 20
2.552847
 30
0.0
 11
16.504625
 21
2.552847
 31
0.0
  0
TRACE
  5
11B
100
AcDbEntity
  8
BORDER
 62
     2
100
AcDbTrace
 10
12.754625
 20
2.577847
 30
0.0
 11
12.754625
 21
2.527847
 31
0.0
 12
16.529625
 22
2.577847
 32
0.0
 13
16.479625
 23
2.527847
 33
0.0
  0
TRACE
  5
11C
100
AcDbEntity
  8
BORDER
 62
     2
100
AcDbTrace
 10
16.504625
 20
0.527847
 30
0.0
 11
16.504625
 21
0.577847
 31
0.0
 12
12.729625
 22
0.527847
 32
0.0
 13
12.779625
 23
0.577847
 33
0.0
  0
TEXT
  5
11D
100
AcDbEntity
  8
BORDER
 62
     4
100
AcDbText
 10
12.973473
 20
2.263821
 30
0.0
 40
0.201
  1
SALISBURY MACHINERY CO.
 41
0.75
  7
ROMANT
100
AcDbText
  0
LINE
  5
11E
100
AcDbEntity
  8
BORDER
 62
     4
100
AcDbLine
 10
16.504625
 20
1.106371
 30
0.0
 11
12.754625
 21
1.106371
 31
0.0
  0
LINE
  5
11F
100
AcDbEntity
  8
BORDER
 62
     4
100
AcDbLine
 10
12.754625
 20
1.615347
 30
0.0
 11
16.492397
 21
1.615347
 31
0.0
  0
LINE
  5
120
100
AcDbEntity
  8
BORDER
 62
     4
100
AcDbLine
 10
16.504625
 20
1.865347
 30
0.0
 11
12.754625
 21
1.865347
 31
0.0
  0
LINE
  5
121
100
AcDbEntity
  8
BORDER
 62
     4
100
AcDbLine
 10
12.754625
 20
2.052847
 30
0.0
 11
16.492397
 21
2.052847
 31
0.0
  0
LINE
  5
122
100
AcDbEntity
  8
BORDER
 62
     4
100
AcDbLine
 10
10.220151
 20
1.403276
 30
0.0
 11
10.220151
 21
1.153276
 31
0.0
  0
LINE
  5
123
100
AcDbEntity
  8
BORDER
 62
     4
100
AcDbLine
 10
11.573221
 20
1.153276
 30
0.0
 11
11.573221
 21
0.84497
 31
0.0
  0
TEXT
  5
124
100
AcDbEntity
  8
BORDER
 62
     3
100
AcDbText
 10
13.778288
 20
2.094401
 30
0.0
 40
0.12
  1
SALISBURY, N.C.
  7
ROMANS
100
AcDbText
  0
TEXT
  5
125
100
AcDbEntity
  8
BORDER
 62
     3
100
AcDbText
 10
13.853892
 20
1.660613
 30
0.0
 40
0.15
  1
APP.
 41
0.75
  7
ROMANS
100
AcDbText
  0
TEXT
  5
126
100
AcDbEntity
  8
BORDER
 62
     3
100
AcDbText
 10
12.85494
 20
1.888885
 30
0.0
 40
0.122119
  1
DRN.
 41
0.75
  7
ROMANS
100
AcDbText
  0
TEXT
  5
127
100
AcDbEntity
  8
BORDER
 62
     3
100
AcDbText
 10
12.847486
 20
1.660613
 30
0.0
 40
0.15
  1
CHK.      
 41
0.75
  7
ROMANS
100
AcDbText
  0
TEXT
  5
128
100
AcDbEntity
  8
BORDER
 62
     3
100
AcDbText
 10
12.855871
 20
0.903145
 30
0.0
 40
0.1215
  1
REV.
  7
ROMANS
100
AcDbText
  0
LINE
  5
129
100
AcDbEntity
  8
BORDER
 62
     4
100
AcDbLine
 10
13.817125
 20
1.615347
 30
0.0
 11
13.817125
 21
1.865347
 31
0.0
  0
LINE
  5
12A
100
AcDbEntity
  8
BORDER
100
AcDbLine
 10
13.817125
 20
1.865347
 30
0.0
 11
13.817125
 21
1.615347
 31
0.0
  0
TRACE
  5
12B
100
AcDbEntity
  8
BORDER
 62
     2
100
AcDbTrace
 10
12.729625
 20
0.527847
 30
0.0
 11
12.779625
 21
0.577847
 31
0.0
 12
12.729625
 22
2.577847
 32
0.0
 13
12.779625
 23
2.577847
 33
0.0
  0
LINE
  5
12C
100
AcDbEntity
  8
BORDER
 62
     2
100
AcDbLine
 10
12.754625
 20
2.552847
 30
0.0
 11
12.754625
 21
0.544276
 31
0.0
  0
LINE
  5
12D
100
AcDbEntity
  8
BORDER
 62
     2
100
AcDbLine
 10
12.754625
 20
0.552847
 30
0.0
 11
12.754625
 21
2.552847
 31
0.0
  0
TEXT
  5
12E
100
AcDbEntity
  8
BORDER
 62
     3
100
AcDbText
 10
12.879625
 20
0.622339
 30
0.0
 40
0.117
  1
NO.
  7
ROMANS
100
AcDbText
  0
TEXT
  5
12F
100
AcDbEntity
  8
BORDER
 62
     3
100
AcDbText
 10
14.694456
 20
1.888885
 30
0.0
 40
0.122119
  1
DATE:
 41
0.75
  7
ROMANS
100
AcDbText
  0
LINE
  5
130
100
AcDbEntity
  8
BORDER
 62
     4
100
AcDbLine
 10
14.629625
 20
2.052847
 30
0.0
 11
14.629625
 21
1.865347
 31
0.0
  0
TEXT
  5
131
100
AcDbEntity
  8
BORDER
 62
     3
100
AcDbText
 10
14.695987
 20
1.653761
 30
0.0
 40
0.15
  1
SCALE:
 41
0.75
  7
ROMANS
100
AcDbText
  0
LINE
  5
132
100
AcDbEntity
  8
BORDER
 62
     4
100
AcDbLine
 10
14.629625
 20
1.865347
 30
0.0
 11
14.629625
 21
1.615347
 31
0.0
  0
LINE
  5
133
100
AcDbEntity
  8
BORDER
100
AcDbLine
 10
14.629625
 20
1.865347
 30
0.0
 11
14.629625
 21
1.615347
 31
0.0
  0
LINE
  5
134
100
AcDbEntity
  8
BORDER
 62
     9
100
AcDbLine
 10
16.53
 20
0.5265
 30
0.0
 11
16.53
 21
11.0265
 31
0.0
  0
SOLID
  5
135
100
AcDbEntity
  8
BORDER
 62
     2
100
AcDbTrace
 10
16.529625
 20
0.577847
 30
0.0
 11
16.528353
 21
0.525225
 31
0.0
 12
16.479625
 22
0.527847
 32
0.0
 13
16.479625
 23
0.527847
 33
0.0
  0
TRACE
  5
136
100
AcDbEntity
  8
BORDER
 62
     2
100
AcDbTrace
 10
16.529625
 20
0.577847
 30
0.0
 11
16.479625
 21
0.527847
 31
0.0
 12
16.504625
 22
0.577847
 32
0.0
 13
16.504625
 23
0.527847
 33
0.0
  0
LINE
  5
137
100
AcDbEntity
  8
BORDER
 62
     2
100
AcDbLine
 10
16.504625
 20
2.552847
 30
0.0
 11
16.504625
 21
0.552847
 31
0.0
  0
TRACE
  5
138
100
AcDbEntity
  8
BORDER
 62
     2
100
AcDbTrace
 10
16.529625
 20
2.577847
 30
0.0
 11
16.479625
 21
2.527847
 31
0.0
 12
16.529625
 22
0.577847
 32
0.0
 13
16.479625
 23
0.527847
 33
0.0
  0
LINE
  5
139
100
AcDbEntity
  8
BORDER
100
AcDbLine
 10
-0.47
 20
0.0265
 30
0.0
 11
-0.255363
 21
0.0265
 31
0.0
  0
LINE
  5
13A
100
AcDbEntity
  8
BORDER
100
AcDbLine
 10
-0.47
 20
0.0265
 30
0.0
 11
-0.47
 21
0.256338
 31
0.0
  0
ENDBLK
  5
13B
100
AcDbEntity
  8
0
100
AcDbBlockEnd
  0
BLOCK
  5
13D
100
AcDbEntity
  8
0
100
AcDbBlockBegin
  2
BC
 70
     0
 10
0.0
 20
0.0
 30
0.0
  3
BC
  1

  0
LINE
  5
13E
100
AcDbEntity
  8
BORDER
 62
     9
100
AcDbLine
 10
0.08
 20
17.0265
 30
0.0
 11
22.58
 21
17.0265
 31
0.0
  0
LINE
  5
13F
100
AcDbEntity
  8
BORDER
 62
     9
100
AcDbLine
 10
0.08
 20
0.5265
 30
0.0
 11
22.58
 21
0.5265
 31
0.0
  0
LINE
  5
140
100
AcDbEntity
  8
BORDER
 62
     9
100
AcDbLine
 10
0.08
 20
0.5265
 30
0.0
 11
0.08
 21
17.0265
 31
0.0
  0
LINE
  5
141
100
AcDbEntity
  8
BORDER
 62
     7
100
AcDbLine
 10
0.05
 20
0.0
 30
0.0
 11
0.277728
 21
0.0
 31
0.0
  0
LINE
  5
142
100
AcDbEntity
  8
BORDER
100
AcDbLine
 10
-0.42
 20
0.0265
 30
0.0
 11
-0.205363
 21
0.0265
 31
0.0
  0
LINE
  5
143
100
AcDbEntity
  8
BORDER
 62
     7
100
AcDbLine
 10
0.05
 20
0.398597
 30
0.0
 11
0.05
 21
0.0
 31
0.0
  0
LINE
  5
144
100
AcDbEntity
  8
BORDER
100
AcDbLine
 10
-0.42
 20
0.0265
 30
0.0
 11
-0.42
 21
0.256338
 31
0.0
  0
TEXT
  5
145
100
AcDbEntity
  8
BORDER
 62
     3
100
AcDbText
 10
2.695986
 20
1.085142
 30
0.0
 40
0.07
  1
+
 41
0.8
  7
ROMANS
100
AcDbText
  0
TEXT
  5
146
100
AcDbEntity
  8
BORDER
 62
     3
100
AcDbText
 10
2.695986
 20
1.025868
 30
0.0
 40
0.07
  1
-
 41
0.8
  7
ROMANS
100
AcDbText
  0
TEXT
  5
147
100
AcDbEntity
  8
BORDER
 62
     3
100
AcDbText
 10
2.929775
 20
0.843346
 30
0.0
 40
0.07
  1
-
 41
0.8
  7
ROMANS
100
AcDbText
  0
TEXT
  5
148
100
AcDbEntity
  8
BORDER
 62
     3
100
AcDbText
 10
2.929775
 20
0.90262
 30
0.0
 40
0.07
  1
+
 41
0.8
  7
ROMANS
100
AcDbText
  0
TEXT
  5
149
100
AcDbEntity
  8
BORDER
 62
     3
100
AcDbText
 10
0.992055
 20
1.056528
 30
0.0
 40
0.07
  1
+
 41
0.8
  7
ROMANS
100
AcDbText
  0
TEXT
  5
14A
100
AcDbEntity
  8
BORDER
 62
     3
100
AcDbText
 10
0.992055
 20
0.997254
 30
0.0
 40
0.07
  1
-
 41
0.8
  7
ROMANS
100
AcDbText
  0
TEXT
  5
14B
100
AcDbEntity
  8
BORDER
 62
     3
100
AcDbText
 10
0.998709
 20
0.684046
 30
0.0
 40
0.07
  1
+
 41
0.8
  7
ROMANS
100
AcDbText
  0
TEXT
  5
14C
100
AcDbEntity
  8
BORDER
 62
     3
100
AcDbText
 10
0.998712
 20
0.817665
 30
0.0
 40
0.07
  1
-
 41
0.8
  7
ROMANS
100
AcDbText
  0
TEXT
  5
14D
100
AcDbEntity
  8
BORDER
 62
     3
100
AcDbText
 10
0.998712
 20
0.876939
 30
0.0
 40
0.07
  1
+
 41
0.8
  7
ROMANS
100
AcDbText
  0
TEXT
  5
14E
100
AcDbEntity
  8
BORDER
 62
     3
100
AcDbText
 10
0.998709
 20
0.624772
 30
0.0
 40
0.07
  1
-
 41
0.8
  7
ROMANS
100
AcDbText
  0
TEXT
  5
14F
100
AcDbEntity
  8
BORDER
 62
     3
100
AcDbText
 10
0.311765
 20
1.040237
 30
0.0
 40
0.089224
  1
X.X   =   0.025
  7
ROMANS
100
AcDbText
  0
TEXT
  5
150
100
AcDbEntity
  8
BORDER
 62
     3
100
AcDbText
 10
0.318422
 20
0.843066
 30
0.0
 40
0.089224
  1
X.XX  =   0.010
  7
ROMANS
100
AcDbText
  0
TEXT
  5
151
100
AcDbEntity
  8
BORDER
 62
     3
100
AcDbText
 10
0.31842
 20
0.639243
 30
0.0
 40
0.089224
  1
X.XXX =   0.005
  7
ROMANS
100
AcDbText
  0
TEXT
  5
152
100
AcDbEntity
  8
BORDER
 62
     3
100
AcDbText
 10
2.094587
 20
0.878653
 30
0.0
 40
0.089224
  1
FRACTIONS   1/64
  7
ROMANS
100
AcDbText
  0
TEXT
  5
153
100
AcDbEntity
  8
BORDER
 62
     3
100
AcDbText
 10
0.190231
 20
1.26066
 30
0.0
 40
0.089224
  1
UNLESS OTHERWISE INDICATED, TOLERANCES:
  7
ROMANS
100
AcDbText
  0
TEXT
  5
154
100
AcDbEntity
  8
BORDER
 62
     3
100
AcDbText
 10
2.094587
 20
1.039274
 30
0.0
 40
0.089224
  1
ANGLES   1 DEG.
  7
ROMANS
100
AcDbText
  0
TEXT
  5
155
100
AcDbEntity
  8
BORDER
  6
CONTINUOUS
 62
     3
100
AcDbText
 10
0.454473
 20
16.717827
 30
0.0
 40
0.093
  1
DO NOT SCALE             BREAK ALL SHARP EDGES         REPORT ALL ERRORS TO ENGINEERING DEPT.
  7
ROMANS
100
AcDbText
  0
LINE
  5
156
100
AcDbEntity
  8
BORDER
 62
     9
100
AcDbLine
 10
22.58
 20
0.5265
 30
0.0
 11
22.58
 21
17.0265
 31
0.0
  0
LINE
  5
157
100
AcDbEntity
  8
BORDER
 62
     4
100
AcDbLine
 10
20.679625
 20
1.865347
 30
0.0
 11
20.679625
 21
1.615347
 31
0.0
  0
LINE
  5
158
100
AcDbEntity
  8
BORDER
100
AcDbLine
 10
20.679625
 20
1.865347
 30
0.0
 11
20.679625
 21
1.615347
 31
0.0
  0
LINE
  5
159
100
AcDbEntity
  8
BORDER
 62
     4
100
AcDbLine
 10
19.867125
 20
1.615347
 30
0.0
 11
19.867125
 21
1.865347
 31
0.0
  0
LINE
  5
15A
100
AcDbEntity
  8
BORDER
100
AcDbLine
 10
19.867125
 20
1.865347
 30
0.0
 11
19.867125
 21
1.615347
 31
0.0
  0
LINE
  5
15B
100
AcDbEntity
  8
BORDER
 62
     2
100
AcDbLine
 10
22.554625
 20
2.552847
 30
0.0
 11
22.554625
 21
0.552847
 31
0.0
  0
TRACE
  5
15C
100
AcDbEntity
  8
BORDER
 62
     2
100
AcDbTrace
 10
22.579625
 20
2.577847
 30
0.0
 11
22.529625
 21
2.527847
 31
0.0
 12
22.579625
 22
0.577847
 32
0.0
 13
22.529625
 23
0.527847
 33
0.0
  0
TRACE
  5
15D
100
AcDbEntity
  8
BORDER
 62
     2
100
AcDbTrace
 10
18.779625
 20
0.527847
 30
0.0
 11
18.829625
 21
0.577847
 31
0.0
 12
18.779625
 22
2.577847
 32
0.0
 13
18.829625
 23
2.577847
 33
0.0
  0
LINE
  5
15E
100
AcDbEntity
  8
BORDER
 62
     2
100
AcDbLine
 10
18.804625
 20
2.552847
 30
0.0
 11
18.804625
 21
0.544276
 31
0.0
  0
LINE
  5
15F
100
AcDbEntity
  8
BORDER
 62
     2
100
AcDbLine
 10
18.804625
 20
0.552847
 30
0.0
 11
18.804625
 21
2.552847
 31
0.0
  0
TRACE
  5
160
100
AcDbEntity
  8
BORDER
 62
     2
100
AcDbTrace
 10
22.554625
 20
0.527847
 30
0.0
 11
22.554625
 21
0.577847
 31
0.0
 12
18.779625
 22
0.527847
 32
0.0
 13
18.829625
 23
0.577847
 33
0.0
  0
LINE
  5
161
100
AcDbEntity
  8
BORDER
 62
     4
100
AcDbLine
 10
22.554625
 20
1.106371
 30
0.0
 11
18.804625
 21
1.106371
 31
0.0
  0
LINE
  5
162
100
AcDbEntity
  8
BORDER
 62
     4
100
AcDbLine
 10
18.804625
 20
1.615347
 30
0.0
 11
22.542397
 21
1.615347
 31
0.0
  0
LINE
  5
163
100
AcDbEntity
  8
BORDER
 62
     4
100
AcDbLine
 10
15.054625
 20
0.84497
 30
0.0
 11
22.528447
 21
0.84497
 31
0.0
  0
TEXT
  5
164
100
AcDbEntity
  8
BORDER
 62
     2
100
AcDbText
 10
15.149884
 20
0.615238
 30
0.0
 40
0.06
  1
AS AUTHORIZED IN WRITING BY THE SALISBURY MACHINERY COMPANY.
 41
0.75
  7
ROMANS
100
AcDbText
  0
TEXT
  5
165
100
AcDbEntity
  8
BORDER
 62
     2
100
AcDbText
 10
15.149884
 20
0.726459
 30
0.0
 40
0.06
  1
PROPRIETARY DATA NOT TO BE DISCLOSED, USED OR DUPLICATED FOR ANY PURPOSE EXCEPT
 41
0.75
  7
ROMANS
100
AcDbText
  0
TEXT
  5
166
100
AcDbEntity
  8
BORDER
 62
     3
100
AcDbText
 10
15.11237
 20
0.915801
 30
0.0
 40
0.15
  1
NO.REQ'D PER MACH.
  7
ROMANS
100
AcDbText
  0
LINE
  5
167
100
AcDbEntity
  8
BORDER
 62
     4
100
AcDbLine
 10
15.054625
 20
1.403276
 30
0.0
 11
18.804625
 21
1.403276
 31
0.0
  0
LINE
  5
168
100
AcDbEntity
  8
BORDER
 62
     4
100
AcDbLine
 10
18.804625
 20
1.153276
 30
0.0
 11
15.054625
 21
1.153276
 31
0.0
  0
LINE
  5
169
100
AcDbEntity
  8
BORDER
 62
     4
100
AcDbLine
 10
16.270151
 20
1.403276
 30
0.0
 11
16.270151
 21
1.153276
 31
0.0
  0
TEXT
  5
16A
100
AcDbEntity
  8
BORDER
 62
     3
100
AcDbText
 10
15.11237
 20
1.201303
 30
0.0
 40
0.15
  1
MATERIAL
  7
ROMANS
100
AcDbText
  0
LINE
  5
16B
100
AcDbEntity
  8
BORDER
100
AcDbLine
 10
15.054625
 20
1.296194
 30
0.0
 11
15.054625
 21
1.403276
 31
0.0
  0
LINE
  5
16C
100
AcDbEntity
  8
BORDER
 62
     4
100
AcDbLine
 10
15.054625
 20
1.296194
 30
0.0
 11
15.054625
 21
0.5265
 31
0.0
  0
TEXT
  5
16D
100
AcDbEntity
  8
BORDER
 62
     3
100
AcDbText
 10
18.929625
 20
0.622339
 30
0.0
 40
0.117
  1
NO.
  7
ROMANS
100
AcDbText
  0
LINE
  5
16E
100
AcDbEntity
  8
BORDER
 62
     4
100
AcDbLine
 10
17.623221
 20
1.153276
 30
0.0
 11
17.623221
 21
0.84497
 31
0.0
  0
TEXT
  5
16F
100
AcDbEntity
  8
BORDER
 62
     3
100
AcDbText
 10
18.905871
 20
0.903145
 30
0.0
 40
0.1215
  1
REV.
  7
ROMANS
100
AcDbText
  0
SOLID
  5
170
100
AcDbEntity
  8
BORDER
 62
     2
100
AcDbTrace
 10
22.579625
 20
0.577847
 30
0.0
 11
22.578353
 21
0.525225
 31
0.0
 12
22.529625
 22
0.527847
 32
0.0
 13
22.529625
 23
0.527847
 33
0.0
  0
TRACE
  5
171
100
AcDbEntity
  8
BORDER
 62
     2
100
AcDbTrace
 10
22.579625
 20
0.577847
 30
0.0
 11
22.529625
 21
0.527847
 31
0.0
 12
22.554625
 22
0.577847
 32
0.0
 13
22.554625
 23
0.527847
 33
0.0
  0
TEXT
  5
172
100
AcDbEntity
  8
BORDER
 62
     3
100
AcDbText
 10
19.828288
 20
2.094401
 30
0.0
 40
0.12
  1
SALISBURY, N.C.
  7
ROMANS
100
AcDbText
  0
TEXT
  5
173
100
AcDbEntity
  8
BORDER
 62
     3
100
AcDbText
 10
20.745987
 20
1.653761
 30
0.0
 40
0.15
  1
SCALE:
 41
0.75
  7
ROMANS
100
AcDbText
  0
TEXT
  5
174
100
AcDbEntity
  8
BORDER
 62
     3
100
AcDbText
 10
20.744456
 20
1.888885
 30
0.0
 40
0.122119
  1
DATE:
 41
0.75
  7
ROMANS
100
AcDbText
  0
LINE
  5
175
100
AcDbEntity
  8
BORDER
 62
     2
100
AcDbLine
 10
18.804625
 20
2.552847
 30
0.0
 11
22.542397
 21
2.552847
 31
0.0
  0
LINE
  5
176
100
AcDbEntity
  8
BORDER
 62
     2
100
AcDbLine
 10
18.804625
 20
2.552847
 30
0.0
 11
22.554625
 21
2.552847
 31
0.0
  0
TRACE
  5
177
100
AcDbEntity
  8
BORDER
 62
     2
100
AcDbTrace
 10
18.804625
 20
2.577847
 30
0.0
 11
18.804625
 21
2.527847
 31
0.0
 12
22.579625
 22
2.577847
 32
0.0
 13
22.529625
 23
2.527847
 33
0.0
  0
TEXT
  5
178
100
AcDbEntity
  8
BORDER
 62
     4
100
AcDbText
 10
19.023473
 20
2.263821
 30
0.0
 40
0.201
  1
SALISBURY MACHINERY CO.
 41
0.75
  7
ROMANT
100
AcDbText
  0
LINE
  5
179
100
AcDbEntity
  8
BORDER
 62
     4
100
AcDbLine
 10
22.554625
 20
1.865347
 30
0.0
 11
18.804625
 21
1.865347
 31
0.0
  0
LINE
  5
17A
100
AcDbEntity
  8
BORDER
 62
     4
100
AcDbLine
 10
18.804625
 20
2.052847
 30
0.0
 11
22.542397
 21
2.052847
 31
0.0
  0
TEXT
  5
17B
100
AcDbEntity
  8
BORDER
 62
     3
100
AcDbText
 10
19.903892
 20
1.660613
 30
0.0
 40
0.15
  1
APP.
 41
0.75
  7
ROMANS
100
AcDbText
  0
LINE
  5
17C
100
AcDbEntity
  8
BORDER
 62
     4
100
AcDbLine
 10
20.679625
 20
2.052847
 30
0.0
 11
20.679625
 21
1.865347
 31
0.0
  0
TEXT
  5
17D
100
AcDbEntity
  8
BORDER
 62
     3
100
AcDbText
 10
18.90494
 20
1.888885
 30
0.0
 40
0.122119
  1
DRN.
 41
0.75
  7
ROMANS
100
AcDbText
  0
TEXT
  5
17E
100
AcDbEntity
  8
BORDER
 62
     3
100
AcDbText
 10
18.897486
 20
1.660613
 30
0.0
 40
0.15
  1
CHK.      
 41
0.75
  7
ROMANS
100
AcDbText
  0
ENDBLK
  5
17F
100
AcDbEntity
  8
0
100
AcDbBlockEnd
  0
BLOCK
  5
181
100
AcDbEntity
  8
0
100
AcDbBlockBegin
  2
BD
 70
     0
 10
0.0
 20
0.0
 30
0.0
  3
BD
  1

  0
LINE
  5
182
100
AcDbEntity
  8
BORDER
 62
     4
100
AcDbLine
 10
26.974625
 20
0.31847
 30
0.0
 11
34.448447
 21
0.31847
 31
0.0
  0
LINE
  5
183
100
AcDbEntity
  8
BORDER
 62
     4
100
AcDbLine
 10
30.724625
 20
0.626776
 30
0.0
 11
26.974625
 21
0.626776
 31
0.0
  0
LINE
  5
184
100
AcDbEntity
  8
BORDER
 62
     4
100
AcDbLine
 10
26.974625
 20
0.876776
 30
0.0
 11
30.724625
 21
0.876776
 31
0.0
  0
TEXT
  5
185
100
AcDbEntity
  8
BORDER
 62
     3
100
AcDbText
 10
27.03237
 20
0.389301
 30
0.0
 40
0.15
  1
NO.REQ'D PER MACH.
  7
ROMANS
100
AcDbText
  0
TEXT
  5
186
100
AcDbEntity
  8
BORDER
 62
     3
100
AcDbText
 10
27.03237
 20
0.674803
 30
0.0
 40
0.15
  1
MATERIAL
  7
ROMANS
100
AcDbText
  0
TEXT
  5
187
100
AcDbEntity
  8
BORDER
 62
     2
100
AcDbText
 10
27.069884
 20
0.199959
 30
0.0
 40
0.06
  1
PROPRIETARY DATA NOT TO BE DISCLOSED, USED OR DUPLICATED FOR ANY PURPOSE EXCEPT
 41
0.75
  7
ROMANS
100
AcDbText
  0
TEXT
  5
188
100
AcDbEntity
  8
BORDER
 62
     2
100
AcDbText
 10
27.069884
 20
0.088738
 30
0.0
 40
0.06
  1
AS AUTHORIZED IN WRITING BY THE SALISBURY MACHINERY COMPANY.
 41
0.75
  7
ROMANS
100
AcDbText
  0
LINE
  5
189
100
AcDbEntity
  8
BORDER
 62
     9
100
AcDbLine
 10
34.5
 20
22.5
 30
0.0
 11
0.0
 21
22.5
 31
0.0
  0
LINE
  5
18A
100
AcDbEntity
  8
BORDER
 62
     9
100
AcDbLine
 10
0.0
 20
0.0
 30
0.0
 11
34.5
 21
0.0
 31
0.0
  0
TEXT
  5
18B
100
AcDbEntity
  8
BORDER
 62
     3
100
AcDbText
 10
2.014587
 20
0.514822
 30
0.0
 40
0.089224
  1
ANGLES   1 DEG.
  7
ROMANS
100
AcDbText
  0
TEXT
  5
18C
100
AcDbEntity
  8
BORDER
 62
     3
100
AcDbText
 10
0.110231
 20
0.73416
 30
0.0
 40
0.089224
  1
UNLESS OTHERWISE INDICATED, TOLERANCES:
  7
ROMANS
100
AcDbText
  0
TEXT
  5
18D
100
AcDbEntity
  8
BORDER
  6
CONTINUOUS
 62
     3
100
AcDbText
 10
0.374473
 20
22.191327
 30
0.0
 40
0.093
  1
DO NOT SCALE             BREAK ALL SHARP EDGES         REPORT ALL ERRORS TO ENGINEERING DEPT.
  7
ROMANS
100
AcDbText
  0
LINE
  5
18E
100
AcDbEntity
  8
BORDER
100
AcDbLine
 10
-0.5
 20
-0.5
 30
0.0
 11
-0.5
 21
-0.270162
 31
0.0
  0
LINE
  5
18F
100
AcDbEntity
  8
BORDER
100
AcDbLine
 10
-0.5
 20
-0.5
 30
0.0
 11
-0.285363
 21
-0.5
 31
0.0
  0
TEXT
  5
190
100
AcDbEntity
  8
BORDER
 62
     3
100
AcDbText
 10
0.23842
 20
0.112743
 30
0.0
 40
0.089224
  1
X.XXX =   0.005
  7
ROMANS
100
AcDbText
  0
TEXT
  5
191
100
AcDbEntity
  8
BORDER
 62
     3
100
AcDbText
 10
0.238422
 20
0.316566
 30
0.0
 40
0.089224
  1
X.XX  =   0.010
  7
ROMANS
100
AcDbText
  0
TEXT
  5
192
100
AcDbEntity
  8
BORDER
 62
     3
100
AcDbText
 10
0.231765
 20
0.513737
 30
0.0
 40
0.089224
  1
X.X   =   0.025
  7
ROMANS
100
AcDbText
  0
LINE
  5
193
100
AcDbEntity
  8
BORDER
 62
     9
100
AcDbLine
 10
0.0
 20
22.5
 30
0.0
 11
0.0
 21
0.0
 31
0.0
  0
TEXT
  5
194
100
AcDbEntity
  8
BORDER
 62
     3
100
AcDbText
 10
0.918709
 20
0.098272
 30
0.0
 40
0.07
  1
-
 41
0.8
  7
ROMANS
100
AcDbText
  0
TEXT
  5
195
100
AcDbEntity
  8
BORDER
 62
     3
100
AcDbText
 10
0.918712
 20
0.350439
 30
0.0
 40
0.07
  1
+
 41
0.8
  7
ROMANS
100
AcDbText
  0
TEXT
  5
196
100
AcDbEntity
  8
BORDER
 62
     3
100
AcDbText
 10
0.918712
 20
0.291165
 30
0.0
 40
0.07
  1
-
 41
0.8
  7
ROMANS
100
AcDbText
  0
TEXT
  5
197
100
AcDbEntity
  8
BORDER
 62
     3
100
AcDbText
 10
0.918709
 20
0.157546
 30
0.0
 40
0.07
  1
+
 41
0.8
  7
ROMANS
100
AcDbText
  0
TEXT
  5
198
100
AcDbEntity
  8
BORDER
 62
     3
100
AcDbText
 10
0.912055
 20
0.530028
 30
0.0
 40
0.07
  1
+
 41
0.8
  7
ROMANS
100
AcDbText
  0
TEXT
  5
199
100
AcDbEntity
  8
BORDER
 62
     3
100
AcDbText
 10
0.912055
 20
0.470754
 30
0.0
 40
0.07
  1
-
 41
0.8
  7
ROMANS
100
AcDbText
  0
TEXT
  5
19A
100
AcDbEntity
  8
BORDER
 62
     3
100
AcDbText
 10
2.615986
 20
0.501416
 30
0.0
 40
0.07
  1
-
 41
0.8
  7
ROMANS
100
AcDbText
  0
TEXT
  5
19B
100
AcDbEntity
  8
BORDER
 62
     3
100
AcDbText
 10
2.615986
 20
0.56069
 30
0.0
 40
0.07
  1
+
 41
0.8
  7
ROMANS
100
AcDbText
  0
LINE
  5
19C
100
AcDbEntity
  8
BORDER
 62
     4
100
AcDbLine
 10
26.974625
 20
0.769694
 30
0.0
 11
26.974625
 21
0.0
 31
0.0
  0
LINE
  5
19D
100
AcDbEntity
  8
BORDER
100
AcDbLine
 10
26.974625
 20
0.769694
 30
0.0
 11
26.974625
 21
0.876776
 31
0.0
  0
LINE
  5
19E
100
AcDbEntity
  8
BORDER
 62
     4
100
AcDbLine
 10
30.724625
 20
1.526347
 30
0.0
 11
34.462397
 21
1.526347
 31
0.0
  0
LINE
  5
19F
100
AcDbEntity
  8
BORDER
 62
     4
100
AcDbLine
 10
34.474625
 20
1.338847
 30
0.0
 11
30.724625
 21
1.338847
 31
0.0
  0
LINE
  5
1A0
100
AcDbEntity
  8
BORDER
 62
     4
100
AcDbLine
 10
30.724625
 20
1.088847
 30
0.0
 11
34.462397
 21
1.088847
 31
0.0
  0
LINE
  5
1A1
100
AcDbEntity
  8
BORDER
 62
     4
100
AcDbLine
 10
34.474625
 20
0.579871
 30
0.0
 11
30.724625
 21
0.579871
 31
0.0
  0
TEXT
  5
1A2
100
AcDbEntity
  8
BORDER
 62
     4
100
AcDbText
 10
30.943473
 20
1.737321
 30
0.0
 40
0.201
  1
SALISBURY MACHINERY CO.
 41
0.75
  7
ROMANT
100
AcDbText
  0
TRACE
  5
1A3
100
AcDbEntity
  8
BORDER
 62
     2
100
AcDbTrace
 10
34.474625
 20
0.001347
 30
0.0
 11
34.474625
 21
0.051347
 31
0.0
 12
30.699625
 22
0.001347
 32
0.0
 13
30.749625
 23
0.051347
 33
0.0
  0
TRACE
  5
1A4
100
AcDbEntity
  8
BORDER
 62
     2
100
AcDbTrace
 10
30.724625
 20
2.051347
 30
0.0
 11
30.724625
 21
2.001347
 31
0.0
 12
34.499625
 22
2.051347
 32
0.0
 13
34.449625
 23
2.001347
 33
0.0
  0
LINE
  5
1A5
100
AcDbEntity
  8
BORDER
 62
     2
100
AcDbLine
 10
30.724625
 20
2.026347
 30
0.0
 11
34.474625
 21
2.026347
 31
0.0
  0
LINE
  5
1A6
100
AcDbEntity
  8
BORDER
 62
     2
100
AcDbLine
 10
30.724625
 20
2.026347
 30
0.0
 11
34.462397
 21
2.026347
 31
0.0
  0
LINE
  5
1A7
100
AcDbEntity
  8
BORDER
 62
     4
100
AcDbLine
 10
28.190151
 20
0.876776
 30
0.0
 11
28.190151
 21
0.623703
 31
0.0
  0
LINE
  5
1A8
100
AcDbEntity
  8
BORDER
 62
     4
100
AcDbLine
 10
29.543221
 20
0.626776
 30
0.0
 11
29.543221
 21
0.31847
 31
0.0
  0
TEXT
  5
1A9
100
AcDbEntity
  8
BORDER
 62
     3
100
AcDbText
 10
31.823892
 20
1.134113
 30
0.0
 40
0.15
  1
APP.
 41
0.75
  7
ROMANS
100
AcDbText
  0
TEXT
  5
1AA
100
AcDbEntity
  8
BORDER
 62
     3
100
AcDbText
 10
31.748288
 20
1.567901
 30
0.0
 40
0.12
  1
SALISBURY, N.C.
  7
ROMANS
100
AcDbText
  0
TEXT
  5
1AB
100
AcDbEntity
  8
BORDER
 62
     3
100
AcDbText
 10
30.849625
 20
0.095839
 30
0.0
 40
0.117
  1
NO.
  7
ROMANS
100
AcDbText
  0
LINE
  5
1AC
100
AcDbEntity
  8
BORDER
 62
     2
100
AcDbLine
 10
30.724625
 20
0.026347
 30
0.0
 11
30.724625
 21
2.026347
 31
0.0
  0
LINE
  5
1AD
100
AcDbEntity
  8
BORDER
 62
     2
100
AcDbLine
 10
30.724625
 20
2.026347
 30
0.0
 11
30.724625
 21
0.017776
 31
0.0
  0
TRACE
  5
1AE
100
AcDbEntity
  8
BORDER
 62
     2
100
AcDbTrace
 10
30.699625
 20
0.001347
 30
0.0
 11
30.749625
 21
0.051347
 31
0.0
 12
30.699625
 22
2.051347
 32
0.0
 13
30.749625
 23
2.051347
 33
0.0
  0
LINE
  5
1AF
100
AcDbEntity
  8
BORDER
100
AcDbLine
 10
31.787125
 20
1.338847
 30
0.0
 11
31.787125
 21
1.088847
 31
0.0
  0
LINE
  5
1B0
100
AcDbEntity
  8
BORDER
 62
     4
100
AcDbLine
 10
31.787125
 20
1.088847
 30
0.0
 11
31.787125
 21
1.338847
 31
0.0
  0
TEXT
  5
1B1
100
AcDbEntity
  8
BORDER
 62
     3
100
AcDbText
 10
30.825871
 20
0.376645
 30
0.0
 40
0.1215
  1
REV.
  7
ROMANS
100
AcDbText
  0
TEXT
  5
1B2
100
AcDbEntity
  8
BORDER
 62
     3
100
AcDbText
 10
30.817486
 20
1.134113
 30
0.0
 40
0.15
  1
CHK.      
 41
0.75
  7
ROMANS
100
AcDbText
  0
TEXT
  5
1B3
100
AcDbEntity
  8
BORDER
 62
     3
100
AcDbText
 10
30.82494
 20
1.362385
 30
0.0
 40
0.122119
  1
DRN.
 41
0.75
  7
ROMANS
100
AcDbText
  0
LINE
  5
1B4
100
AcDbEntity
  8
BORDER
100
AcDbLine
 10
32.599625
 20
1.338847
 30
0.0
 11
32.599625
 21
1.088847
 31
0.0
  0
LINE
  5
1B5
100
AcDbEntity
  8
BORDER
 62
     4
100
AcDbLine
 10
32.599625
 20
1.338847
 30
0.0
 11
32.599625
 21
1.088847
 31
0.0
  0
TEXT
  5
1B6
100
AcDbEntity
  8
BORDER
 62
     3
100
AcDbText
 10
32.665987
 20
1.127261
 30
0.0
 40
0.15
  1
SCALE:
 41
0.75
  7
ROMANS
100
AcDbText
  0
TRACE
  5
1B7
100
AcDbEntity
  8
BORDER
 62
     2
100
AcDbTrace
 10
34.499625
 20
2.051347
 30
0.0
 11
34.449625
 21
2.001347
 31
0.0
 12
34.499625
 22
0.051347
 32
0.0
 13
34.449625
 23
0.001347
 33
0.0
  0
LINE
  5
1B8
100
AcDbEntity
  8
BORDER
 62
     2
100
AcDbLine
 10
34.474625
 20
2.026347
 30
0.0
 11
34.474625
 21
0.026347
 31
0.0
  0
TRACE
  5
1B9
100
AcDbEntity
  8
BORDER
 62
     2
100
AcDbTrace
 10
34.499625
 20
0.051347
 30
0.0
 11
34.449625
 21
0.001347
 31
0.0
 12
34.474625
 22
0.051347
 32
0.0
 13
34.474625
 23
0.001347
 33
0.0
  0
SOLID
  5
1BA
100
AcDbEntity
  8
BORDER
 62
     2
100
AcDbTrace
 10
34.499625
 20
0.051347
 30
0.0
 11
34.498353
 21
-0.001275
 31
0.0
 12
34.449625
 22
0.001347
 32
0.0
 13
34.449625
 23
0.001347
 33
0.0
  0
LINE
  5
1BB
100
AcDbEntity
  8
BORDER
 62
     9
100
AcDbLine
 10
34.5
 20
0.0
 30
0.0
 11
34.5
 21
22.5
 31
0.0
  0
TEXT
  5
1BC
100
AcDbEntity
  8
BORDER
 62
     3
100
AcDbText
 10
2.014587
 20
0.354201
 30
0.0
 40
0.089224
  1
FRACTIONS   1/64
  7
ROMANS
100
AcDbText
  0
TEXT
  5
1BD
100
AcDbEntity
  8
BORDER
 62
     3
100
AcDbText
 10
2.849775
 20
0.378168
 30
0.0
 40
0.07
  1
+
 41
0.8
  7
ROMANS
100
AcDbText
  0
TEXT
  5
1BE
100
AcDbEntity
  8
BORDER
 62
     3
100
AcDbText
 10
2.849775
 20
0.318894
 30
0.0
 40
0.07
  1
-
 41
0.8
  7
ROMANS
100
AcDbText
  0
LINE
  5
1BF
100
AcDbEntity
  8
BORDER
 62
     7
100
AcDbLine
 10
-0.03
 20
-0.127903
 30
0.0
 11
-0.03
 21
-0.5265
 31
0.0
  0
LINE
  5
1C0
100
AcDbEntity
  8
BORDER
 62
     7
100
AcDbLine
 10
-0.03
 20
-0.5265
 30
0.0
 11
0.197728
 21
-0.5265
 31
0.0
  0
LINE
  5
1C1
100
AcDbEntity
  8
BORDER
 62
     4
100
AcDbLine
 10
32.599625
 20
1.526347
 30
0.0
 11
32.599625
 21
1.338847
 31
0.0
  0
TEXT
  5
1C2
100
AcDbEntity
  8
BORDER
 62
     3
100
AcDbText
 10
32.664456
 20
1.362385
 30
0.0
 40
0.122119
  1
DATE:
 41
0.75
  7
ROMANS
100
AcDbText
  0
ENDBLK
  5
1C3
100
AcDbEntity
  8
0
100
AcDbBlockEnd
  0
ENDSEC
  0
SECTION
  2
ENTITIES
  0
POLYLINE
  5
32470
100
AcDbEntity
  8
OBJ1
100
AcDb2dPolyline
 66
     1
 10
0.0
 20
0.0
 30
0.0
 70
     1
  0
VERTEX
  5
32471
100
AcDbEntity
  8
OBJ1
100
AcDbVertex
100
AcDb2dVertex
 10
40.784978
 20
26.416543
 30
0.0
  0
VERTEX
  5
32472
100
AcDbEntity
  8
OBJ1
100
AcDbVertex
100
AcDb2dVertex
 10
41.521757
 20
27.195898
 30
0.0
 42
-0.457317
  0
VERTEX
  5
32473
100
AcDbEntity
  8
OBJ1
100
AcDbVertex
100
AcDb2dVertex
 10
44.447201
 20
27.066006
 30
0.0
 42
0.484423
  0
VERTEX
  5
32474
100
AcDbEntity
  8
OBJ1
100
AcDbVertex
100
AcDb2dVertex
 10
47.177616
 20
27.066006
 30
0.0
  0
VERTEX
  5
32475
100
AcDbEntity
  8
OBJ1
100
AcDbVertex
100
AcDb2dVertex
 10
48.911212
 20
27.607224
 30
0.0
  0
VERTEX
  5
32476
100
AcDbEntity
  8
OBJ1
100
AcDbVertex
100
AcDb2dVertex
 10
48.694512
 20
25.052672
 30
0.0
  0
SEQEND
  5
32477
100
AcDbEntity
  8
OBJ1
  0
ENDSEC
  0
SECTION
  2
OBJECTS
  0
DICTIONARY
  5
323FE
100
AcDbDictionary
  3
ACAD_GROUP
350
323FF
  3
ACAD_MLINESTYLE
350
32400
  0
DICTIONARY
  5
323FF
102
{ACAD_REACTORS
330
323FE
102
}
100
AcDbDictionary
  0
DICTIONARY
  5
32400
102
{ACAD_REACTORS
330
323FE
102
}
100
AcDbDictionary
  3
STANDARD
350
3240D
  0
MLINESTYLE
  5
3240D
102
{ACAD_REACTORS
330
32400
102
}
100
AcDbMlineStyle
  2
STANDARD
 70
     0
  3

 62
     0
 51
90.0
 52
90.0
 71
     2
 49
0.5
 62
   256
  6
BYLAYER
 49
-0.5
 62
   256
  6
BYLAYER
  0
ENDSEC
  0
EOF
