  0
SECTION
  2
HEADER
  9
$ACADVER
  1
AC1009
  9
$INSBASE
 10
0.0
 20
0.0
 30
0.0
  9
$EXTMIN
 10
1.e+020
 20
1.e+020
 30
1.e+020
  9
$EXTMAX
 10
-1.e+020
 20
-1.e+020
 30
-1.e+020
  9
$LIMMIN
 10
0.0
 20
0.0
  9
$LIMMAX
 10
12.0
 20
9.0
  9
$ORTHOMODE
 70
     0
  9
$REGENMODE
 70
     1
  9
$FILLMODE
 70
     1
  9
$QTEXTMODE
 70
     0
  9
$MIRRTEXT
 70
     0
  9
$DRAGMODE
 70
     2
  9
$LTSCALE
 40
1.0
  9
$OSMODE
 70
     0
  9
$ATTMODE
 70
     1
  9
$ATTREQ
 70
     1
  9
$TEXTSIZE
 40
0.2
  9
$TRACEWID
 40
5.e-002
  9
$TEXTSTYLE
  7
STANDARD
  9
$CLAYER
  8
0
  9
$CELTYPE
  6
BYLAYER
  9
$CECOLOR
 62
   256
  9
$DIMSCALE
 40
1.0
  9
$DIMASZ
 40
0.18
  9
$DIMEXO
 40
6.25e-002
  9
$DIMDLI
 40
0.38
  9
$DIMRND
 40
0.0
  9
$DIMDLE
 40
0.0
  9
$DIMEXE
 40
0.18
  9
$DIMTP
 40
0.0
  9
$DIMTM
 40
0.0
  9
$DIMTXT
 40
0.18
  9
$DIMCEN
 40
9.e-002
  9
$DIMTSZ
 40
0.0
  9
$DIMTOL
 70
     0
  9
$DIMLIM
 70
     0
  9
$DIMTIH
 70
     1
  9
$DIMTOH
 70
     1
  9
$DIMSE1
 70
     0
  9
$DIMSE2
 70
     0
  9
$DIMTAD
 70
     0
  9
$DIMZIN
 70
     0
  9
$DIMBLK
  1

  9
$DIMASO
 70
     1
  9
$DIMSHO
 70
     1
  9
$DIMPOST
  1

  9
$DIMAPOST
  1

  9
$DIMALT
 70
     0
  9
$DIMALTD
 70
     2
  9
$DIMALTF
 40
25.4
  9
$DIMLFAC
 40
1.0
  9
$DIMTOFL
 70
     0
  9
$DIMTVP
 40
0.0
  9
$DIMTIX
 70
     0
  9
$DIMSOXD
 70
     0
  9
$DIMSAH
 70
     0
  9
$DIMBLK1
  1

  9
$DIMBLK2
  1

  9
$DIMSTYLE
  2
*UNNAMED
  9
$DIMCLRD
 70
     0
  9
$DIMCLRE
 70
     0
  9
$DIMCLRT
 70
     0
  9
$DIMTFAC
 40
1.0
  9
$DIMGAP
 40
9.e-002
  9
$LUNITS
 70
     2
  9
$LUPREC
 70
     4
  9
$SKETCHINC
 40
0.1
  9
$FILLETRAD
 40
10.0
  9
$AUNITS
 70
0.0
  9
$AUPREC
 70
0.0
  9
$MENU
  1
FCAD
  9
$ELEVATION
 40
0.0
  9
$PELEVATION
 40
0.0
  9
$THICKNESS
 40
0.0
  9
$LIMCHECK
 70
     1
  9
$BLIPMODE
 70
     1
  9
$CHAMFERA
 40
0.0
  9
$CHAMFERB
 40
0.0
  9
$SKPOLY
 70
0.0
  9
$TDCREATE
 40
0.0
  9
$TDUPDATE
 40
0.0
  9
$TDINDWG
 40
0.0
  9
$TDUSRTIMER
 40
0.0
  9
$USRTIMER
 70
1.0
  9
$ANGBASE
 50
0.0
  9
$ANGDIR
 70
     0
  9
$PDMODE
 70
     0
  9
$PDSIZE
 40
0.0
  9
$PLINEWID
 40
0.0
  9
$COORDS
 70
     1
  9
$SPLFRAME
 70
     0
  9
$SPLINETYPE
 70
     6
  9
$SPLINESEGS
 70
     8
  9
$ATTDIA
 70
     1
  9
$HANDLING
 70
     1
  9
$HANDSEED
  5
1D
  9
$SURFTAB1
 70
     6
  9
$SURFTAB2
 70
     6
  9
$SURFTYPE
 70
     6
  9
$SURFU
 70
     6
  9
$SURFV
 70
     6
  9
$UCSNAME
  2

  9
$UCSORG
 10
0.0
 20
0.0
 30
0.0
  9
$UCSXDIR
 10
1.0
 20
0.0
 30
0.0
  9
$UCSYDIR
 10
0.0
 20
1.0
 30
0.0
  9
$PUCSNAME
  2

  9
$PUCSORG
 10
0.0
 20
0.0
 30
0.0
  9
$PUCSXDIR
 10
1.0
 20
0.0
 30
0.0
  9
$PUCSYDIR
 10
0.0
 20
1.0
 30
0.0
  9
$USERI1
 70
     0
  9
$USERI2
 70
     0
  9
$USERI3
 70
     0
  9
$USERI4
 70
     0
  9
$USERI5
 70
     0
  9
$USERR1
 40
0.0
  9
$USERR2
 40
0.0
  9
$USERR3
 40
0.0
  9
$USERR4
 40
0.0
  9
$USERR5
 40
0.0
  9
$WORLDVIEW
 70
     1
  9
$SHADEDGE
 70
     1
  9
$SHADEDIF
 70
    70
  9
$TILEMODE
 70
     1
  9
$MAXACTVP
 70
    16
  9
$PLIMCHECK
 70
     0
  9
$PEXTMIN
 10
1.e+020
 20
1.e+020
 30
1.e+020
  9
$PEXTMAX
 10
-1.e+020
 20
-1.e+020
 30
-1.e+020
  9
$PLIMMIN
 10
0.0
 20
0.0
  9
$PLIMMAX
 10
12.0
 20
9.0
  9
$UNITMODE
 70
     0
  9
$VISRETAIN
 70
     0
  9
$PLINEGEN
 70
     0
  9
$PSLTSCALE
 70
     1
  0
ENDSEC
  0
SECTION
  2
TABLES
  0
TABLE
  2
VPORT
 70
     1
  0
VPORT
 70
     0
  2
*ACTIVE
 10
0.0
 20
0.0
 11
1.0
 21
1.0
 12
100.0
 22
37.0
 13
0.0
 23
0.0
 14
1.0
 24
1.0
 15
1.0
 25
1.0
 16
0.0
 26
0.0
 36
1.0
 17
0.0
 27
0.0
 37
0.0
 40
126.0
 41
2.666667
 42
50.0
 43
0.0
 44
0.0
 50
0.0
 51
0.0
 71
     0
 72
   100
 73
     1
 74
     1
 75
     0
 76
     0
 77
     0
 78
     0
  0
ENDTAB
  0
TABLE
  2
LTYPE
 70
     1
  0
LTYPE
 70
     0
  2
CONTINUOUS
  3
Solid Line
 72
    65
 73
     0
 40
0.0
  0
ENDTAB
  0
TABLE
  2
LAYER
 70
     1
  0
LAYER
 70
    64
  2
0
 62
     7
  6
CONTINUOUS
  0
ENDTAB
  0
TABLE
  2
STYLE
 70
     1
  0
STYLE
  2
STANDARD
 70
0.0
 40
0.0
 41
1.0
 50
0.0
 71
     0
 42
0.2
  3
TXT
  0
ENDTAB
  0
TABLE
  2
VIEW
 70
     0
  0
ENDTAB
  0
TABLE
  2
UCS
 70
     0
  0
ENDTAB
  0
TABLE
  2
APPID
 70
     0
  0
ENDTAB
  0
TABLE
  2
DIMSTYLE
 70
     0
  0
ENDTAB
  0
ENDSEC
  0
SECTION
  2
BLOCKS
  0
ENDSEC
  0
SECTION
  2
ENTITIES
  0
LINE
  8
0
  5
1
  6
BYLAYER
 10
20.0
 20
70.0
 30
0.0
 11
60.0
 21
70.0
 31
0.0
  0
LINE
  8
0
  5
2
  6
BYLAYER
 10
20.0
 20
130.0
 30
0.0
 11
60.0
 21
130.0
 31
0.0
  0
LINE
  8
0
  5
3
  6
BYLAYER
 10
130.0
 20
20.0
 30
0.0
 11
130.0
 21
60.0
 31
0.0
  0
LINE
  8
0
  5
4
  6
BYLAYER
 10
70.0
 20
20.0
 30
0.0
 11
70.0
 21
60.0
 31
0.0
  0
SOLID
  8
0
  5
9
  6
BYLAYER
 10
150.0
 20
88.0
 30
0.0
 11
150.0
 21
76.0
 31
0.0
 12
180.0
 22
88.0
 32
0.0
 13
180.0
 23
76.0
 33
0.0
  0
SOLID
  8
0
  5
A
  6
BYLAYER
 10
150.0
 20
106.0
 30
0.0
 11
150.0
 21
94.0
 31
0.0
 12
180.0
 22
106.0
 32
0.0
 13
180.0
 23
94.0
 33
0.0
  0
SOLID
  8
0
  5
B
  6
BYLAYER
 10
150.0
 20
124.0
 30
0.0
 11
150.0
 21
112.0
 31
0.0
 12
180.0
 22
124.0
 32
0.0
 13
180.0
 23
112.0
 33
0.0
  0
SOLID
  8
0
  5
C
  6
BYLAYER
 10
112.0
 20
150.0
 30
0.0
 11
124.0
 21
150.0
 31
0.0
 12
112.0
 22
180.0
 32
0.0
 13
124.0
 23
180.0
 33
0.0
  0
SOLID
  8
0
  5
D
  6
BYLAYER
 10
94.0
 20
150.0
 30
0.0
 11
106.0
 21
150.0
 31
0.0
 12
94.0
 22
180.0
 32
0.0
 13
106.0
 23
180.0
 33
0.0
  0
SOLID
  8
0
  5
E
  6
BYLAYER
 10
76.0
 20
150.0
 30
0.0
 11
88.0
 21
150.0
 31
0.0
 12
76.0
 22
180.0
 32
0.0
 13
88.0
 23
180.0
 33
0.0
  0
SOLID
  8
0
  5
F
  6
BYLAYER
 10
50.0
 20
112.0
 30
0.0
 11
50.0
 21
124.0
 31
0.0
 12
20.0
 22
112.0
 32
0.0
 13
20.0
 23
124.0
 33
0.0
  0
SOLID
  8
0
  5
10
  6
BYLAYER
 10
50.0
 20
94.0
 30
0.0
 11
50.0
 21
106.0
 31
0.0
 12
20.0
 22
94.0
 32
0.0
 13
20.0
 23
106.0
 33
0.0
  0
SOLID
  8
0
  5
11
  6
BYLAYER
 10
50.0
 20
76.0
 30
0.0
 11
50.0
 21
88.0
 31
0.0
 12
20.0
 22
76.0
 32
0.0
 13
20.0
 23
88.0
 33
0.0
  0
SOLID
  8
0
  5
12
  6
BYLAYER
 10
88.0
 20
50.0
 30
0.0
 11
76.0
 21
50.0
 31
0.0
 12
88.0
 22
20.0
 32
0.0
 13
76.0
 23
20.0
 33
0.0
  0
SOLID
  8
0
  5
13
  6
BYLAYER
 10
106.0
 20
50.0
 30
0.0
 11
94.0
 21
50.0
 31
0.0
 12
106.0
 22
20.0
 32
0.0
 13
94.0
 23
20.0
 33
0.0
  0
SOLID
  8
0
  5
14
  6
BYLAYER
 10
124.0
 20
50.0
 30
0.0
 11
112.0
 21
50.0
 31
0.0
 12
124.0
 22
20.0
 32
0.0
 13
112.0
 23
20.0
 33
0.0
  0
LINE
  8
0
  5
15
  6
BYLAYER
 10
140.0
 20
130.0
 30
0.0
 11
180.0
 21
130.0
 31
0.0
  0
LINE
  8
0
  5
16
  6
BYLAYER
 10
70.0
 20
140.0
 30
0.0
 11
70.0
 21
180.0
 31
0.0
  0
LINE
  8
0
  5
17
  6
BYLAYER
 10
130.0
 20
140.0
 30
0.0
 11
130.0
 21
180.0
 31
0.0
  0
LINE
  8
0
  5
18
  6
BYLAYER
 10
140.0
 20
70.0
 30
0.0
 11
180.0
 21
70.0
 31
0.0
  0
ARC
  8
0
  5
19
  6
BYLAYER
 10
60.0
 20
140.0
 30
0.0
 40
10.0
 50
270.0
 51
0.0
  0
ARC
  8
0
  5
1A
  6
BYLAYER
 10
140.0
 20
140.0
 30
0.0
 40
10.0
 50
180.0
 51
270.0
  0
ARC
  8
0
  5
1B
  6
BYLAYER
 10
140.0
 20
60.0
 30
0.0
 40
10.0
 50
90.0
 51
180.0
  0
ARC
  8
0
  5
1C
  6
BYLAYER
 10
60.0
 20
60.0
 30
0.0
 40
10.0
 50
0.0
 51
90.0
  0
ENDSEC
  0
EOF
