  0
SECTION 
  2
HEADER
  0
ENDSEC
  0
SECTION
  2
TABLES
  0
TABLE
  2
LTYPE
 70
     4
  0
LTYPE
  2
CONTINUOUS
 70
    64
  3
SOLID LINE
 72
    65
 73
     0
 40
         .000000
  0
LTYPE
  2
DASHED
 70
    64
  3
DASHED LINE
 72
    65
 73
     2
 40
         .300000
 49
         .200000
 49
        -.100000
  0
LTYPE
  2
CENTER
 70
    64
  3
CENTER LINE
 72
    65
 73
     4
 40
         .700000
 49
         .400000
 49
        -.100000
 49
         .100000
 49
        -.100000
  0
LTYPE
  2
PHANTOM
 70
    64
  3
PHANTOM LINE
 72
    65
 73
     6
 40
        1.000000
 49
         .500000
 49
        -.100000
 49
         .100000
 49
        -.100000
 49
         .100000
 49
        -.100000
  0
LTYPE
  2
DOT
 70
    64
  3
................................................
 72
    65
 73
     2
 40
           .250000
 49
           .000000
 49
          -.250000
  0
ENDTAB
  0
TABLE
  2
LAYER
 70
     5
  0
LAYER
  2
0
 70
     0
 62
     7
  6
CONTINUOUS
  0
LAYER
  2
DASHED
 70
     0
 62
     7
  6
DASHED
  0
LAYER
  2
CENTER
 70
     0
 62
     7
  6
CENTER
  0
LAYER
  2
PHANTOM
 70
     0
 62
     7
  6
PHANTOM
  0
LAYER
  2
DIMENSIONS
 70
     0
 62
     7
  6
CONTINUOUS
  0
LAYER
  2
99NC
 70
     0
 62
     7
  6
DOT
  0
LAYER
  2
NC
 70
     0
 62
     7
  6
DOT
  0
ENDTAB
  0
TABLE
  2
STYLE
 70
     1
  0
STYLE
  2
STANDARD
 70
     0
 40
         .000000
 50
         .000000
 71
     0
 41
        1.000000
 42
        1.000000
  3
MONOTXT
  0
ENDTAB
  0
TABLE
  2
VIEW
 70
     1
  0
ENDTAB
  0
ENDSEC
  0
SECTION
  2
BLOCKS
  0
BLOCK
  8
0
  2
ELLIPSE
 70
     0
 10
         .000000
 20
         .000000
  0
CIRCLE
  8
0
 10
         .000000
 20
         .000000
 40
        1.000000
  0
ENDBLK
  8
0
  0
BLOCK
  8
0
  2
1
 70
     0
 10
         .000000
 20
         .000000
  0
POINT
  8
0
 10
        -.130733
 20
       -1.494291
  0
LINE
  8
0
 10
         .459626
 20
        -.385673
 11
        1.149066
 21
        -.964182
  0
LINE
  8
0
 10
         .563815
 20
        -.205212
 11
        1.409538
 21
        -.513031
  0
LINE
  8
0
 10
         .563815
 20
         .205212
 11
        1.409538
 21
         .513030
  0
LINE
  8
0
 10
         .459626
 20
         .385673
 11
        1.149066
 21
         .964181
  0
LINE
  8
0
 10
         .424264
 20
         .424264
 11
        1.060660
 21
        1.060659
  0
LINE
  8
0
 10
         .253571
 20
         .543784
 11
         .633927
 21
        1.359462
  0
LINE
  8
0
 10
         .205212
 20
         .563815
 11
         .513030
 21
        1.409538
  0
LINE
  8
0
 10
         .000000
 20
         .599999
 11
         .000000
 21
        1.500000
  0
LINE
  8
0
 10
        -.052293
 20
         .597716
 11
        -.130733
 21
        1.494292
  0
LINE
  8
0
 10
        -.253571
 20
         .543784
 11
        -.633926
 21
        1.359462
  0
LINE
  8
0
 10
        -.299999
 20
         .519615
 11
        -.749999
 21
        1.299038
  0
LINE
  8
0
 10
        -.459626
 20
         .385673
 11
       -1.149066
 21
         .964181
  0
LINE
  8
0
 10
        -.491490
 20
         .344146
 11
       -1.228727
 21
         .860365
  0
LINE
  8
0
 10
        -.579555
 20
         .155292
 11
       -1.448888
 21
         .388228
  0
LINE
  8
0
 10
        -.590884
 20
         .104189
 11
       -1.477212
 21
         .260472
  0
LINE
  8
0
 10
        -.590884
 20
        -.104188
 11
       -1.477211
 21
        -.260471
  0
LINE
  8
0
 10
        -.579556
 20
        -.155291
 11
       -1.448889
 21
        -.388227
  0
LINE
  8
0
 10
        -.491491
 20
        -.344145
 11
       -1.228728
 21
        -.860364
  0
LINE
  8
0
 10
        -.459626
 20
        -.385672
 11
       -1.149067
 21
        -.964181
  0
LINE
  8
0
 10
        -.300000
 20
        -.519614
 11
        -.750000
 21
       -1.299038
  0
LINE
  8
0
 10
        -.253571
 20
        -.543784
 11
        -.633928
 21
       -1.359462
  0
LINE
  8
0
 10
        -.052294
 20
        -.597716
 11
        -.130733
 21
       -1.494291
  0
LINE
  8
0
 10
        -.000000
 20
        -.599999
 11
        -.000001
 21
       -1.500000
  0
LINE
  8
0
 10
         .205212
 20
        -.563815
 11
         .513029
 21
       -1.409539
  0
LINE
  8
0
 10
         .253571
 20
        -.543784
 11
         .633926
 21
       -1.359462
  0
LINE
  8
0
 10
         .424263
 20
        -.424264
 11
        1.060659
 21
       -1.060660
  0
LINE
  8
0
 10
        -.255258
 20
        1.483397
 11
        -.130733
 21
        1.494291
  0
LINE
  8
0
 10
        -.255259
 20
       -1.483397
 11
        -.130733
 21
       -1.494291
  0
ARC
  8
0
 10
         .000000
 20
         .000000
 40
        1.500000
 50
      319.999900
 51
      339.999900
  0
ARC
  8
0
 10
         .000000
 20
         .000000
 40
         .600000
 50
      319.999900
 51
      340.000000
  0
ARC
  8
0
 10
         .000000
 20
         .000000
 40
         .599999
 50
       19.999990
 51
       40.000060
  0
ARC
  8
0
 10
         .000000
 20
         .000000
 40
        1.499999
 50
       20.000020
 51
       40.000030
  0
ARC
  8
0
 10
         .000000
 20
         .000000
 40
         .600000
 50
       45.000040
 51
       65.000070
  0
ARC
  8
0
 10
         .000000
 20
         .000000
 40
        1.499999
 50
       45.000040
 51
       65.000040
  0
ARC
  8
0
 10
         .000000
 20
         .000000
 40
         .599999
 50
       70.000080
 51
       90.000060
  0
ARC
  8
0
 10
         .000000
 20
         .000000
 40
        1.499999
 50
       70.000050
 51
       90.000060
  0
ARC
  8
0
 10
         .000000
 20
         .000000
 40
         .599999
 50
       95.000060
 51
      115.000100
  0
ARC
  8
0
 10
         .000000
 20
         .000000
 40
        1.499999
 50
       95.000040
 51
      115.000100
  0
ARC
  8
0
 10
         .000000
 20
         .000000
 40
         .600000
 50
      120.000000
 51
      140.000100
  0
ARC
  8
0
 10
         .000000
 20
         .000000
 40
        1.499999
 50
      120.000100
 51
      140.000100
  0
ARC
  8
0
 10
         .000000
 20
         .000000
 40
         .599999
 50
      145.000100
 51
      165.000100
  0
ARC
  8
0
 10
         .000000
 20
         .000000
 40
        1.500000
 50
      145.000100
 51
      165.000100
  0
ARC
  8
0
 10
         .000000
 20
         .000000
 40
         .600000
 50
      530.000100
 51
      549.999800
  0
ARC
  8
0
 10
         .000000
 20
         .000000
 40
        1.499999
 50
      530.000100
 51
      549.999800
  0
ARC
  8
0
 10
         .000000
 20
         .000000
 40
         .600000
 50
      194.999800
 51
      214.999900
  0
ARC
  8
0
 10
         .000000
 20
         .000000
 40
        1.500000
 50
      194.999800
 51
      214.999900
  0
ARC
  8
0
 10
         .000000
 20
         .000000
 40
         .599999
 50
      219.999800
 51
      240.000000
  0
ARC
  8
0
 10
         .000000
 20
         .000000
 40
        1.500000
 50
      219.999900
 51
      239.999900
  0
ARC
  8
0
 10
         .000000
 20
         .000000
 40
         .599999
 50
      244.999900
 51
      264.999900
  0
ARC
  8
0
 10
         .000000
 20
         .000000
 40
        1.499999
 50
      244.999900
 51
      264.999900
  0
ARC
  8
0
 10
         .000000
 20
         .000000
 40
         .599999
 50
      269.999900
 51
      289.999900
  0
ARC
  8
0
 10
         .000000
 20
         .000000
 40
        1.500000
 50
      269.999900
 51
      289.999900
  0
ARC
  8
0
 10
         .000000
 20
         .000000
 40
         .599999
 50
      294.999900
 51
      314.999900
  0
ARC
  8
0
 10
         .000000
 20
         .000000
 40
        1.500000
 50
      294.999900
 51
      314.999900
  0
CIRCLE
  8
0
 10
         .320000
 20
         .240000
 40
         .060000
  0
CIRCLE
  8
0
 10
         .320000
 20
         .240000
 40
         .099999
  0
ENDBLK
  8
0
  0
ENDSEC
  0
SECTION
  2
ENTITIES
  0
LINE
  8
0
 10
       -1.678142
 20
       -1.727498
 11
        1.590190
 21
       -1.727498
 62
     2
  0
LINE
  8
0
 10
       -1.678142
 20
        1.615873
 11
        1.590190
 21
        1.615873
 62
     2
  0
LINE
  8
0
 10
        1.590190
 20
        1.615873
 11
        1.590190
 21
       -1.727498
 62
     2
  0
LINE
  8
0
 10
       -1.678142
 20
        1.615873
 11
       -1.678142
 21
       -1.727498
 62
     2
  0
LINE
  8
0
 10
        1.840190
 20
        1.865873
 11
        1.840190
 21
       -1.977498
 62
     3
  0
LINE
  8
0
 10
        2.090190
 20
        2.115873
 11
        2.090190
 21
       -2.227498
 62
     4
  0
LINE
  8
0
 10
        2.340190
 20
        2.365873
 11
        2.340190
 21
       -2.477498
 62
     1
  0
LINE
  8
0
 10
       -1.928142
 20
        1.865873
 11
        1.840190
 21
        1.865873
 62
     3
  0
LINE
  8
0
 10
       -2.178142
 20
        2.115873
 11
        2.090190
 21
        2.115873
 62
     4
  0
LINE
  8
0
 10
       -2.428142
 20
        2.365873
 11
        2.340190
 21
        2.365873
 62
     1
  0
LINE
  8
0
 10
       -1.928142
 20
        1.865873
 11
       -1.928142
 21
       -1.977498
 62
     3
  0
LINE
  8
0
 10
       -2.178142
 20
        2.115873
 11
       -2.178142
 21
       -2.227498
 62
     4
  0
LINE
  8
0
 10
       -2.428142
 20
        2.365873
 11
       -2.428142
 21
       -2.477498
 62
     1
  0
LINE
  8
0
 10
       -1.928142
 20
       -1.977498
 11
        1.840190
 21
       -1.977498
 62
     3
  0
LINE
  8
0
 10
       -2.178142
 20
       -2.227498
 11
        2.090190
 21
       -2.227498
 62
     4
  0
LINE
  8
0
 10
       -2.428142
 20
       -2.477498
 11
        2.340190
 21
       -2.477498
 62
     1
  0
INSERT
  8
0
  2
1
 10
         .000000
 20
         .000000
 41
        1.000000
 42
        1.000000
 50
         .000000
  0
ENDSEC
  0
EOF
